  0
SECTION
  2
HEADER
  9
$ACADVER
  1
AC1009
  9
$INSBASE
 10
0.0
 20
0.0
 30
0.0
  9
$EXTMIN
 10
0.0
 20
0.0
 30
0.0
  9
$EXTMAX
 10
1050.0
 20
1450.9127778224531
 30
2.52
  9
$LIMMIN
 10
0.0
 20
0.0
  9
$LIMMAX
 10
1050.0488316757239
 20
1450.9506259939519
  9
$ORTHOMODE
 70
     1
  9
$REGENMODE
 70
     1
  9
$FILLMODE
 70
     1
  9
$QTEXTMODE
 70
     0
  9
$MIRRTEXT
 70
     0
  9
$DRAGMODE
 70
     2
  9
$LTSCALE
 40
2.0
  9
$OSMODE
 70
    47
  9
$ATTMODE
 70
     1
  9
$TEXTSIZE
 40
7.0
  9
$TRACEWID
 40
10.0
  9
$TEXTSTYLE
  7
STANDARD
  9
$CLAYER
  8
BORT
  9
$CELTYPE
  6
BYLAYER
  9
$CECOLOR
 62
   256
  9
$DIMSCALE
 40
1.0
  9
$DIMASZ
 40
8.0
  9
$DIMEXO
 40
2.0
  9
$DIMDLI
 40
10.0
  9
$DIMRND
 40
0.0
  9
$DIMDLE
 40
1.25
  9
$DIMEXE
 40
2.0
  9
$DIMTP
 40
0.0
  9
$DIMTM
 40
0.0
  9
$DIMTXT
 40
7.0
  9
$DIMCEN
 40
-3.0
  9
$DIMTSZ
 40
0.0
  9
$DIMTOL
 70
     0
  9
$DIMLIM
 70
     0
  9
$DIMTIH
 70
     0
  9
$DIMTOH
 70
     0
  9
$DIMSE1
 70
     0
  9
$DIMSE2
 70
     0
  9
$DIMTAD
 70
     0
  9
$DIMZIN
 70
     0
  9
$DIMBLK
  1

  9
$DIMASO
 70
     0
  9
$DIMSHO
 70
     0
  9
$DIMPOST
  1

  9
$DIMAPOST
  1

  9
$DIMALT
 70
     0
  9
$DIMALTD
 70
     2
  9
$DIMALTF
 40
0.039
  9
$DIMLFAC
 40
1.0
  9
$DIMTOFL
 70
     0
  9
$DIMTVP
 40
1.1428571428571419
  9
$DIMTIX
 70
     0
  9
$DIMSOXD
 70
     0
  9
$DIMSAH
 70
     0
  9
$DIMBLK1
  1

  9
$DIMBLK2
  1

  9
$DIMSTYLE
  2
STD
  9
$DIMCLRD
 70
   256
  9
$DIMCLRE
 70
   256
  9
$DIMCLRT
 70
   256
  9
$DIMTFAC
 40
1.0
  9
$DIMGAP
 40
1.5
  9
$LUNITS
 70
     2
  9
$LUPREC
 70
     2
  9
$SKETCHINC
 40
1.0
  9
$FILLETRAD
 40
8.0
  9
$AUNITS
 70
     0
  9
$AUPREC
 70
     2
  9
$MENU
  1
ACAD
  9
$ELEVATION
 40
0.0
  9
$PELEVATION
 40
0.0
  9
$THICKNESS
 40
0.0
  9
$LIMCHECK
 70
     0
  9
$BLIPMODE
 70
     0
  9
$CHAMFERA
 40
0.0
  9
$CHAMFERB
 40
0.0
  9
$SKPOLY
 70
     0
  9
$TDCREATE
 40
2449743.5809120359
  9
$TDUPDATE
 40
2452817.4692805898
  9
$TDINDWG
 40
0.2018847338
  9
$TDUSRTIMER
 40
0.2018847338
  9
$USRTIMER
 70
     1
  9
$ANGBASE
 50
0.0
  9
$ANGDIR
 70
     0
  9
$PDMODE
 70
     3
  9
$PDSIZE
 40
0.0
  9
$PLINEWID
 40
0.0
  9
$COORDS
 70
     1
  9
$SPLFRAME
 70
     0
  9
$SPLINETYPE
 70
     6
  9
$SPLINESEGS
 70
     6
  9
$ATTDIA
 70
     0
  9
$ATTREQ
 70
     1
  9
$HANDLING
 70
  4097
  9
$HANDSEED
  5
714
  9
$SURFTAB1
 70
    18
  9
$SURFTAB2
 70
    18
  9
$SURFTYPE
 70
     6
  9
$SURFU
 70
    18
  9
$SURFV
 70
    18
  9
$UCSNAME
  2

  9
$UCSORG
 10
0.0
 20
0.0
 30
0.0
  9
$UCSXDIR
 10
1.0
 20
0.0
 30
0.0
  9
$UCSYDIR
 10
0.0
 20
1.0
 30
0.0
  9
$PUCSNAME
  2

  9
$PUCSORG
 10
0.0
 20
0.0
 30
0.0
  9
$PUCSXDIR
 10
1.0
 20
0.0
 30
0.0
  9
$PUCSYDIR
 10
0.0
 20
1.0
 30
0.0
  9
$USERI1
 70
     0
  9
$USERI2
 70
     0
  9
$USERI3
 70
     0
  9
$USERI4
 70
     0
  9
$USERI5
 70
     0
  9
$USERR1
 40
0.0
  9
$USERR2
 40
0.0
  9
$USERR3
 40
0.0
  9
$USERR4
 40
0.0
  9
$USERR5
 40
0.0
  9
$WORLDVIEW
 70
     0
  9
$SHADEDGE
 70
     3
  9
$SHADEDIF
 70
    70
  9
$TILEMODE
 70
     1
  9
$MAXACTVP
 70
    16
  9
$PLIMCHECK
 70
     0
  9
$PEXTMIN
 10
1.0000000000000000E+020
 20
1.0000000000000000E+020
 30
1.0000000000000000E+020
  9
$PEXTMAX
 10
-1.0000000000000000E+020
 20
-1.0000000000000000E+020
 30
-1.0000000000000000E+020
  9
$PLIMMIN
 10
0.0
 20
0.0
  9
$PLIMMAX
 10
420.0
 20
297.0
  9
$UNITMODE
 70
     0
  9
$VISRETAIN
 70
     0
  9
$PLINEGEN
 70
     0
  9
$PSLTSCALE
 70
     0
  0
ENDSEC
  0
SECTION
  2
TABLES
  0
TABLE
  2
VPORT
 70
     2
  0
VPORT
  2
*ACTIVE
 70
     0
 10
0.0
 20
0.0
 11
1.0
 21
1.0
 12
66.227896555462834
 22
0.0110756294376415
 13
0.0
 23
0.0
 14
5.0
 24
5.0
 15
10.0
 25
10.0
 16
0.0
 26
0.0
 36
1.0
 17
722.36340911836533
 27
725.45242993795011
 37
0.0
 40
1462.0643602050891
 41
1.7512195121951211
 42
50.0
 43
0.0
 44
0.0
 50
0.0
 51
0.0
 71
     0
 72
  2000
 73
     1
 74
     2
 75
     0
 76
     0
 77
     0
 78
     1
  0
ENDTAB
  0
TABLE
  2
LTYPE
 70
    13
  0
LTYPE
  2
CONTINUOUS
 70
     0
  3
Solid line
 72
    65
 73
     0
 40
0.0
  0
LTYPE
  2
CENTER
 70
     0
  3
____ _ ____ _ ____ _ ____ _ ____ _ ____ _ ____ 
 72
    65
 73
     4
 40
50.0
 49
31.25
 49
-6.25
 49
6.25
 49
-6.25
  0
LTYPE
  2
HIDDEN
 70
     0
  3
_ _ _ _ _ _ _ _ _ _ _ _ _ _ _ _ _ _ _ _ _ _ _ _
 72
    65
 73
     2
 40
9.375
 49
6.25
 49
-3.125
  0
LTYPE
  2
PHANTOM2
 70
     0
  3
Phantom (.5x) ___ _ _ ___ _ _ ___ _ _ ___ _ _
 72
    65
 73
     6
 40
1.25
 49
0.625
 49
-0.125
 49
0.125
 49
-0.125
 49
0.125
 49
-0.125
  0
LTYPE
  2
ASULTYPE
 70
     0
  3
Solid line
 72
    65
 73
     2
 40
3.0
 49
2.5
 49
0.5
  0
LTYPE
  2
ASVLTYPE
 70
     0
  3
__ __ __ __ __ __ __ __ __ __ __ __ __ __ __ __ __ __ __ __ __
 72
    65
 73
     2
 40
0.75
 49
0.5
 49
-0.25
  0
LTYPE
  2
AM_ISO02W050
 70
     0
  3
__ __ __ __ __ __ __ __ __ __ __ __ __ __ __
 72
    65
 73
     2
 40
7.5
 49
6.0
 49
-1.5
  0
LTYPE
  2
AM_ISO08W050
 70
     0
  3
____ . ____ . ____ . ____ . ____ . ____ . ____
 72
    65
 73
     4
 40
18.0
 49
12.0
 49
-1.5
 49
3.0
 49
-1.5
  0
LTYPE
  2
AM_ISO09W050
 70
     0
  3
_____ . . _____ . . _____ . . ____ .. ____
 72
    65
 73
     6
 40
22.5
 49
12.0
 49
-1.5
 49
3.0
 49
-1.5
 49
3.0
 49
-1.5
  0
LTYPE
  2
AMCONSTR
 70
     0
  3
_______________________
 72
    65
 73
     2
 40
9999.0
 49
9999.0
 49
0.0
  0
LTYPE
  2
AM_ISO08W050X2
 70
     0
  3
__ . __ . __ . __ . __ . __
 72
    65
 73
     4
 40
9.0
 49
6.0
 49
-0.75
 49
1.5
 49
-0.75
  0
LTYPE
  2
AM_ISO02W050X2
 70
     0
  3
 _ _ _ _ _ _ _ _ _ _ _ _
 72
    65
 73
     2
 40
3.75
 49
3.0
 49
-0.75
  0
LTYPE
  2
AMZIGZAG
 70
     0
  3
/\/-/\/-/\/-/\/-/\/-/\/
 72
    65
 73
     2
 40
11.000099999999991
 49
0.0001
 49
-11.0
  0
ENDTAB
  0
TABLE
  2
LAYER
 70
     8
  0
LAYER
  2
0
 70
     0
 62
     7
  6
CONTINUOUS
  0
LAYER
  2
DRG
 70
     0
 62
     1
  6
CONTINUOUS
  0
LAYER
  2
CRS
 70
     0
 62
     3
  6
CENTER
  0
LAYER
  2
HID
 70
     0
 62
     6
  6
HIDDEN
  0
LAYER
  2
BORT
 70
     0
 62
     7
  6
CONTINUOUS
  0
LAYER
  2
TXT
 70
     0
 62
     4
  6
CONTINUOUS
  0
LAYER
  2
DIM
 70
     0
 62
     2
  6
CONTINUOUS
  0
LAYER
  2
DRG2
 70
     0
 62
     8
  6
CONTINUOUS
  0
ENDTAB
  0
TABLE
  2
STYLE
 70
     2
  0
STYLE
  2
STANDARD
 70
     0
 40
0.0
 41
1.0
 50
0.0
 71
     0
 42
7.0
  3
SIMPLEX
  4

  0
STYLE
  2

 70
     1
 40
0.0
 41
1.0
 50
0.0
 71
     0
 42
7.0
  3
ltypeshp.shx
  4

  0
ENDTAB
  0
TABLE
  2
VIEW
 70
     0
  0
ENDTAB
  0
TABLE
  2
UCS
 70
     0
  0
ENDTAB
  0
TABLE
  2
APPID
 70
    12
  0
APPID
  2
ACAD
 70
     0
  0
APPID
  2
GENIUS_GENDIM_13
 70
     0
  0
APPID
  2
GENIUS_GENDTOL_13
 70
     0
  0
APPID
  2
GENIUS_GE3DTOL_13
 70
     0
  0
APPID
  2
MCAD_NO_VIS
 70
     0
  0
APPID
  2
ACAD_TEMP_GRAPHIC
 70
     0
  0
APPID
  2
AD_DRAW
 70
     0
  0
APPID
  2
ACATTRIBSERVICES
 70
     0
  0
APPID
  2
ASURF_PCURVE_APPNAME
 70
     0
  0
APPID
  2
DESIGNERASSEMBLIES
 70
     0
  0
APPID
  2
ACADM_DIM_EDIT
 70
     0
  0
APPID
  2
CONTENTBLOCKICON
 70
     0
  0
ENDTAB
  0
TABLE
  2
DIMSTYLE
 70
     1
  0
DIMSTYLE
  2
STD
 70
     0
  3

  4

  5

  6

  7

 40
1.0
 41
8.0
 42
2.0
 43
10.0
 44
2.0
 45
0.0
 46
1.25
 47
0.0
 48
0.0
140
7.0
141
-3.0
142
0.0
143
0.039
144
1.0
145
1.1428571428571419
146
1.0
147
1.5
 71
     0
 72
     0
 73
     0
 74
     0
 75
     0
 76
     0
 77
     0
 78
     0
170
     0
171
     2
172
     0
173
     0
174
     0
175
     0
176
   256
177
   256
178
   256
  0
ENDTAB
  0
ENDSEC
  0
SECTION
  2
BLOCKS
  0
BLOCK
  8
0
  2
$MODEL_SPACE
 70
     0
 10
0.0
 20
0.0
 30
0.0
  3
$MODEL_SPACE
  1

  0
ENDBLK
  5
9
  8
0
  0
BLOCK
 67
     1
  8
0
  2
$PAPER_SPACE
 70
     0
 10
0.0
 20
0.0
 30
0.0
  3
$PAPER_SPACE
  1

  0
ENDBLK
  5
E
 67
     1
  8
0
  0
BLOCK
  8
0
  2
*U0
 70
     1
 10
0.0
 20
0.0
 30
0.0
  3
*U0
  1

  0
ENDBLK
  5
3DF
  8
0
  0
BLOCK
  8
0
  2
LOGO
 70
     0
 10
0.0
 20
0.0
 30
0.0
  3
LOGO
  1

  0
INSERT
  5
40A
  8
DRG
  6
CONTINUOUS
 62
     7
  2
*U3
 10
0.0
 20
0.0
 30
0.0
1001
ACAD
1002
{
1000
R14_HATCH_DATA
1000
40A
1011
1.0
1021
0.0
1031
0.0
1021
0.0
1031
0.0
1011
0.0
1021
0.0
1031
0.0
1021
1.0
1031
0.0
1011
0.0
1021
0.0
1031
0.0
1021
0.0
1031
1.0
1040
0.0
1010
0.0
1020
0.0
1030
1.0
1000
SOLID
1070
     1
1070
     1
1071
       17
1071
        7
1070
     1
1070
     1
1071
        9
1040
18.821661727211438
1040
85.569427875032716
1040
-0.4142135623730951
1040
26.821661727211438
1040
93.569427875032716
1040
0.0
1040
28.191279411133561
1040
93.56942787503273
1040
0.0
1040
28.191279411133561
1040
102.0369718403326
1040
0.2674368359602434
1040
18.821661727211438
1040
97.915857504065912
1040
0.0
1040
18.821661727211438
1040
102.0369718403326
1040
0.0
1040
7.7802673214059723
1040
102.0369718403326
1040
0.0
1040
7.7802673214059723
1040
62.115696081838671
1040
0.0
1040
18.821661727211438
1040
62.115696081838678
1040
0.0
1071
        9
1005
42D
1005
434
1005
433
1005
432
1005
431
1005
42C
1005
41C
1005
41E
1005
41A
1071
        7
1070
     1
1070
     1
1071
        8
1040
29.838142899665851
1040
72.897331735467191
1040
0.4142135623730863
1040
41.838142899665847
1040
60.89733173546756
1040
0.0
1040
47.650196927116667
1040
60.89733173546756
1040
0.4142126981028046
1040
59.650196927064421
1040
72.897296325816569
1040
0.0348233422700972
1040
59.650196927064421
1040
90.096337111694368
1040
0.4142126981028142
1040
47.650196927116667
1040
102.0963017020437
1040
0.0
1040
41.838142899665847
1040
102.0963017020437
1040
0.4142135623730893
1040
29.838142899665851
1040
90.096301702044016
1040
0.0348231985322414
1071
        8
1005
40E
1005
435
1005
430
1005
42F
1005
41B
1005
42B
1005
40D
1005
46C
1071
       22
1070
     1
1070
     1
1071
        4
1040
40.882971825549703
1040
90.337990088334166
1040
-1.0
1040
48.605370470334492
1040
90.337990088334735
1040
-0.0248818291691539
1040
48.605370470334492
1040
72.655643349175492
1040
-1.0
1040
40.882971825549703
1040
72.655643349177595
1040
-0.0248818291691501
1071
        4
1005
410
1005
46B
1005
40F
1005
42E
1071
        7
1070
     1
1070
     1
1071
       18
1040
67.331191210151701
1040
68.89733173546756
1040
0.4142135623730951
1040
75.331191210151701
1040
60.89733173546756
1040
0.0
1040
80.675802928262684
1040
60.89733173546756
1040
0.1450058980834471
1040
84.501142256151084
1040
62.072518178885289
1040
0.0
1040
84.501142256151084
1040
70.214764581409185
1040
-0.0833071563303517
1040
83.501142256151255
1040
69.876055965300111
1040
0.0
1040
80.482556033578916
1040
69.876055965300111
1040
-0.4142135623730951
1040
77.482556033578931
1040
72.876055965300111
1040
0.0
1040
77.482556033578931
1040
94.593352860836134
1040
0.0
1040
84.553623006881026
1040
94.593352860836134
1040
0.0
1040
84.553623006881026
1040
101.9948050433795
1040
0.0
1040
77.482556033578931
1040
101.9948050433795
1040
0.0
1040
77.482556033578931
1040
107.1280725498991
1040
0.0
1040
67.331191210151701
1040
107.1280725498991
1040
0.0
1040
67.331191210151701
1040
101.9948050433795
1040
0.0
1040
62.478989637268562
1040
101.9948050433795
1040
0.0
1040
62.478989637268569
1040
94.593352860836134
1040
0.0
1040
67.331191210151687
1040
94.593352860836134
1040
0.0
1071
       18
1005
469
1005
47D
1005
46A
1005
475
1005
473
1005
474
1005
470
1005
472
1005
471
1005
46D
1005
43F
1005
453
1005
442
1005
440
1005
47A
1005
468
1005
46F
1005
46E
1071
        7
1070
     1
1070
     1
1071
        8
1040
85.849782736700035
1040
72.897331735467475
1040
0.4142135623730931
1040
97.849782736700035
1040
60.89733173546756
1040
0.0
1040
103.66183676415081
1040
60.89733173546756
1040
0.4142126981028048
1040
115.6618367640986
1040
72.897296325816569
1040
0.0348233422700971
1040
115.6618367640986
1040
90.096337111694325
1040
0.4142126981028151
1040
103.66183676415081
1040
102.0963017020437
1040
0.0
1040
97.849782736700035
1040
102.0963017020437
1040
0.4142135623730893
1040
85.849782736700035
1040
90.096301702044016
1040
0.0348231985322409
1071
        8
1005
43E
1005
47E
1005
47C
1005
478
1005
441
1005
467
1005
43D
1005
4A5
1071
       22
1070
     1
1070
     1
1071
        4
1040
96.894611662583884
1040
90.337990088335033
1040
-1.0
1040
104.6170103073686
1040
90.337990088334763
1040
-0.0248818291691539
1040
104.6170103073686
1040
72.655643349175506
1040
-1.0
1040
96.894611662583884
1040
72.655643349177595
1040
-0.0248818291691514
1071
        4
1005
47B
1005
476
1005
479
1005
477
1071
        7
1070
     1
1070
     1
1071
        9
1040
119.0096173095521
1040
62.115696081838678
1040
0.0
1040
130.05101171535759
1040
62.115696081838671
1040
0.0
1040
130.05101171535759
1040
85.569427875032716
1040
-0.4142135623730946
1040
138.05101171535759
1040
93.569427875032716
1040
0.0
1040
139.4206293992797
1040
93.56942787503273
1040
0.0
1040
139.4206293992797
1040
102.0369718403325
1040
0.2674368359602435
1040
130.05101171535759
1040
97.915857504065855
1040
0.0
1040
130.05101171535759
1040
102.0369718403326
1040
0.0
1040
119.0096173095521
1040
102.0369718403326
1040
0.0
1071
        9
1005
4A4
1005
4AA
1005
4A9
1005
4A6
1005
4A8
1005
4A7
1005
480
1005
48F
1005
47F
1071
        7
1070
     0
1070
     1
1071
        4
1040
153.2899770207527
1040
102.0369718403326
1040
142.11987082690661
1040
102.0369718403326
1040
142.11987082690661
1040
62.115696081838678
1040
153.2899770207527
1040
62.115696081838678
1071
        4
1005
4A3
1005
484
1005
488
1005
483
1071
        7
1070
     0
1070
     1
1071
        9
1040
161.3332883364622
1040
62.115696081838678
1040
171.78072804963571
1040
62.115696081838678
1040
165.4162645291251
1040
78.311404477182364
1040
176.9709164189357
1040
78.31140447718235
1040
176.9709164189357
1040
86.855763084496857
1040
165.4162645291251
1040
86.855763084496886
1040
171.38205787173379
1040
102.0369718403326
1040
160.9346181585602
1040
102.0369718403326
1040
153.2899770207527
1040
82.583583780839575
1071
        9
1005
4B0
1005
4AF
1005
4AE
1005
4AB
1005
482
1005
49E
1005
481
1005
4AD
1005
4AC
1071
        7
1070
     1
1070
     1
1071
       21
1040
152.52515784094209
1040
47.648154099737518
1040
-0.8501159182110916
1040
160.04745823702251
1040
46.421288526219293
1040
0.0
1040
160.04745823702251
1040
45.21828747592599
1040
0.0
1040
171.0912486890569
1040
45.21828747592599
1040
0.4103700463812956
1040
159.0922846938046
1040
57.06060729124669
1040
0.0
1040
153.28023066635379
1040
57.06060729124669
1040
0.3231315706904765
1040
141.8917942032017
1040
48.84260609145101
1040
0.1954153765693974
1040
142.3184035466634
1040
43.115005509834923
1040
0.2113556324406552
1040
155.72873071743231
1040
33.145354604103439
1040
-0.2264685134690167
1040
160.04745823702251
1040
29.300230626583549
1040
0.0
1040
160.04745823702251
1040
27.619948938379359
1040
-1.0
1040
152.32505959223769
1040
27.619948938379359
1040
0.0
1040
152.32505959223769
1040
29.959298931438969
1040
0.0
1040
141.28023066635379
1040
29.95929893143898
1040
0.0
1040
141.28023066635379
1040
27.861637324670479
1040
0.4142135623730951
1040
153.28023066635379
1040
15.861637324670481
1040
0.0
1040
159.0922846938046
1040
15.861637324670481
1040
0.4142135623730951
1040
171.0922846938046
1040
27.861637324670479
1040
0.0
1040
171.0922846938046
1040
29.95929893143904
1040
0.3201720163042325
1040
161.4128172083947
1040
39.98989916707626
1040
-0.1549843570040388
1040
153.4809683549079
1040
44.585756161105429
1040
-0.2969707756967668
1071
       21
1005
49F
1005
4A1
1005
49C
1005
49D
1005
4A2
1005
487
1005
494
1005
485
1005
49A
1005
497
1005
499
1005
498
1005
486
1005
48C
1005
437
1005
43B
1005
438
1005
49B
1005
496
1005
495
1005
4A0
1071
        7
1070
     1
1070
     1
1071
        9
1040
116.19314081319391
1040
17.28637227261407
1040
0.0
1040
127.2345352189994
1040
17.28637227261407
1040
0.0
1040
127.2345352189994
1040
40.740104065808097
1040
-0.4142135623730953
1040
135.23453521899941
1040
48.740104065808111
1040
0.0
1040
136.6041529029215
1040
48.740104065808111
1040
0.0
1040
136.6041529029215
1040
57.207648031108022
1040
0.2674368359602446
1040
127.2345352189994
1040
53.086533694841222
1040
0.0
1040
127.2345352189994
1040
57.207648031108022
1040
0.0
1040
116.19314081319391
1040
57.207648031108022
1040
0.0
1071
        9
1005
48D
1005
491
1005
490
1005
48A
1005
48B
1005
489
1005
48E
1005
493
1005
492
1071
        7
1070
     1
1070
     1
1071
       18
1040
111.2523129779601
1040
45.06060729124669
1040
0.4142135623730951
1040
99.252312977960173
1040
57.06060729124669
1040
0.0
1040
93.440258950509346
1040
57.06060729124669
1040
0.3935971290544443
1040
81.470405744524527
1040
45.910674481046733
1040
0.0
1040
92.485087876393209
1040
45.910674481046733
1040
0.0
1040
92.485087876393209
1040
47.313129977668268
1040
-1.0
1040
100.2074865211779
1040
47.313129977668268
1040
0.0
1040
100.207486521178
1040
42.948196427274922
1040
0.0
1040
93.358174068518778
1040
42.948196427274922
1040
0.3803366342075343
1040
81.440258950509346
1040
32.349374231810209
1040
0.0
1040
81.440258950509346
1040
27.861637324670479
1040
0.212203934851876
1040
85.398663329684837
1040
18.95474449545469
1040
0.2715779457989354
1040
94.991749269489972
1040
17.839408458597308
1040
0.2212147422997974
1040
102.1211660476033
1040
23.542010892025001
1040
0.0
1040
102.1211660476033
1040
21.102600968374279
1040
0.048558820350044
1040
102.6710305977499
1040
17.89352120355198
1040
0.0
1040
111.8021775281067
1040
17.893521203552009
1040
-0.0850534761391249
1040
111.2523129779601
1040
23.54201089202471
1040
0.0
1071
       18
1005
43C
1005
463
1005
445
1005
464
1005
465
1005
462
1005
466
1005
461
1005
443
1005
459
1005
444
1005
436
1005
455
1005
45D
1005
45C
1005
45B
1005
45E
1005
454
1071
       22
1070
     1
1070
     1
1071
        6
1040
101.5095597489034
1040
37.384730871555568
1040
0.0
1040
101.5095597489034
1040
29.984856014372749
1040
-0.4101584254678068
1040
95.863486513980718
1040
23.758749615986972
1040
-0.4142135623730822
1040
92.002287191588479
1040
27.619948938379359
1040
0.0
1040
92.002287191588479
1040
33.041326503689838
1040
-0.3592987923427892
1040
97.969021393668683
1040
37.384730871555568
1040
0.0
1071
        6
1005
45F
1005
457
1005
45A
1005
458
1005
456
1005
460
1071
        7
1070
     1
1070
     1
1071
       14
1040
74.280536421539182
1040
35.629722934820848
1040
0.0
1040
74.280536421539182
1040
45.06060729124669
1040
0.4142135623730951
1040
62.280536421539182
1040
57.06060729124669
1040
0.0
1040
56.468482394088369
1040
57.06060729124669
1040
0.4142135623730892
1040
44.468482394088362
1040
45.060607291246939
1040
0.0348231985322411
1040
44.468482394088362
1040
27.861637324670291
1040
0.4142135623730907
1040
56.468482394088369
1040
15.861637324670481
1040
0.0
1040
62.280536421539182
1040
15.861637324670481
1040
0.4142135623730951
1040
74.280536421539182
1040
27.861637324670479
1040
0.0
1040
74.280536421539196
1040
30.816887788353831
1040
0.0
1040
63.235709964757
1040
30.81688778835381
1040
0.0
1040
63.235709964757007
1040
27.61994893837937
1040
-1.0
1040
55.513311319972217
1040
27.61994893837937
1040
0.0
1040
55.513311319972232
1040
35.629722934820848
1040
0.0
1071
       14
1005
44D
1005
452
1005
40C
1005
420
1005
40B
1005
43A
1005
439
1005
44C
1005
447
1005
449
1005
44B
1005
44A
1005
448
1005
446
1071
       22
1070
     1
1070
     1
1071
        4
1040
63.235709964756971
1040
41.923431282527652
1040
0.0
1040
55.51331131997221
1040
41.923431282527638
1040
0.0
1040
55.513311319972217
1040
46.690614073903141
1040
-1.0
1040
63.235709964757007
1040
46.690614073903127
1040
0.0
1071
        4
1005
44E
1005
450
1005
44F
1005
451
1071
        7
1070
     1
1070
     1
1071
       15
1040
37.639779947293832
1040
57.06060729124669
1040
0.0
1040
27.267121908897028
1040
57.06060729124669
1040
0.0
1040
27.267121908897021
1040
51.255838552818979
1040
0.3392741364964821
1040
18.58303542025671
1040
58.127888502333931
1040
0.3975671648689696
1040
7.030577403887583
1040
46.170226698962978
1040
0.0322586733839356
1040
7.0565934473582743
1040
30.23514359210488
1040
0.381674351628262
1040
18.58303542025671
1040
18.945146626805109
1040
0.3392741364964824
1040
27.267121908897021
1040
25.817196576320061
1040
0.0
1040
27.267121908897021
1040
13.51984597021351
1040
-1.0
1040
19.544723264112228
1040
13.51984597021351
1040
0.0
1040
19.544723264112239
1040
14.846027306936771
1040
0.0
1040
7.7279273094568479
1040
14.846027306936771
1040
0.435111756420548
1040
18.100585347853119
1040
3.392610111620797
1040
0.0
1040
25.69916102541525
1040
3.392610111620797
1040
0.3589835117613411
1040
37.639779947293839
1040
13.760967175618781
1040
0.0
1071
       15
1005
426
1005
42A
1005
429
1005
41D
1005
41F
1005
411
1005
425
1005
412
1005
418
1005
419
1005
414
1005
415
1005
417
1005
416
1005
413
1071
       22
1070
     1
1070
     1
1071
        6
1040
27.387732575171409
1040
32.086434320449378
1040
-0.3635850888704513
1040
22.683854862926161
1040
25.455509253088579
1040
-0.4081657147783189
1040
17.256300807526252
1040
30.5191262631974
1040
0.0
1040
17.256300807526252
1040
46.312783983787632
1040
-0.4081657147783226
1040
22.683854862926282
1040
51.376400993896397
1040
-0.3635850888704468
1040
27.387732575171409
1040
44.745475926535612
1040
0.0
1071
        6
1005
424
1005
423
1005
422
1005
427
1005
428
1005
421
1070
     0
1070
     1
1040
0.2228598800114194
1071
       17
1040
17.63743802729277
1040
76.626905651017751
1040
0.0
1040
33.91754890401171
1040
77.741205688022092
1040
0.0
1040
33.91754890401171
1040
77.741205688022092
1040
0.0
1040
69.153945982282949
1040
79.301225382558854
1040
0.0
1040
91.455465417142008
1040
80.861243290751887
1040
0.0
1040
91.455465417142008
1040
80.861243290751887
1040
0.0
1040
120.67045393727309
1040
80.861243290751887
1040
0.0
1040
151.44655150816561
1040
79.746945040091759
1040
0.0
1040
157.69097519808881
1040
82.198402263350317
1040
0.0
1040
149.43941532211869
1040
47.209401108474808
1040
0.0
1040
122.2315629880345
1040
49.21514046054449
1040
0.0
1040
107.73557316557979
1040
43.19792419067948
1040
0.0
1040
107.73557316557979
1040
43.19792419067948
1040
0.0
1040
69.376961114066034
1040
40.30074552354403
1040
0.0
1040
69.376961114066034
1040
40.30074552354403
1040
0.0
1040
30.572318798986078
1040
42.306483089269697
1040
0.0
1040
30.572318798986078
1040
42.306483089269697
1040
0.0
1002
}
  0
ARC
  5
40B
  8
DRG
 62
     7
 10
56.468482394088369
 20
27.861637324670479
 30
0.0
 40
12.0
 50
180.0
 51
270.0
  0
ARC
  5
40C
  8
DRG
 62
     7
 10
56.468482394088369
 20
45.06060729124669
 30
0.0
 40
12.0
 50
90.0
 51
180.0
  0
ARC
  5
40D
  8
DRG
 62
     7
 10
47.650196927116667
 20
72.89733173546756
 30
0.0
 40
12.0
 50
270.0
 51
0.0
  0
ARC
  5
40E
  8
DRG
 62
     7
 10
47.650196927116667
 20
90.096301702043775
 30
0.0
 40
12.0
 50
0.0
 51
90.0
  0
ARC
  5
40F
  8
DRG
 62
     7
 10
44.74417114794209
 20
72.655643349176444
 30
0.0
 40
3.8611993223923942
 50
180.0
 51
0.0
  0
ARC
  5
410
  8
DRG
 62
     7
 10
44.74417114794209
 20
90.337990088334877
 30
0.0
 40
3.8611993223923942
 50
0.0
 51
180.0
  0
ARC
  5
411
  8
DRG
 62
     7
 10
19.137584483414571
 20
31.0402274344309
 30
0.0
 40
12.107786932649869
 50
183.81258486583951
 51
267.37487616930952
  0
LINE
  5
412
  8
DRG
 62
     7
 10
27.267121908897021
 20
13.51984597021351
 30
0.0
 11
27.267121908897021
 21
25.817196576319979
 31
0.0
  0
LINE
  5
413
  8
DRG
 62
     7
 10
37.639779947293839
 20
13.760967175618591
 30
0.0
 11
37.639779947293839
 21
57.06060729124669
 31
0.0
  0
LINE
  5
414
  8
DRG
 62
     7
 10
7.7279273094568453
 20
14.846027306936771
 30
0.0
 11
19.544723264112228
 21
14.846027306936771
 31
0.0
  0
ARC
  5
415
  8
DRG
 62
     7
 10
18.249110221157022
 20
13.95076893658401
 30
0.0
 40
10.559203445863639
 50
175.13635846835899
 51
269.19405577571678
  0
ARC
  5
416
  8
DRG
 62
     7
 10
25.379351800633462
 20
15.82074347040526
 30
0.0
 40
12.432247452652581
 50
271.47404887186468
 51
350.4632534986161
  0
LINE
  5
417
  8
DRG
 62
     7
 10
18.100585347854121
 20
3.392610111620797
 30
0.0
 11
25.699161025414639
 21
3.392610111620797
 31
0.0
  0
ARC
  5
418
  8
DRG
 62
     7
 10
23.40592258650463
 20
13.51984597021351
 30
0.0
 40
3.8611993223923942
 50
180.0
 51
0.0
  0
LINE
  5
419
  8
DRG
 62
     7
 10
19.544723264112228
 20
13.51984597021351
 30
0.0
 11
19.544723264112228
 21
14.846027306936771
 31
0.0
  0
LINE
  5
41A
  8
DRG
 62
     7
 10
18.821661727211438
 20
62.115696081838678
 30
0.0
 11
18.821661727211438
 21
85.569427875032716
 31
0.0
  0
ARC
  5
41B
  8
DRG
 62
     7
 10
41.838142899665847
 20
72.89733173546756
 30
0.0
 40
12.0
 50
180.0
 51
270.0
  0
LINE
  5
41C
  8
DRG
 62
     7
 10
7.7802673214059723
 20
102.0369718403326
 30
0.0
 11
7.7802673214059723
 21
62.115696081838678
 31
0.0
  0
ARC
  5
41D
  8
DRG
 62
     7
 10
19.137584483414571
 20
46.032807694708133
 30
0.0
 40
12.107786932649869
 50
92.625123830690427
 51
179.34969965531249
  0
LINE
  5
41E
  8
DRG
 62
     7
 10
7.7802673214059723
 20
62.115696081838678
 30
0.0
 11
18.821661727211438
 21
62.115696081838678
 31
0.0
  0
ARC
  5
41F
  8
DRG
 62
     7
 10
130.4096373956734
 20
38.404095866101891
 30
0.0
 40
123.62323904739679
 50
176.39825231050591
 51
183.7888327716102
  0
ARC
  5
420
  8
DRG
 62
     7
 10
167.7922598686371
 20
36.46112230795859
 30
0.0
 40
123.62323904739679
 50
176.01116722839041
 51
183.98883277160959
  0
LINE
  5
421
  8
DRG
 62
     7
 10
27.387732575171409
 20
32.086434320449371
 30
0.0
 11
27.387732575171409
 21
44.745475926535619
 31
0.0
  0
LINE
  5
422
  8
DRG
 62
     7
 10
17.256300807526252
 20
30.519126263197901
 30
0.0
 11
17.256300807526252
 21
46.312783983787199
 31
0.0
  0
ARC
  5
423
  8
DRG
 62
     7
 10
22.554825927420261
 20
30.757839296791811
 30
0.0
 40
5.3038997311936118
 50
182.57958705316651
 51
271.39398239048438
  0
ARC
  5
424
  8
DRG
 62
     7
 10
21.079116203706629
 20
31.577778829510549
 30
0.0
 40
6.3290892655085571
 50
284.68766481341447
 51
4.6097118352224014
  0
ARC
  5
425
  8
DRG
 62
     7
 10
18.444167318675341
 20
28.04361904615444
 30
0.0
 40
9.0995321151857773
 50
270.87442572940842
 51
345.83740798549388
  0
LINE
  5
426
  8
DRG
 62
     7
 10
37.639779947293839
 20
57.06060729124669
 30
0.0
 11
27.267121908897021
 21
57.06060729124669
 31
0.0
  0
ARC
  5
427
  8
DRG
 62
     7
 10
22.554825927420261
 20
46.074070950193168
 30
0.0
 40
5.3038997311936118
 50
88.606017609515575
 51
177.42041294683341
  0
ARC
  5
428
  8
DRG
 62
     7
 10
21.079116203706629
 20
45.254131417474468
 30
0.0
 40
6.3290892655085571
 50
355.39028816477759
 51
75.312335186585557
  0
ARC
  5
429
  8
DRG
 62
     7
 10
18.444167318675341
 20
49.029416082984589
 30
0.0
 40
9.0995321151857773
 50
14.16259201450603
 51
89.125574270591571
  0
LINE
  5
42A
  8
DRG
 62
     7
 10
27.267121908897021
 20
51.255838552819107
 30
0.0
 11
27.267121908897021
 21
57.06060729124669
 31
0.0
  0
LINE
  5
42B
  8
DRG
 62
     7
 10
41.838142899665847
 20
60.89733173546756
 30
0.0
 11
47.650196927116667
 21
60.89733173546756
 31
0.0
  0
LINE
  5
42C
  8
DRG
 62
     7
 10
7.7802673214059723
 20
102.0369718403326
 30
0.0
 11
18.821661727211438
 21
102.0369718403326
 31
0.0
  0
ARC
  5
42D
  8
DRG
 62
     7
 10
26.821661727211438
 20
85.569427875032716
 30
0.0
 40
8.0
 50
90.0
 51
180.0
  0
ARC
  5
42E
  8
DRG
 62
     7
 10
218.4362314981995
 20
81.496816718755667
 30
0.0
 40
177.77324423808651
 50
177.14934059322539
 51
182.85065940677461
  0
ARC
  5
42F
  8
DRG
 62
     7
 10
153.16192037421459
 20
81.496816718755667
 30
0.0
 40
123.62323904739679
 50
176.01116722839041
 51
183.98883277160959
  0
ARC
  5
430
  8
DRG
 62
     7
 10
41.838142899665847
 20
90.096301702043775
 30
0.0
 40
12.0
 50
90.0
 51
180.0
  0
LINE
  5
431
  8
DRG
 62
     7
 10
18.821661727211438
 20
97.915857504065912
 30
0.0
 11
18.821661727211438
 21
102.0369718403326
 31
0.0
  0
ARC
  5
432
  8
DRG
 62
     7
 10
27.083354510939952
 20
91.844139685506846
 30
0.0
 40
10.2528691067876
 50
83.7965056449153
 51
143.68693404466879
  0
LINE
  5
433
  8
DRG
 62
     7
 10
28.191279411133561
 20
102.0369718403326
 30
0.0
 11
28.191279411133561
 21
93.569427875032716
 31
0.0
  0
LINE
  5
434
  8
DRG
 62
     7
 10
28.191279411133561
 20
93.569427875032716
 30
0.0
 11
26.821661727211438
 21
93.569427875032716
 31
0.0
  0
LINE
  5
435
  8
DRG
 62
     7
 10
41.838142899665847
 20
102.0963017020437
 30
0.0
 11
47.650196927116667
 21
102.0963017020437
 31
0.0
  0
ARC
  5
436
  8
DRG
 62
     7
 10
91.146199293645054
 20
26.576636016635941
 30
0.0
 40
9.5460672539884595
 50
232.98068850611
 51
293.75592135571679
  0
ARC
  5
437
  8
DRG
 62
     7
 10
153.28023066635379
 20
27.861637324670479
 30
0.0
 40
12.0
 50
180.0
 51
270.0
  0
ARC
  5
438
  8
DRG
 62
     7
 10
159.0922846938046
 20
27.861637324670479
 30
0.0
 40
12.0
 50
270.0
 51
0.0
  0
ARC
  5
439
  8
DRG
 62
     7
 10
62.280536421539182
 20
27.861637324670479
 30
0.0
 40
12.0
 50
270.0
 51
0.0
  0
LINE
  5
43A
  8
DRG
 62
     7
 10
56.468482394088369
 20
15.861637324670481
 30
0.0
 11
62.280536421539182
 21
15.861637324670481
 31
0.0
  0
LINE
  5
43B
  8
DRG
 62
     7
 10
153.28023066635379
 20
15.861637324670481
 30
0.0
 11
159.0922846938046
 21
15.861637324670481
 31
0.0
  0
ARC
  5
43C
  8
DRG
 62
     7
 10
99.252312977960173
 20
45.06060729124669
 30
0.0
 40
12.0
 50
0.0
 51
90.0
  0
ARC
  5
43D
  8
DRG
 62
     7
 10
103.66183676415081
 20
72.89733173546756
 30
0.0
 40
12.0
 50
270.0
 51
0.0
  0
ARC
  5
43E
  8
DRG
 62
     7
 10
103.66183676415081
 20
90.096301702043775
 30
0.0
 40
12.0
 50
0.0
 51
90.0
  0
ARC
  5
43F
  8
DRG
 62
     7
 10
75.331191210151701
 20
68.89733173546756
 30
0.0
 40
8.0
 50
180.0
 51
270.0
  0
LINE
  5
440
  8
DRG
 62
     7
 10
84.501142256151084
 20
62.072518178885268
 30
0.0
 11
84.501142256151084
 21
70.214764581409213
 31
0.0
  0
ARC
  5
441
  8
DRG
 62
     7
 10
97.849782736700035
 20
72.89733173546756
 30
0.0
 40
12.0
 50
180.0
 51
270.0
  0
ARC
  5
442
  8
DRG
 62
     7
 10
80.604973725058926
 20
67.941395133310024
 30
0.0
 40
7.044419488421358
 50
270.57609896713558
 51
303.5789717876612
  0
ARC
  5
443
  8
DRG
 62
     7
 10
93.358174068518778
 20
30.948196427274919
 30
0.0
 40
12.0
 50
90.0
 51
173.29457252003729
  0
ARC
  5
444
  8
DRG
 62
     7
 10
93.44025895050936
 20
27.861637324670479
 30
0.0
 40
12.0
 50
180.0
 51
227.9226718038604
  0
ARC
  5
445
  8
DRG
 62
     7
 10
93.44025895050936
 20
45.06060729124669
 30
0.0
 40
12.0
 50
90.0
 51
175.93782586434531
  0
LINE
  5
446
  8
DRG
 62
     7
 10
74.280536421539182
 20
45.06060729124669
 30
0.0
 11
74.280536421539182
 21
35.629722934820848
 31
0.0
  0
LINE
  5
447
  8
DRG
 62
     7
 10
63.235709964757007
 20
30.816887788353821
 30
0.0
 11
74.280536421539182
 21
30.816887788353821
 31
0.0
  0
LINE
  5
448
  8
DRG
 62
     7
 10
55.513311319972217
 20
35.629722934820848
 30
0.0
 11
74.280536421539182
 21
35.629722934820848
 31
0.0
  0
LINE
  5
449
  8
DRG
 62
     7
 10
63.235709964757007
 20
30.816887788353821
 30
0.0
 11
63.235709964757007
 21
27.619948938379359
 31
0.0
  0
LINE
  5
44A
  8
DRG
 62
     7
 10
55.513311319972217
 20
35.629722934820848
 30
0.0
 11
55.513311319972217
 21
27.619948938379359
 31
0.0
  0
ARC
  5
44B
  8
DRG
 62
     7
 10
59.374510642364612
 20
27.619948938379359
 30
0.0
 40
3.8611993223923942
 50
180.0
 51
0.0
  0
LINE
  5
44C
  8
DRG
 62
     7
 10
74.280536421539182
 20
30.816887788353821
 30
0.0
 11
74.280536421539182
 21
27.861637324670479
 31
0.0
  0
ARC
  5
44D
  8
DRG
 62
     7
 10
62.280536421539182
 20
45.06060729124669
 30
0.0
 40
12.0
 50
0.0
 51
90.0
  0
LINE
  5
44E
  8
DRG
 62
     7
 10
55.513311319972217
 20
41.923431282527652
 30
0.0
 11
63.235709964757007
 21
41.923431282527652
 31
0.0
  0
ARC
  5
44F
  8
DRG
 62
     7
 10
59.374510642364612
 20
46.690614073903127
 30
0.0
 40
3.8611993223923942
 50
0.0
 51
180.0
  0
LINE
  5
450
  8
DRG
 62
     7
 10
55.513311319972217
 20
46.690614073903127
 30
0.0
 11
55.513311319972217
 21
41.923431282527652
 31
0.0
  0
LINE
  5
451
  8
DRG
 62
     7
 10
63.235709964757007
 20
46.690614073903127
 30
0.0
 11
63.235709964757007
 21
41.923431282527652
 31
0.0
  0
LINE
  5
452
  8
DRG
 62
     7
 10
56.468482394088369
 20
57.06060729124669
 30
0.0
 11
62.280536421539182
 21
57.06060729124669
 31
0.0
  0
LINE
  5
453
  8
DRG
 62
     7
 10
75.331191210151701
 20
60.89733173546756
 30
0.0
 11
80.675802928264815
 21
60.89733173546756
 31
0.0
  0
LINE
  5
454
  8
DRG
 62
     7
 10
111.2523129779601
 20
45.06060729124669
 30
0.0
 11
111.2523129779601
 21
21.10260096837424
 31
0.0
  0
ARC
  5
455
  8
DRG
 62
     7
 10
92.427187023305351
 20
28.353548776339029
 30
0.0
 40
10.822390038051561
 50
283.70766965543032
 51
333.6028219757398
  0
ARC
  5
456
  8
DRG
 62
     7
 10
97.617648860406234
 20
31.597336783954741
 30
0.0
 40
5.7980507916306081
 50
86.525641605078704
 51
165.57884810514051
  0
ARC
  5
457
  8
DRG
 62
     7
 10
95.530005668639475
 20
29.734254501986349
 30
0.0
 40
5.9848030975807349
 50
273.19424815916329
 51
2.3998464036014582
  0
LINE
  5
458
  8
DRG
 62
     7
 10
92.002287191588479
 20
27.619948938379359
 30
0.0
 11
92.002287191588479
 21
33.041326503689788
 31
0.0
  0
LINE
  5
459
  8
DRG
 62
     7
 10
81.440258950509346
 20
32.349374231809861
 30
0.0
 11
81.440258950509346
 21
27.861637324670479
 31
0.0
  0
ARC
  5
45A
  8
DRG
 62
     7
 10
95.863486513980874
 20
27.619948938379359
 30
0.0
 40
3.8611993223923942
 50
180.0
 51
270.0
  0
LINE
  5
45B
  8
DRG
 62
     7
 10
102.6710305977499
 20
17.89352120355198
 30
0.0
 11
111.8021775281067
 21
17.893521203552009
 31
0.0
  0
ARC
  5
45C
  8
DRG
 62
     7
 10
118.87875205644769
 20
22.322305930199491
 30
0.0
 40
16.801915635954131
 50
175.83705377070211
 51
195.28307330703629
  0
LINE
  5
45D
  8
DRG
 62
     7
 10
102.1211660476033
 20
23.542010892025068
 30
0.0
 11
102.1211660476033
 21
21.102600968374329
 31
0.0
  0
ARC
  5
45E
  8
DRG
 62
     7
 10
128.00989898680459
 20
22.322305930199519
 30
0.0
 40
16.801915635954131
 50
175.83705377070211
 51
195.28307330703629
  0
LINE
  5
45F
  8
DRG
 62
     7
 10
101.5095597489034
 20
37.384730871555568
 30
0.0
 11
101.5095597489034
 21
29.483652989600269
 31
0.0
  0
LINE
  5
460
  8
DRG
 62
     7
 10
101.5095597489034
 20
37.384730871555568
 30
0.0
 11
97.266276327143615
 21
37.384730871555568
 31
0.0
  0
LINE
  5
461
  8
DRG
 62
     7
 10
100.2074865211779
 20
42.948196427274922
 30
0.0
 11
93.358174068518778
 21
42.948196427274922
 31
0.0
  0
ARC
  5
462
  8
DRG
 62
     7
 10
96.346287198785603
 20
47.313129977668268
 30
0.0
 40
3.8611993223923942
 50
0.0
 51
180.0
  0
LINE
  5
463
  8
DRG
 62
     7
 10
93.44025895050936
 20
57.06060729124669
 30
0.0
 11
99.252312977960173
 21
57.06060729124669
 31
0.0
  0
LINE
  5
464
  8
DRG
 62
     7
 10
92.485087876393209
 20
45.910674481046733
 30
0.0
 11
81.470405744524555
 21
45.910674481046733
 31
0.0
  0
LINE
  5
465
  8
DRG
 62
     7
 10
92.485087876393209
 20
47.313129977668268
 30
0.0
 11
92.485087876393209
 21
45.910674481046733
 31
0.0
  0
LINE
  5
466
  8
DRG
 62
     7
 10
100.2074865211779
 20
47.313129977668268
 30
0.0
 11
100.2074865211779
 21
42.948196427274922
 31
0.0
  0
LINE
  5
467
  8
DRG
 62
     7
 10
97.849782736700035
 20
60.89733173546756
 30
0.0
 11
103.66183676415081
 21
60.89733173546756
 31
0.0
  0
LINE
  5
468
  8
DRG
 62
     7
 10
80.482556033578916
 20
69.876055965300111
 30
0.0
 11
83.501142256151056
 21
69.876055965300111
 31
0.0
  0
LINE
  5
469
  8
DRG
 62
     7
 10
77.482556033578931
 20
94.593352860836134
 30
0.0
 11
84.553623006881026
 21
94.593352860836134
 31
0.0
  0
LINE
  5
46A
  8
DRG
 62
     7
 10
77.482556033578931
 20
101.9948050433795
 30
0.0
 11
84.553623006881026
 21
101.9948050433795
 31
0.0
  0
ARC
  5
46B
  8
DRG
 62
     7
 10
-128.9478892023152
 20
81.496816718755667
 30
0.0
 40
177.77324423808651
 50
357.1493405932253
 51
2.8506594067746178
  0
ARC
  5
46C
  8
DRG
 62
     7
 10
-63.673578078330422
 20
81.496816718755667
 30
0.0
 40
123.62323904739679
 50
356.01116722839038
 51
3.9888327716095779
  0
LINE
  5
46D
  8
DRG
 62
     7
 10
67.331191210151701
 20
94.593352860836134
 30
0.0
 11
67.331191210151701
 21
68.89733173546756
 31
0.0
  0
LINE
  5
46E
  8
DRG
 62
     7
 10
77.482556033578931
 20
94.593352860836134
 30
0.0
 11
77.482556033578931
 21
72.876055965300111
 31
0.0
  0
ARC
  5
46F
  8
DRG
 62
     7
 10
80.482556033578916
 20
72.876055965300111
 30
0.0
 40
3.0
 50
180.0
 51
270.0
  0
LINE
  5
470
  8
DRG
 62
     7
 10
62.478989637268569
 20
101.9948050433795
 30
0.0
 11
67.331191210151701
 21
101.9948050433795
 31
0.0
  0
LINE
  5
471
  8
DRG
 62
     7
 10
62.478989637268569
 20
94.593352860836134
 30
0.0
 11
67.331191210151701
 21
94.593352860836134
 31
0.0
  0
LINE
  5
472
  8
DRG
 62
     7
 10
62.478989637268569
 20
94.593352860836134
 30
0.0
 11
62.478989637268569
 21
101.9948050433795
 31
0.0
  0
LINE
  5
473
  8
DRG
 62
     7
 10
67.331191210151701
 20
107.1280725498991
 30
0.0
 11
77.482556033578931
 21
107.1280725498991
 31
0.0
  0
LINE
  5
474
  8
DRG
 62
     7
 10
67.331191210151701
 20
107.1280725498991
 30
0.0
 11
67.331191210151701
 21
101.9948050433795
 31
0.0
  0
LINE
  5
475
  8
DRG
 62
     7
 10
77.482556033578931
 20
101.9948050433795
 30
0.0
 11
77.482556033578931
 21
107.1280725498991
 31
0.0
  0
ARC
  5
476
  8
DRG
 62
     7
 10
-72.936249365281071
 20
81.496816718755667
 30
0.0
 40
177.77324423808651
 50
357.1493405932253
 51
2.8506594067746178
  0
ARC
  5
477
  8
DRG
 62
     7
 10
274.44787133523357
 20
81.496816718755667
 30
0.0
 40
177.77324423808651
 50
177.14934059322539
 51
182.85065940677461
  0
ARC
  5
478
  8
DRG
 62
     7
 10
209.1735602112488
 20
81.496816718755667
 30
0.0
 40
123.62323904739679
 50
176.01116722839041
 51
183.98883277160959
  0
ARC
  5
479
  8
DRG
 62
     7
 10
100.75581098497619
 20
72.655643349176444
 30
0.0
 40
3.8611993223923942
 50
180.0
 51
0.0
  0
ARC
  5
47A
  8
DRG
 62
     7
 10
82.991751330883176
 20
73.025526152493626
 30
0.0
 40
3.1903983410800212
 50
279.18737892597682
 51
298.2359877234839
  0
ARC
  5
47B
  8
DRG
 62
     7
 10
100.75581098497619
 20
90.337990088334877
 30
0.0
 40
3.8611993223923942
 50
0.0
 51
180.0
  0
ARC
  5
47C
  8
DRG
 62
     7
 10
97.849782736700035
 20
90.096301702043775
 30
0.0
 40
12.0
 50
90.0
 51
180.0
  0
LINE
  5
47D
  8
DRG
 62
     7
 10
84.553623006881026
 20
101.9948050433795
 30
0.0
 11
84.553623006881026
 21
94.593352860836134
 31
0.0
  0
LINE
  5
47E
  8
DRG
 62
     7
 10
97.849782736700035
 20
102.0963017020437
 30
0.0
 11
103.66183676415081
 21
102.0963017020437
 31
0.0
  0
LINE
  5
47F
  8
DRG
 62
     7
 10
130.05101171535759
 20
62.115696081838678
 30
0.0
 11
130.05101171535759
 21
85.569427875032716
 31
0.0
  0
LINE
  5
480
  8
DRG
 62
     7
 10
119.0096173095521
 20
102.0369718403326
 30
0.0
 11
119.0096173095521
 21
62.115696081838678
 31
0.0
  0
LINE
  5
481
  8
DRG
 62
     7
 10
165.4162645291251
 20
78.31140447718235
 30
0.0
 11
171.78072804963571
 21
62.115696081838678
 31
0.0
  0
LINE
  5
482
  8
DRG
 62
     7
 10
153.2899770207527
 20
82.583583780839604
 30
0.0
 11
161.3332883364622
 21
62.115696081838678
 31
0.0
  0
LINE
  5
483
  8
DRG
 62
     7
 10
153.2899770207527
 20
102.0369718403326
 30
0.0
 11
153.2899770207527
 21
62.115696081838678
 31
0.0
  0
LINE
  5
484
  8
DRG
 62
     7
 10
142.11987082690661
 20
102.0369718403326
 30
0.0
 11
142.11987082690661
 21
62.115696081838678
 31
0.0
  0
ARC
  5
485
  8
DRG
 62
     7
 10
160.28928843394391
 20
53.283870983727013
 30
0.0
 40
20.648450998997479
 50
209.50344874889601
 51
257.2400493880096
  0
LINE
  5
486
  8
DRG
 62
     7
 10
141.28023066635379
 20
29.95929893143898
 30
0.0
 11
152.32505959223769
 21
29.95929893143898
 31
0.0
  0
ARC
  5
487
  8
DRG
 62
     7
 10
153.28023066635379
 20
45.06060729124669
 30
0.0
 40
12.0
 50
90.0
 51
161.62913043773071
  0
LINE
  5
488
  8
DRG
 62
     7
 10
153.2899770207527
 20
62.115696081838678
 30
0.0
 11
142.11987082690661
 21
62.115696081838678
 31
0.0
  0
LINE
  5
489
  8
DRG
 62
     7
 10
127.2345352189994
 20
17.28637227261407
 30
0.0
 11
127.2345352189994
 21
40.740104065808111
 31
0.0
  0
LINE
  5
48A
  8
DRG
 62
     7
 10
116.19314081319391
 20
57.207648031108022
 30
0.0
 11
116.19314081319391
 21
17.28637227261407
 31
0.0
  0
LINE
  5
48B
  8
DRG
 62
     7
 10
116.19314081319391
 20
17.28637227261407
 30
0.0
 11
127.2345352189994
 21
17.28637227261407
 31
0.0
  0
LINE
  5
48C
  8
DRG
 62
     7
 10
141.28023066635379
 20
29.95929893143898
 30
0.0
 11
141.28023066635379
 21
27.861637324670479
 31
0.0
  0
ARC
  5
48D
  8
DRG
 62
     7
 10
135.496228002728
 20
47.014815876282221
 30
0.0
 40
10.2528691067876
 50
83.7965056449153
 51
143.68693404466879
  0
ARC
  5
48E
  8
DRG
 62
     7
 10
135.23453521899941
 20
40.740104065808111
 30
0.0
 40
8.0
 50
90.0
 51
180.0
  0
LINE
  5
48F
  8
DRG
 62
     7
 10
119.0096173095521
 20
62.115696081838678
 30
0.0
 11
130.05101171535759
 21
62.115696081838678
 31
0.0
  0
LINE
  5
490
  8
DRG
 62
     7
 10
116.19314081319391
 20
57.207648031108022
 30
0.0
 11
127.2345352189994
 21
57.207648031108022
 31
0.0
  0
LINE
  5
491
  8
DRG
 62
     7
 10
127.2345352189994
 20
53.0865336948413
 30
0.0
 11
127.2345352189994
 21
57.207648031108079
 31
0.0
  0
LINE
  5
492
  8
DRG
 62
     7
 10
136.6041529029215
 20
57.207648031108022
 30
0.0
 11
136.6041529029215
 21
48.740104065808111
 31
0.0
  0
LINE
  5
493
  8
DRG
 62
     7
 10
136.6041529029215
 20
48.740104065808111
 30
0.0
 11
135.23453521899941
 21
48.740104065808111
 31
0.0
  0
ARC
  5
494
  8
DRG
 62
     7
 10
149.15275272984229
 20
46.50373678022958
 30
0.0
 40
7.6283568598071962
 50
162.14543119997589
 51
216.29372603558031
  0
ARC
  5
495
  8
DRG
 62
     7
 10
164.68224204875119
 20
54.775095406185869
 30
0.0
 40
15.14236331012172
 50
222.29150451995909
 51
257.53093545652467
  0
ARC
  5
496
  8
DRG
 62
     7
 10
159.223234097084
 20
28.191351553125511
 30
0.0
 40
12.0
 50
8.4721667757414814
 51
79.486612768212169
  0
LINE
  5
497
  8
DRG
 62
     7
 10
160.04745823702251
 20
29.300230626583438
 30
0.0
 11
160.04745823702251
 21
27.619948938379359
 31
0.0
  0
LINE
  5
498
  8
DRG
 62
     7
 10
152.32505959223769
 20
27.619948938379359
 30
0.0
 11
152.32505959223769
 21
29.95929893143898
 31
0.0
  0
ARC
  5
499
  8
DRG
 62
     7
 10
156.18625891463009
 20
27.619948938379359
 30
0.0
 40
3.8611993223923942
 50
180.0
 51
0.0
  0
ARC
  5
49A
  8
DRG
 62
     7
 10
153.8611380906755
 20
26.699836406787622
 30
0.0
 40
6.7106338785129491
 50
22.799249772319211
 51
73.841024038773142
  0
LINE
  5
49B
  8
DRG
 62
     7
 10
171.0922846938046
 20
29.95929893143915
 30
0.0
 11
171.0922846938046
 21
27.861637324670479
 31
0.0
  0
LINE
  5
49C
  8
DRG
 62
     7
 10
171.0912486890569
 20
45.21828747592599
 30
0.0
 11
160.04745823702251
 21
45.21828747592599
 31
0.0
  0
ARC
  5
49D
  8
DRG
 62
     7
 10
159.0922846938046
 20
45.06060729124669
 30
0.0
 40
12.0
 50
0.7528890912800703
 51
90.0
  0
LINE
  5
49E
  8
DRG
 62
     7
 10
161.3332883364622
 20
62.115696081838678
 30
0.0
 11
171.78072804963571
 21
62.115696081838678
 31
0.0
  0
ARC
  5
49F
  8
DRG
 62
     7
 10
156.18625891463009
 20
46.421288526219307
 30
0.0
 40
3.8611993223923942
 50
0.0
 51
161.4735686305323
  0
ARC
  5
4A0
  8
DRG
 62
     7
 10
155.35373214152469
 20
46.850626662257177
 30
0.0
 40
2.938857360854815
 50
164.25399710017811
 51
230.4135202949499
  0
LINE
  5
4A1
  8
DRG
 62
     7
 10
160.04745823702251
 20
46.421288526219307
 30
0.0
 11
160.04745823702251
 21
45.21828747592599
 31
0.0
  0
LINE
  5
4A2
  8
DRG
 62
     7
 10
153.28023066635379
 20
57.06060729124669
 30
0.0
 11
159.0922846938046
 21
57.06060729124669
 31
0.0
  0
LINE
  5
4A3
  8
DRG
 62
     7
 10
142.11987082690661
 20
102.0369718403326
 30
0.0
 11
153.2899770207527
 21
102.0369718403326
 31
0.0
  0
ARC
  5
4A4
  8
DRG
 62
     7
 10
138.05101171535759
 20
85.569427875032716
 30
0.0
 40
8.0
 50
90.0
 51
180.0
  0
ARC
  5
4A5
  8
DRG
 62
     7
 10
-7.66193824129624
 20
81.496816718755667
 30
0.0
 40
123.62323904739679
 50
356.01116722839038
 51
3.9888327716095779
  0
ARC
  5
4A6
  8
DRG
 62
     7
 10
138.3127044990861
 20
91.844139685506775
 30
0.0
 40
10.2528691067876
 50
83.7965056449153
 51
143.68693404466879
  0
LINE
  5
4A7
  8
DRG
 62
     7
 10
119.0096173095521
 20
102.0369718403326
 30
0.0
 11
130.05101171535759
 21
102.0369718403326
 31
0.0
  0
LINE
  5
4A8
  8
DRG
 62
     7
 10
130.05101171535759
 20
97.915857504065855
 30
0.0
 11
130.05101171535759
 21
102.0369718403326
 31
0.0
  0
LINE
  5
4A9
  8
DRG
 62
     7
 10
139.4206293992797
 20
102.0369718403326
 30
0.0
 11
139.4206293992797
 21
93.569427875032716
 31
0.0
  0
LINE
  5
4AA
  8
DRG
 62
     7
 10
139.4206293992797
 20
93.569427875032716
 30
0.0
 11
138.05101171535759
 21
93.569427875032716
 31
0.0
  0
LINE
  5
4AB
  8
DRG
 62
     7
 10
153.2899770207527
 20
82.583583780839604
 30
0.0
 11
160.9346181585602
 21
102.0369718403326
 31
0.0
  0
LINE
  5
4AC
  8
DRG
 62
     7
 10
176.9709164189357
 20
78.31140447718235
 30
0.0
 11
176.9709164189357
 21
86.855763084496857
 31
0.0
  0
LINE
  5
4AD
  8
DRG
 62
     7
 10
176.9709164189357
 20
78.31140447718235
 30
0.0
 11
165.4162645291251
 21
78.31140447718235
 31
0.0
  0
LINE
  5
4AE
  8
DRG
 62
     7
 10
160.9346181585602
 20
102.0369718403326
 30
0.0
 11
171.38205787173379
 21
102.0369718403326
 31
0.0
  0
LINE
  5
4AF
  8
DRG
 62
     7
 10
165.4162645291251
 20
86.855763084496857
 30
0.0
 11
171.38205787173379
 21
102.0369718403326
 31
0.0
  0
LINE
  5
4B0
  8
DRG
 62
     7
 10
176.9709164189357
 20
86.855763084496857
 30
0.0
 11
165.4162645291251
 21
86.855763084496857
 31
0.0
  0
ENDBLK
  5
4B2
  8
0
  0
BLOCK
  8
0
  2
ROTORK_GEARS_LOGO
 70
     0
 10
0.0
 20
0.0
 30
0.0
  3
ROTORK_GEARS_LOGO
  1

  0
INSERT
  5
4B4
  8
0
  2
LOGO
 10
16.592937132437999
 20
3.1720898939720419
 30
0.0
  0
ENDBLK
  5
4B6
  8
0
  0
BLOCK
  8
0
  2
*U3
 70
     1
 10
0.0
 20
0.0
 30
0.0
  3
*U3
  1

  0
SOLID
  5
50C
  8
DRG
  6
CONTINUOUS
 62
     7
 10
15.95231832006648
 20
3.6443862358386379
 30
0.0
 11
18.100585347853119
 21
3.392610111620797
 31
0.0
 12
25.69916102541524
 22
3.392610111620797
 32
0.0
 13
25.69916102541524
 23
3.392610111620797
 33
0.0
210
0.0
220
0.0
230
1.0
  0
SOLID
  5
50D
  8
DRG
  6
CONTINUOUS
 62
     7
 10
28.124856726242442
 20
3.695440198839492
 30
0.0
 11
15.95231832006648
 21
3.6443862358386379
 31
0.0
 12
25.69916102541524
 22
3.392610111620797
 32
0.0
 13
25.69916102541524
 23
3.392610111620797
 33
0.0
210
0.0
220
0.0
230
1.0
  0
SOLID
  5
50E
  8
DRG
  6
CONTINUOUS
 62
     7
 10
13.90042545621565
 20
4.3286216592708353
 30
0.0
 11
15.95231832006648
 21
3.6443862358386379
 31
0.0
 12
28.124856726242442
 22
3.695440198839492
 32
0.0
 13
28.124856726242442
 23
3.695440198839492
 33
0.0
  0
SOLID
  5
50F
  8
DRG
  6
CONTINUOUS
 62
     7
 10
30.444404348840269
 20
4.4670647974864996
 30
0.0
 11
13.90042545621565
 21
4.3286216592708353
 31
0.0
 12
28.124856726242442
 22
3.695440198839492
 32
0.0
 13
28.124856726242442
 23
3.695440198839492
 33
0.0
  0
SOLID
  5
510
  8
DRG
  6
CONTINUOUS
 62
     7
 10
12.031004873916579
 20
5.4166056324423328
 30
0.0
 11
13.90042545621565
 21
4.3286216592708353
 31
0.0
 12
30.444404348840269
 22
4.4670647974864996
 32
0.0
 13
30.444404348840269
 23
4.4670647974864996
 33
0.0
210
0.0
220
0.0
230
1.0
  0
SOLID
  5
511
  8
DRG
  6
CONTINUOUS
 62
     7
 10
32.56812438828284
 20
5.6776509731908433
 30
0.0
 11
12.031004873916579
 21
5.4166056324423328
 31
0.0
 12
30.444404348840269
 22
4.4670647974864996
 32
0.0
 13
30.444404348840269
 23
4.4670647974864996
 33
0.0
210
0.0
220
0.0
230
1.0
  0
SOLID
  5
512
  8
DRG
  6
CONTINUOUS
 62
     7
 10
10.42249809221936
 20
6.8626859803606237
 30
0.0
 11
12.031004873916579
 21
5.4166056324423328
 31
0.0
 12
32.56812438828284
 22
5.6776509731908433
 32
0.0
 13
32.56812438828284
 23
5.6776509731908433
 33
0.0
210
0.0
220
0.0
230
1.0
  0
SOLID
  5
513
  8
DRG
  6
CONTINUOUS
 62
     7
 10
34.413908523153097
 20
7.2803944405609959
 30
0.0
 11
10.42249809221936
 21
6.8626859803606237
 31
0.0
 12
32.56812438828284
 22
5.6776509731908433
 32
0.0
 13
32.56812438828284
 23
5.6776509731908433
 33
0.0
210
0.0
220
0.0
230
1.0
  0
SOLID
  5
514
  8
DRG
  6
CONTINUOUS
 62
     7
 10
9.1423985989743972
 20
8.6061846831979381
 30
0.0
 11
10.42249809221936
 21
6.8626859803606237
 31
0.0
 12
34.413908523153097
 22
7.2803944405609959
 32
0.0
 13
34.413908523153097
 23
7.2803944405609959
 33
0.0
210
0.0
220
0.0
230
1.0
  0
SOLID
  5
515
  8
DRG
  6
CONTINUOUS
 62
     7
 10
35.910394128341451
 20
9.2133291337672762
 30
0.0
 11
9.1423985989743972
 21
8.6061846831979381
 31
0.0
 12
34.413908523153097
 22
7.2803944405609959
 32
0.0
 13
34.413908523153097
 23
7.2803944405609959
 33
0.0
  0
SOLID
  5
516
  8
DRG
  6
CONTINUOUS
 62
     7
 10
23.40592258650463
 20
9.658646647821115
 30
0.0
 11
9.1423985989743972
 21
8.6061846831979381
 31
0.0
 12
35.910394128341451
 22
9.2133291337672762
 32
0.0
 13
35.910394128341451
 23
9.2133291337672762
 33
0.0
210
0.0
220
0.0
230
1.0
  0
SOLID
  5
517
  8
DRG
  6
CONTINUOUS
 62
     7
 10
22.212746377216352
 20
9.8476271939377913
 30
0.0
 11
9.1423985989743972
 21
8.6061846831979381
 31
0.0
 12
23.40592258650463
 22
9.658646647821115
 32
0.0
 13
23.40592258650463
 23
9.658646647821115
 33
0.0
210
0.0
220
0.0
230
1.0
  0
SOLID
  5
518
  8
DRG
  6
CONTINUOUS
 62
     7
 10
24.599098795792909
 20
9.8476271939377931
 30
0.0
 11
23.40592258650463
 21
9.658646647821115
 31
0.0
 12
35.910394128341451
 22
9.2133291337672762
 32
0.0
 13
35.910394128341451
 23
9.2133291337672762
 33
0.0
210
0.0
220
0.0
230
1.0
  0
SOLID
  5
519
  8
DRG
  6
CONTINUOUS
 62
     7
 10
21.136366568640689
 20
10.39607009972903
 30
0.0
 11
9.1423985989743972
 21
8.6061846831979381
 31
0.0
 12
22.212746377216352
 22
9.8476271939377913
 32
0.0
 13
22.212746377216352
 23
9.8476271939377913
 33
0.0
210
0.0
220
0.0
230
1.0
  0
SOLID
  5
51A
  8
DRG
  6
CONTINUOUS
 62
     7
 10
25.675478604368571
 20
10.39607009972903
 30
0.0
 11
24.599098795792909
 21
9.8476271939377931
 31
0.0
 12
35.910394128341451
 22
9.2133291337672762
 32
0.0
 13
35.910394128341451
 23
9.2133291337672762
 33
0.0
210
0.0
220
0.0
230
1.0
  0
SOLID
  5
51B
  8
DRG
  6
CONTINUOUS
 62
     7
 10
8.2444198012855416
 20
10.57394394649787
 30
0.0
 11
9.1423985989743972
 21
8.6061846831979381
 31
0.0
 12
21.136366568640689
 22
10.39607009972903
 32
0.0
 13
21.136366568640689
 23
10.39607009972903
 33
0.0
210
0.0
220
0.0
230
1.0
  0
SOLID
  5
51C
  8
DRG
  6
CONTINUOUS
 62
     7
 10
20.282146716020151
 20
11.25028995234956
 30
0.0
 11
8.2444198012855416
 21
10.57394394649787
 31
0.0
 12
21.136366568640689
 22
10.39607009972903
 32
0.0
 13
21.136366568640689
 23
10.39607009972903
 33
0.0
210
0.0
220
0.0
230
1.0
  0
SOLID
  5
51D
  8
DRG
  6
CONTINUOUS
 62
     7
 10
26.529698456989109
 20
11.25028995234957
 30
0.0
 11
25.675478604368571
 21
10.39607009972903
 31
0.0
 12
35.910394128341451
 22
9.2133291337672762
 32
0.0
 13
35.910394128341451
 23
9.2133291337672762
 33
0.0
210
0.0
220
0.0
230
1.0
  0
SOLID
  5
51E
  8
DRG
  6
CONTINUOUS
 62
     7
 10
36.999723332384292
 20
11.40172296942753
 30
0.0
 11
26.529698456989109
 21
11.25028995234957
 31
0.0
 12
35.910394128341451
 22
9.2133291337672762
 32
0.0
 13
35.910394128341451
 23
9.2133291337672762
 33
0.0
  0
SOLID
  5
51F
  8
DRG
  6
CONTINUOUS
 62
     7
 10
19.73370381022891
 20
12.32666976092522
 30
0.0
 11
8.2444198012855416
 21
10.57394394649787
 31
0.0
 12
20.282146716020151
 22
11.25028995234956
 32
0.0
 13
20.282146716020151
 23
11.25028995234956
 33
0.0
210
0.0
220
0.0
230
1.0
  0
SOLID
  5
520
  8
DRG
  6
CONTINUOUS
 62
     7
 10
27.07814136278035
 20
12.326669760925229
 30
0.0
 11
26.529698456989109
 21
11.25028995234957
 31
0.0
 12
36.999723332384292
 22
11.40172296942753
 32
0.0
 13
36.999723332384292
 23
11.40172296942753
 33
0.0
210
0.0
220
0.0
230
1.0
  0
SOLID
  5
521
  8
DRG
  6
CONTINUOUS
 62
     7
 10
7.7662411928057731
 20
12.6833959269406
 30
0.0
 11
8.2444198012855416
 21
10.57394394649787
 31
0.0
 12
19.73370381022891
 22
12.32666976092522
 32
0.0
 13
19.73370381022891
 23
12.32666976092522
 33
0.0
210
0.0
220
0.0
230
1.0
  0
SOLID
  5
522
  8
DRG
  6
CONTINUOUS
 62
     7
 10
19.544723264112228
 20
13.51984597021351
 30
0.0
 11
7.7662411928057731
 21
12.6833959269406
 31
0.0
 12
19.73370381022891
 22
12.32666976092522
 32
0.0
 13
19.73370381022891
 23
12.32666976092522
 33
0.0
  0
SOLID
  5
523
  8
DRG
  6
CONTINUOUS
 62
     7
 10
27.267121908897021
 20
13.51984597021351
 30
0.0
 11
27.07814136278035
 21
12.326669760925229
 31
0.0
 12
36.999723332384292
 22
11.40172296942753
 32
0.0
 13
36.999723332384292
 23
11.40172296942753
 33
0.0
210
0.0
220
0.0
230
1.0
  0
SOLID
  5
524
  8
DRG
  6
CONTINUOUS
 62
     7
 10
37.639779947293839
 20
13.760967175618781
 30
0.0
 11
27.267121908897021
 21
13.51984597021351
 31
0.0
 12
36.999723332384292
 22
11.40172296942753
 32
0.0
 13
36.999723332384292
 23
11.40172296942753
 33
0.0
210
0.0
220
0.0
230
1.0
  0
SOLID
  5
525
  8
DRG
  6
CONTINUOUS
 62
     7
 10
19.544723264112228
 20
13.51984597021351
 30
0.0
 11
19.544723264112239
 21
14.846027306936771
 31
0.0
 12
7.7279273094568479
 22
14.846027306936771
 32
0.0
 13
7.7279273094568479
 23
14.846027306936771
 33
0.0
210
0.0
220
0.0
230
1.0
  0
SOLID
  5
526
  8
DRG
  6
CONTINUOUS
 62
     7
 10
7.7279273094568479
 20
14.846027306936771
 30
0.0
 11
7.7662411928057731
 21
12.6833959269406
 31
0.0
 12
19.544723264112228
 22
13.51984597021351
 32
0.0
 13
19.544723264112228
 23
13.51984597021351
 33
0.0
210
0.0
220
0.0
230
1.0
  0
SOLID
  5
527
  8
DRG
  6
CONTINUOUS
 62
     7
 10
54.127398529894847
 20
16.09221395983171
 30
0.0
 11
56.468482394088369
 21
15.861637324670481
 31
0.0
 12
62.280536421539182
 22
15.861637324670481
 32
0.0
 13
62.280536421539182
 23
15.861637324670481
 33
0.0
210
0.0
220
0.0
230
1.0
  0
SOLID
  5
528
  8
DRG
  6
CONTINUOUS
 62
     7
 10
161.43336855799819
 20
16.09221395983171
 30
0.0
 11
153.28023066635379
 21
15.861637324670481
 31
0.0
 12
159.0922846938046
 22
15.861637324670481
 32
0.0
 13
159.0922846938046
 23
15.861637324670481
 33
0.0
210
0.0
220
0.0
230
1.0
  0
SOLID
  5
529
  8
DRG
  6
CONTINUOUS
 62
     7
 10
64.621620285732703
 20
16.09221395983171
 30
0.0
 11
54.127398529894847
 21
16.09221395983171
 31
0.0
 12
62.280536421539182
 22
15.861637324670481
 32
0.0
 13
62.280536421539182
 23
15.861637324670481
 33
0.0
210
0.0
220
0.0
230
1.0
  0
SOLID
  5
52A
  8
DRG
  6
CONTINUOUS
 62
     7
 10
150.93914680216031
 20
16.09221395983171
 30
0.0
 11
153.28023066635379
 21
15.861637324670481
 31
0.0
 12
161.43336855799819
 22
16.09221395983171
 32
0.0
 13
161.43336855799819
 23
16.09221395983171
 33
0.0
210
0.0
220
0.0
230
1.0
  0
SOLID
  5
52B
  8
DRG
  6
CONTINUOUS
 62
     7
 10
51.876281205707329
 20
16.775082934535021
 30
0.0
 11
54.127398529894847
 21
16.09221395983171
 31
0.0
 12
64.621620285732703
 22
16.09221395983171
 32
0.0
 13
64.621620285732703
 23
16.09221395983171
 33
0.0
210
0.0
220
0.0
230
1.0
  0
SOLID
  5
52C
  8
DRG
  6
CONTINUOUS
 62
     7
 10
163.6844858821857
 20
16.775082934535039
 30
0.0
 11
150.93914680216031
 21
16.09221395983171
 31
0.0
 12
161.43336855799819
 22
16.09221395983171
 32
0.0
 13
161.43336855799819
 23
16.09221395983171
 33
0.0
210
0.0
220
0.0
230
1.0
  0
SOLID
  5
52D
  8
DRG
  6
CONTINUOUS
 62
     7
 10
66.87273760992025
 20
16.775082934535039
 30
0.0
 11
51.876281205707329
 21
16.775082934535021
 31
0.0
 12
64.621620285732703
 22
16.09221395983171
 32
0.0
 13
64.621620285732703
 23
16.09221395983171
 33
0.0
210
0.0
220
0.0
230
1.0
  0
SOLID
  5
52E
  8
DRG
  6
CONTINUOUS
 62
     7
 10
148.6880294779728
 20
16.775082934535039
 30
0.0
 11
150.93914680216031
 21
16.09221395983171
 31
0.0
 12
163.6844858821857
 22
16.775082934535039
 32
0.0
 13
163.6844858821857
 23
16.775082934535039
 33
0.0
210
0.0
220
0.0
230
1.0
  0
SOLID
  5
52F
  8
DRG
  6
CONTINUOUS
 62
     7
 10
89.046034371584071
 20
17.264455427868601
 30
0.0
 11
91.053870003696062
 21
17.031015276218469
 31
0.0
 12
93.065845423427419
 22
17.225574111478739
 32
0.0
 13
93.065845423427419
 23
17.225574111478739
 33
0.0
210
0.0
220
0.0
230
1.0
  0
SOLID
  5
530
  8
DRG
  6
CONTINUOUS
 62
     7
 10
94.991749269489972
 20
17.839408458597301
 30
0.0
 11
89.046034371584071
 21
17.264455427868601
 31
0.0
 12
93.065845423427419
 22
17.225574111478739
 32
0.0
 13
93.065845423427419
 23
17.225574111478739
 33
0.0
210
0.0
220
0.0
230
1.0
  0
SOLID
  5
531
  8
DRG
  6
CONTINUOUS
 62
     7
 10
49.801639597853189
 20
17.884001977039901
 30
0.0
 11
51.876281205707329
 21
16.775082934535021
 31
0.0
 12
66.87273760992025
 22
16.775082934535039
 32
0.0
 13
66.87273760992025
 23
16.775082934535039
 33
0.0
210
0.0
220
0.0
230
1.0
  0
SOLID
  5
532
  8
DRG
  6
CONTINUOUS
 62
     7
 10
68.947379217774412
 20
17.88400197703994
 30
0.0
 11
49.801639597853189
 21
17.884001977039901
 31
0.0
 12
66.87273760992025
 22
16.775082934535039
 32
0.0
 13
66.87273760992025
 23
16.775082934535039
 33
0.0
210
0.0
220
0.0
230
1.0
  0
SOLID
  5
533
  8
DRG
  6
CONTINUOUS
 62
     7
 10
165.7591274900399
 20
17.88400197703994
 30
0.0
 11
148.6880294779728
 21
16.775082934535039
 31
0.0
 12
163.6844858821857
 22
16.775082934535039
 32
0.0
 13
163.6844858821857
 23
16.775082934535039
 33
0.0
210
0.0
220
0.0
230
1.0
  0
SOLID
  5
534
  8
DRG
  6
CONTINUOUS
 62
     7
 10
146.6133878701186
 20
17.88400197703994
 30
0.0
 11
148.6880294779728
 21
16.775082934535039
 31
0.0
 12
165.7591274900399
 22
17.88400197703994
 32
0.0
 13
165.7591274900399
 23
17.88400197703994
 33
0.0
210
0.0
220
0.0
230
1.0
  0
SOLID
  5
535
  8
DRG
  6
CONTINUOUS
 62
     7
 10
87.132364271859174
 20
17.915427761689291
 30
0.0
 11
89.046034371584071
 21
17.264455427868601
 31
0.0
 12
94.991749269489972
 22
17.839408458597301
 32
0.0
 13
94.991749269489972
 23
17.839408458597301
 33
0.0
210
0.0
220
0.0
230
1.0
  0
SOLID
  5
536
  8
DRG
  6
CONTINUOUS
 62
     7
 10
97.202192775961791
 20
18.641522921873062
 30
0.0
 11
87.132364271859174
 21
17.915427761689291
 31
0.0
 12
94.991749269489972
 22
17.839408458597301
 32
0.0
 13
94.991749269489972
 23
17.839408458597301
 33
0.0
210
0.0
220
0.0
230
1.0
  0
SOLID
  5
537
  8
DRG
  6
CONTINUOUS
 62
     7
 10
85.398663329684837
 20
18.95474449545469
 30
0.0
 11
87.132364271859174
 21
17.915427761689291
 31
0.0
 12
97.202192775961791
 22
18.641522921873062
 32
0.0
 13
97.202192775961791
 23
18.641522921873062
 33
0.0
210
0.0
220
0.0
230
1.0
  0
SOLID
  5
538
  8
DRG
  6
CONTINUOUS
 62
     7
 10
16.093232463699319
 20
19.321420959942859
 30
0.0
 11
18.58303542025671
 21
18.945146626805109
 31
0.0
 12
20.548060271541839
 22
19.190646711498921
 32
0.0
 13
20.548060271541839
 23
19.190646711498921
 33
0.0
210
0.0
220
0.0
230
1.0
  0
SOLID
  5
539
  8
DRG
  6
CONTINUOUS
 62
     7
 10
47.983201019849858
 20
19.37635595043184
 30
0.0
 11
49.801639597853189
 21
17.884001977039901
 31
0.0
 12
68.947379217774412
 22
17.88400197703994
 32
0.0
 13
68.947379217774412
 23
17.88400197703994
 33
0.0
210
0.0
220
0.0
230
1.0
  0
SOLID
  5
53A
  8
DRG
  6
CONTINUOUS
 62
     7
 10
70.76581779577775
 20
19.376355950431911
 30
0.0
 11
47.983201019849858
 21
19.37635595043184
 31
0.0
 12
68.947379217774412
 22
17.88400197703994
 32
0.0
 13
68.947379217774412
 23
17.88400197703994
 33
0.0
210
0.0
220
0.0
230
1.0
  0
SOLID
  5
53B
  8
DRG
  6
CONTINUOUS
 62
     7
 10
167.57756606804321
 20
19.376355950431911
 30
0.0
 11
146.6133878701186
 21
17.88400197703994
 31
0.0
 12
165.7591274900399
 22
17.88400197703994
 32
0.0
 13
165.7591274900399
 23
17.88400197703994
 33
0.0
210
0.0
220
0.0
230
1.0
  0
SOLID
  5
53C
  8
DRG
  6
CONTINUOUS
 62
     7
 10
144.79494929211521
 20
19.376355950431911
 30
0.0
 11
146.6133878701186
 21
17.88400197703994
 31
0.0
 12
167.57756606804321
 22
19.376355950431911
 32
0.0
 13
167.57756606804321
 23
19.376355950431911
 33
0.0
210
0.0
220
0.0
230
1.0
  0
SOLID
  5
53D
  8
DRG
  6
CONTINUOUS
 62
     7
 10
102.3181837587821
 20
19.484710699009419
 30
0.0
 11
102.6710305977499
 21
17.89352120355198
 31
0.0
 12
111.8021775281067
 22
17.893521203552009
 32
0.0
 13
111.8021775281067
 23
17.893521203552009
 33
0.0
210
0.0
220
0.0
230
1.0
  0
SOLID
  5
53E
  8
DRG
  6
CONTINUOUS
 62
     7
 10
22.41344183966368
 20
19.855435823220908
 30
0.0
 11
16.093232463699319
 21
19.321420959942859
 31
0.0
 12
20.548060271541839
 22
19.190646711498921
 32
0.0
 13
20.548060271541839
 23
19.190646711498921
 33
0.0
  0
SOLID
  5
53F
  8
DRG
  6
CONTINUOUS
 62
     7
 10
99.18720752242109
 20
19.902143627652059
 30
0.0
 11
85.398663329684837
 21
18.95474449545469
 31
0.0
 12
97.202192775961791
 22
18.641522921873062
 32
0.0
 13
97.202192775961791
 23
18.641522921873062
 33
0.0
210
0.0
220
0.0
230
1.0
  0
SOLID
  5
540
  8
DRG
  6
CONTINUOUS
 62
     7
 10
13.73510429051534
 20
20.204558919208651
 30
0.0
 11
16.093232463699319
 21
19.321420959942859
 31
0.0
 12
22.41344183966368
 22
19.855435823220908
 32
0.0
 13
22.41344183966368
 23
19.855435823220908
 33
0.0
210
0.0
220
0.0
230
1.0
  0
SOLID
  5
541
  8
DRG
  6
CONTINUOUS
 62
     7
 10
111.2870334115631
 20
20.69438210209054
 30
0.0
 11
102.3181837587821
 21
19.484710699009419
 31
0.0
 12
111.8021775281067
 22
17.893521203552009
 32
0.0
 13
111.8021775281067
 23
17.893521203552009
 33
0.0
210
0.0
220
0.0
230
1.0
  0
SOLID
  5
542
  8
DRG
  6
CONTINUOUS
 62
     7
 10
83.724920350627414
 20
20.818044783243639
 30
0.0
 11
85.398663329684837
 21
18.95474449545469
 31
0.0
 12
99.18720752242109
 22
19.902143627652059
 32
0.0
 13
99.18720752242109
 23
19.902143627652059
 33
0.0
210
0.0
220
0.0
230
1.0
  0
SOLID
  5
543
  8
DRG
  6
CONTINUOUS
 62
     7
 10
24.090833070868062
 20
20.90802862921548
 30
0.0
 11
13.73510429051534
 21
20.204558919208651
 31
0.0
 12
22.41344183966368
 22
19.855435823220908
 32
0.0
 13
22.41344183966368
 23
19.855435823220908
 33
0.0
  0
SOLID
  5
544
  8
DRG
  6
CONTINUOUS
 62
     7
 10
102.1211660476033
 20
21.102600968374279
 30
0.0
 11
102.3181837587821
 21
19.484710699009419
 31
0.0
 12
111.2870334115631
 22
20.69438210209054
 32
0.0
 13
111.2870334115631
 23
20.69438210209054
 33
0.0
210
0.0
220
0.0
230
1.0
  0
SOLID
  5
545
  8
DRG
  6
CONTINUOUS
 62
     7
 10
46.490847046457887
 20
21.19479452843516
 30
0.0
 11
47.983201019849858
 21
19.37635595043184
 31
0.0
 12
70.76581779577775
 22
19.376355950431911
 32
0.0
 13
70.76581779577775
 23
19.376355950431911
 33
0.0
210
0.0
220
0.0
230
1.0
  0
SOLID
  5
546
  8
DRG
  6
CONTINUOUS
 62
     7
 10
169.06992004143521
 20
21.194794528435249
 30
0.0
 11
144.79494929211521
 21
19.376355950431911
 31
0.0
 12
167.57756606804321
 22
19.376355950431911
 32
0.0
 13
167.57756606804321
 23
19.376355950431911
 33
0.0
210
0.0
220
0.0
230
1.0
  0
SOLID
  5
547
  8
DRG
  6
CONTINUOUS
 62
     7
 10
72.258171769169721
 20
21.194794528435249
 30
0.0
 11
46.490847046457887
 21
21.19479452843516
 31
0.0
 12
70.76581779577775
 22
19.376355950431911
 32
0.0
 13
70.76581779577775
 23
19.376355950431911
 33
0.0
  0
SOLID
  5
548
  8
DRG
  6
CONTINUOUS
 62
     7
 10
143.30259531872329
 20
21.194794528435249
 30
0.0
 11
144.79494929211521
 21
19.376355950431911
 31
0.0
 12
169.06992004143521
 22
21.194794528435249
 32
0.0
 13
169.06992004143521
 23
21.194794528435249
 33
0.0
210
0.0
220
0.0
230
1.0
  0
SOLID
  5
549
  8
DRG
  6
CONTINUOUS
 62
     7
 10
11.61064502436718
 20
21.55636288529891
 30
0.0
 11
13.73510429051534
 21
20.204558919208651
 31
0.0
 12
24.090833070868062
 22
20.90802862921548
 32
0.0
 13
24.090833070868062
 23
20.90802862921548
 33
0.0
210
0.0
220
0.0
230
1.0
  0
SOLID
  5
54A
  8
DRG
  6
CONTINUOUS
 62
     7
 10
100.8530806557153
 20
21.561756477466091
 30
0.0
 11
83.724920350627414
 21
20.818044783243639
 31
0.0
 12
99.18720752242109
 22
19.902143627652059
 32
0.0
 13
99.18720752242109
 23
19.902143627652059
 33
0.0
210
0.0
220
0.0
230
1.0
  0
SOLID
  5
54B
  8
DRG
  6
CONTINUOUS
 62
     7
 10
25.500790394036571
 20
22.298572876838069
 30
0.0
 11
11.61064502436718
 21
21.55636288529891
 31
0.0
 12
24.090833070868062
 22
20.90802862921548
 32
0.0
 13
24.090833070868062
 23
20.90802862921548
 33
0.0
210
0.0
220
0.0
230
1.0
  0
SOLID
  5
54C
  8
DRG
  6
CONTINUOUS
 62
     7
 10
82.474422287265327
 20
22.98819641756462
 30
0.0
 11
83.724920350627414
 21
20.818044783243639
 31
0.0
 12
100.8530806557153
 22
21.561756477466091
 32
0.0
 13
100.8530806557153
 23
21.561756477466091
 33
0.0
210
0.0
220
0.0
230
1.0
  0
SOLID
  5
54D
  8
DRG
  6
CONTINUOUS
 62
     7
 10
45.381928003952979
 20
23.269436136289279
 30
0.0
 11
46.490847046457887
 21
21.19479452843516
 31
0.0
 12
72.258171769169721
 22
21.194794528435249
 32
0.0
 13
72.258171769169721
 23
21.194794528435249
 33
0.0
210
0.0
220
0.0
230
1.0
  0
SOLID
  5
54E
  8
DRG
  6
CONTINUOUS
 62
     7
 10
170.17883908394009
 20
23.2694361362894
 30
0.0
 11
143.30259531872329
 21
21.194794528435249
 31
0.0
 12
169.06992004143521
 22
21.194794528435249
 32
0.0
 13
169.06992004143521
 23
21.194794528435249
 33
0.0
210
0.0
220
0.0
230
1.0
  0
SOLID
  5
54F
  8
DRG
  6
CONTINUOUS
 62
     7
 10
73.367090811674615
 20
23.2694361362894
 30
0.0
 11
45.381928003952979
 21
23.269436136289279
 31
0.0
 12
72.258171769169721
 22
21.194794528435249
 32
0.0
 13
72.258171769169721
 23
21.194794528435249
 33
0.0
210
0.0
220
0.0
230
1.0
  0
SOLID
  5
550
  8
DRG
  6
CONTINUOUS
 62
     7
 10
142.19367627621841
 20
23.2694361362894
 30
0.0
 11
143.30259531872329
 21
21.194794528435249
 31
0.0
 12
170.17883908394009
 22
23.2694361362894
 32
0.0
 13
170.17883908394009
 23
23.2694361362894
 33
0.0
210
0.0
220
0.0
230
1.0
  0
SOLID
  5
551
  8
DRG
  6
CONTINUOUS
 62
     7
 10
9.8117421052893903
 20
23.318364424456458
 30
0.0
 11
11.61064502436718
 21
21.55636288529891
 31
0.0
 12
25.500790394036571
 22
22.298572876838069
 32
0.0
 13
25.500790394036571
 23
22.298572876838069
 33
0.0
210
0.0
220
0.0
230
1.0
  0
SOLID
  5
552
  8
DRG
  6
CONTINUOUS
 62
     7
 10
111.2523129779601
 20
23.54201089202471
 30
0.0
 11
102.1211660476033
 21
21.102600968374279
 31
0.0
 12
111.2870334115631
 22
20.69438210209054
 32
0.0
 13
111.2870334115631
 23
20.69438210209054
 33
0.0
210
0.0
220
0.0
230
1.0
  0
SOLID
  5
553
  8
DRG
  6
CONTINUOUS
 62
     7
 10
102.1211660476033
 20
23.542010892025001
 30
0.0
 11
82.474422287265327
 21
22.98819641756462
 31
0.0
 12
100.8530806557153
 22
21.561756477466091
 32
0.0
 13
100.8530806557153
 23
21.561756477466091
 33
0.0
210
0.0
220
0.0
230
1.0
  0
SOLID
  5
554
  8
DRG
  6
CONTINUOUS
 62
     7
 10
102.1211660476033
 20
23.542010892025001
 30
0.0
 11
102.1211660476033
 21
21.102600968374279
 31
0.0
 12
111.2523129779601
 22
23.54201089202471
 32
0.0
 13
111.2523129779601
 23
23.54201089202471
 33
0.0
210
0.0
220
0.0
230
1.0
  0
SOLID
  5
555
  8
DRG
  6
CONTINUOUS
 62
     7
 10
95.863486513980718
 20
23.758749615986972
 30
0.0
 11
102.1211660476033
 21
23.542010892025001
 31
0.0
 12
111.2523129779601
 22
23.54201089202471
 32
0.0
 13
111.2523129779601
 23
23.54201089202471
 33
0.0
210
0.0
220
0.0
230
1.0
  0
SOLID
  5
556
  8
DRG
  6
CONTINUOUS
 62
     7
 10
95.863486513980718
 20
23.758749615986972
 30
0.0
 11
82.474422287265327
 21
22.98819641756462
 31
0.0
 12
102.1211660476033
 22
23.542010892025001
 32
0.0
 13
102.1211660476033
 23
23.542010892025001
 33
0.0
210
0.0
220
0.0
230
1.0
  0
SOLID
  5
557
  8
DRG
  6
CONTINUOUS
 62
     7
 10
156.18625891463009
 20
23.758749615986972
 30
0.0
 11
142.19367627621841
 21
23.2694361362894
 31
0.0
 12
170.17883908394009
 22
23.2694361362894
 32
0.0
 13
170.17883908394009
 23
23.2694361362894
 33
0.0
210
0.0
220
0.0
230
1.0
  0
SOLID
  5
558
  8
DRG
  6
CONTINUOUS
 62
     7
 10
59.374510642364612
 20
23.758749615986979
 30
0.0
 11
45.381928003952979
 21
23.269436136289279
 31
0.0
 12
73.367090811674615
 22
23.2694361362894
 32
0.0
 13
73.367090811674615
 23
23.2694361362894
 33
0.0
210
0.0
220
0.0
230
1.0
  0
SOLID
  5
559
  8
DRG
  6
CONTINUOUS
 62
     7
 10
154.99308270534181
 20
23.947730162103639
 30
0.0
 11
142.19367627621841
 21
23.2694361362894
 31
0.0
 12
156.18625891463009
 22
23.758749615986972
 32
0.0
 13
156.18625891463009
 23
23.758749615986972
 33
0.0
210
0.0
220
0.0
230
1.0
  0
SOLID
  5
55A
  8
DRG
  6
CONTINUOUS
 62
     7
 10
157.3794351239184
 20
23.947730162103639
 30
0.0
 11
156.18625891463009
 21
23.758749615986972
 31
0.0
 12
170.17883908394009
 22
23.2694361362894
 32
0.0
 13
170.17883908394009
 23
23.2694361362894
 33
0.0
210
0.0
220
0.0
230
1.0
  0
SOLID
  5
55B
  8
DRG
  6
CONTINUOUS
 62
     7
 10
58.18133443307633
 20
23.94773016210365
 30
0.0
 11
45.381928003952979
 21
23.269436136289279
 31
0.0
 12
59.374510642364612
 22
23.758749615986979
 32
0.0
 13
59.374510642364612
 23
23.758749615986979
 33
0.0
210
0.0
220
0.0
230
1.0
  0
SOLID
  5
55C
  8
DRG
  6
CONTINUOUS
 62
     7
 10
60.567686851652887
 20
23.94773016210365
 30
0.0
 11
59.374510642364612
 21
23.758749615986979
 31
0.0
 12
73.367090811674615
 22
23.2694361362894
 32
0.0
 13
73.367090811674615
 23
23.2694361362894
 33
0.0
210
0.0
220
0.0
230
1.0
  0
SOLID
  5
55D
  8
DRG
  6
CONTINUOUS
 62
     7
 10
94.670310304692478
 20
23.947730162103682
 30
0.0
 11
82.474422287265327
 21
22.98819641756462
 31
0.0
 12
95.863486513980718
 22
23.758749615986972
 32
0.0
 13
95.863486513980718
 23
23.758749615986972
 33
0.0
210
0.0
220
0.0
230
1.0
  0
SOLID
  5
55E
  8
DRG
  6
CONTINUOUS
 62
     7
 10
26.5765362782073
 20
23.961210465262731
 30
0.0
 11
9.8117421052893903
 21
23.318364424456458
 31
0.0
 12
25.500790394036571
 22
22.298572876838069
 32
0.0
 13
25.500790394036571
 23
22.298572876838069
 33
0.0
210
0.0
220
0.0
230
1.0
  0
SOLID
  5
55F
  8
DRG
  6
CONTINUOUS
 62
     7
 10
97.385554555218334
 20
24.044368172161469
 30
0.0
 11
95.863486513980718
 21
23.758749615986972
 31
0.0
 12
111.2523129779601
 22
23.54201089202471
 32
0.0
 13
111.2523129779601
 23
23.54201089202471
 33
0.0
210
0.0
220
0.0
230
1.0
  0
SOLID
  5
560
  8
DRG
  6
CONTINUOUS
 62
     7
 10
153.91670289676611
 20
24.49617306789488
 30
0.0
 11
142.19367627621841
 21
23.2694361362894
 31
0.0
 12
154.99308270534181
 22
23.947730162103639
 32
0.0
 13
154.99308270534181
 23
23.947730162103639
 33
0.0
210
0.0
220
0.0
230
1.0
  0
SOLID
  5
561
  8
DRG
  6
CONTINUOUS
 62
     7
 10
158.45581493249401
 20
24.49617306789488
 30
0.0
 11
157.3794351239184
 21
23.947730162103639
 31
0.0
 12
170.17883908394009
 22
23.2694361362894
 32
0.0
 13
170.17883908394009
 23
23.2694361362894
 33
0.0
210
0.0
220
0.0
230
1.0
  0
SOLID
  5
562
  8
DRG
  6
CONTINUOUS
 62
     7
 10
57.104954624500678
 20
24.49617306789489
 30
0.0
 11
45.381928003952979
 21
23.269436136289279
 31
0.0
 12
58.18133443307633
 22
23.94773016210365
 32
0.0
 13
58.18133443307633
 23
23.94773016210365
 33
0.0
210
0.0
220
0.0
230
1.0
  0
SOLID
  5
563
  8
DRG
  6
CONTINUOUS
 62
     7
 10
61.64406666022856
 20
24.49617306789489
 30
0.0
 11
60.567686851652887
 21
23.94773016210365
 31
0.0
 12
73.367090811674615
 22
23.2694361362894
 32
0.0
 13
73.367090811674615
 23
23.2694361362894
 33
0.0
210
0.0
220
0.0
230
1.0
  0
SOLID
  5
564
  8
DRG
  6
CONTINUOUS
 62
     7
 10
93.593930496116869
 20
24.496173067894951
 30
0.0
 11
82.474422287265327
 21
22.98819641756462
 31
0.0
 12
94.670310304692478
 22
23.947730162103682
 32
0.0
 13
94.670310304692478
 23
23.947730162103682
 33
0.0
210
0.0
220
0.0
230
1.0
  0
SOLID
  5
565
  8
DRG
  6
CONTINUOUS
 62
     7
 10
98.783379983525563
 20
24.710966367302891
 30
0.0
 11
97.385554555218334
 21
24.044368172161469
 31
0.0
 12
111.2523129779601
 22
23.54201089202471
 32
0.0
 13
111.2523129779601
 23
23.54201089202471
 33
0.0
210
0.0
220
0.0
230
1.0
  0
SOLID
  5
566
  8
DRG
  6
CONTINUOUS
 62
     7
 10
153.06248304414561
 20
25.350392920515421
 30
0.0
 11
142.19367627621841
 21
23.2694361362894
 31
0.0
 12
153.91670289676611
 22
24.49617306789488
 32
0.0
 13
153.91670289676611
 23
24.49617306789488
 33
0.0
210
0.0
220
0.0
230
1.0
  0
SOLID
  5
567
  8
DRG
  6
CONTINUOUS
 62
     7
 10
159.3100347851146
 20
25.350392920515429
 30
0.0
 11
158.45581493249401
 21
24.49617306789488
 31
0.0
 12
170.17883908394009
 22
23.2694361362894
 32
0.0
 13
170.17883908394009
 23
23.2694361362894
 33
0.0
210
0.0
220
0.0
230
1.0
  0
SOLID
  5
568
  8
DRG
  6
CONTINUOUS
 62
     7
 10
56.250734771880133
 20
25.350392920515429
 30
0.0
 11
45.381928003952979
 21
23.269436136289279
 31
0.0
 12
57.104954624500678
 22
24.49617306789489
 32
0.0
 13
57.104954624500678
 23
24.49617306789489
 33
0.0
210
0.0
220
0.0
230
1.0
  0
SOLID
  5
569
  8
DRG
  6
CONTINUOUS
 62
     7
 10
62.498286512849091
 20
25.350392920515429
 30
0.0
 11
61.64406666022856
 21
24.49617306789489
 31
0.0
 12
73.367090811674615
 22
23.2694361362894
 32
0.0
 13
73.367090811674615
 23
23.2694361362894
 33
0.0
210
0.0
220
0.0
230
1.0
  0
SOLID
  5
56A
  8
DRG
  6
CONTINUOUS
 62
     7
 10
92.739710643496366
 20
25.350392920515478
 30
0.0
 11
82.474422287265327
 21
22.98819641756462
 31
0.0
 12
93.593930496116869
 22
24.496173067894951
 32
0.0
 13
93.593930496116869
 23
24.496173067894951
 33
0.0
  0
SOLID
  5
56B
  8
DRG
  6
CONTINUOUS
 62
     7
 10
81.701646597276806
 20
25.370657593613689
 30
0.0
 11
82.474422287265327
 21
22.98819641756462
 31
0.0
 12
92.739710643496366
 22
25.350392920515478
 32
0.0
 13
92.739710643496366
 23
25.350392920515478
 33
0.0
210
0.0
220
0.0
230
1.0
  0
SOLID
  5
56C
  8
DRG
  6
CONTINUOUS
 62
     7
 10
8.4162019599518825
 20
25.41435317419046
 30
0.0
 11
9.8117421052893903
 21
23.318364424456458
 31
0.0
 12
26.5765362782073
 22
23.961210465262731
 32
0.0
 13
26.5765362782073
 23
23.961210465262731
 33
0.0
  0
SOLID
  5
56D
  8
DRG
  6
CONTINUOUS
 62
     7
 10
22.683854862926161
 20
25.455509253088579
 30
0.0
 11
8.4162019599518825
 21
25.41435317419046
 31
0.0
 12
26.5765362782073
 22
23.961210465262731
 32
0.0
 13
26.5765362782073
 23
23.961210465262731
 33
0.0
210
0.0
220
0.0
230
1.0
  0
SOLID
  5
56E
  8
DRG
  6
CONTINUOUS
 62
     7
 10
44.699059029249632
 20
25.52055346047678
 30
0.0
 11
45.381928003952979
 21
23.269436136289279
 31
0.0
 12
56.250734771880133
 22
25.350392920515429
 32
0.0
 13
56.250734771880133
 23
25.350392920515429
 33
0.0
210
0.0
220
0.0
230
1.0
  0
SOLID
  5
56F
  8
DRG
  6
CONTINUOUS
 62
     7
 10
74.04995978637794
 20
25.52055346047694
 30
0.0
 11
62.498286512849091
 21
25.350392920515429
 31
0.0
 12
73.367090811674615
 22
23.2694361362894
 32
0.0
 13
73.367090811674615
 23
23.2694361362894
 33
0.0
210
0.0
220
0.0
230
1.0
  0
SOLID
  5
570
  8
DRG
  6
CONTINUOUS
 62
     7
 10
170.86170805864339
 20
25.52055346047694
 30
0.0
 11
159.3100347851146
 21
25.350392920515429
 31
0.0
 12
170.17883908394009
 22
23.2694361362894
 32
0.0
 13
170.17883908394009
 23
23.2694361362894
 33
0.0
210
0.0
220
0.0
230
1.0
  0
SOLID
  5
571
  8
DRG
  6
CONTINUOUS
 62
     7
 10
141.51080730151509
 20
25.52055346047694
 30
0.0
 11
142.19367627621841
 21
23.2694361362894
 31
0.0
 12
153.06248304414561
 22
25.350392920515421
 32
0.0
 13
153.06248304414561
 23
25.350392920515421
 33
0.0
  0
SOLID
  5
572
  8
DRG
  6
CONTINUOUS
 62
     7
 10
21.06007747620443
 20
25.668921983045841
 30
0.0
 11
8.4162019599518825
 21
25.41435317419046
 31
0.0
 12
22.683854862926161
 22
25.455509253088579
 32
0.0
 13
22.683854862926161
 23
25.455509253088579
 33
0.0
210
0.0
220
0.0
230
1.0
  0
SOLID
  5
573
  8
DRG
  6
CONTINUOUS
 62
     7
 10
99.963368130020584
 20
25.713910561123939
 30
0.0
 11
98.783379983525563
 21
24.710966367302891
 31
0.0
 12
111.2523129779601
 22
23.54201089202471
 32
0.0
 13
111.2523129779601
 23
23.54201089202471
 33
0.0
  0
SOLID
  5
574
  8
DRG
  6
CONTINUOUS
 62
     7
 10
27.267121908897021
 20
25.817196576320061
 30
0.0
 11
22.683854862926161
 21
25.455509253088579
 31
0.0
 12
26.5765362782073
 22
23.961210465262731
 32
0.0
 13
26.5765362782073
 23
23.961210465262731
 33
0.0
210
0.0
220
0.0
230
1.0
  0
SOLID
  5
575
  8
DRG
  6
CONTINUOUS
 62
     7
 10
27.267121908897021
 20
25.817196576320061
 30
0.0
 11
27.267121908897021
 21
13.51984597021351
 31
0.0
 12
37.639779947293839
 22
13.760967175618781
 32
0.0
 13
37.639779947293839
 23
13.760967175618781
 33
0.0
  0
SOLID
  5
576
  8
DRG
  6
CONTINUOUS
 62
     7
 10
24.307735067847531
 20
26.13412278224882
 30
0.0
 11
22.683854862926161
 21
25.455509253088579
 31
0.0
 12
27.267121908897021
 22
25.817196576320061
 32
0.0
 13
27.267121908897021
 23
25.817196576320061
 33
0.0
210
0.0
220
0.0
230
1.0
  0
SOLID
  5
577
  8
DRG
  6
CONTINUOUS
 62
     7
 10
19.578817635304372
 20
26.367540103819518
 30
0.0
 11
8.4162019599518825
 21
25.41435317419046
 31
0.0
 12
21.06007747620443
 22
25.668921983045841
 32
0.0
 13
21.06007747620443
 23
25.668921983045841
 33
0.0
210
0.0
220
0.0
230
1.0
  0
SOLID
  5
578
  8
DRG
  6
CONTINUOUS
 62
     7
 10
152.5140401383544
 20
26.426772729091081
 30
0.0
 11
141.51080730151509
 21
25.52055346047694
 31
0.0
 12
153.06248304414561
 22
25.350392920515421
 32
0.0
 13
153.06248304414561
 23
25.350392920515421
 33
0.0
210
0.0
220
0.0
230
1.0
  0
SOLID
  5
579
  8
DRG
  6
CONTINUOUS
 62
     7
 10
159.8584776909058
 20
26.426772729091081
 30
0.0
 11
159.3100347851146
 21
25.350392920515429
 31
0.0
 12
170.86170805864339
 22
25.52055346047694
 32
0.0
 13
170.86170805864339
 23
25.52055346047694
 33
0.0
  0
SOLID
  5
57A
  8
DRG
  6
CONTINUOUS
 62
     7
 10
55.702291866088899
 20
26.426772729091091
 30
0.0
 11
44.699059029249632
 21
25.52055346047678
 31
0.0
 12
56.250734771880133
 22
25.350392920515429
 32
0.0
 13
56.250734771880133
 23
25.350392920515429
 33
0.0
210
0.0
220
0.0
230
1.0
  0
SOLID
  5
57B
  8
DRG
  6
CONTINUOUS
 62
     7
 10
63.046729418640332
 20
26.426772729091091
 30
0.0
 11
62.498286512849091
 21
25.350392920515429
 31
0.0
 12
74.04995978637794
 22
25.52055346047694
 32
0.0
 13
74.04995978637794
 23
25.52055346047694
 33
0.0
210
0.0
220
0.0
230
1.0
  0
SOLID
  5
57C
  8
DRG
  6
CONTINUOUS
 62
     7
 10
92.191267737705175
 20
26.426772729091109
 30
0.0
 11
81.701646597276806
 21
25.370657593613689
 31
0.0
 12
92.739710643496366
 22
25.350392920515478
 32
0.0
 13
92.739710643496366
 23
25.350392920515478
 33
0.0
210
0.0
220
0.0
230
1.0
  0
SOLID
  5
57D
  8
DRG
  6
CONTINUOUS
 62
     7
 10
100.8465101302062
 20
26.98604628080799
 30
0.0
 11
99.963368130020584
 21
25.713910561123939
 31
0.0
 12
111.2523129779601
 22
23.54201089202471
 32
0.0
 13
111.2523129779601
 23
23.54201089202471
 33
0.0
  0
SOLID
  5
57E
  8
DRG
  6
CONTINUOUS
 62
     7
 10
25.68195691611335
 20
27.233676125040169
 30
0.0
 11
24.307735067847531
 21
26.13412278224882
 31
0.0
 12
27.267121908897021
 22
25.817196576320061
 32
0.0
 13
27.267121908897021
 23
25.817196576320061
 33
0.0
210
0.0
220
0.0
230
1.0
  0
SOLID
  5
57F
  8
DRG
  6
CONTINUOUS
 62
     7
 10
18.3813068076863
 20
27.48475351793256
 30
0.0
 11
8.4162019599518825
 21
25.41435317419046
 31
0.0
 12
19.578817635304372
 22
26.367540103819518
 32
0.0
 13
19.578817635304372
 23
26.367540103819518
 33
0.0
210
0.0
220
0.0
230
1.0
  0
SOLID
  5
580
  8
DRG
  6
CONTINUOUS
 62
     7
 10
152.32505959223769
 20
27.619948938379359
 30
0.0
 11
141.51080730151509
 21
25.52055346047694
 31
0.0
 12
152.5140401383544
 22
26.426772729091081
 32
0.0
 13
152.5140401383544
 23
26.426772729091081
 33
0.0
210
0.0
220
0.0
230
1.0
  0
SOLID
  5
581
  8
DRG
  6
CONTINUOUS
 62
     7
 10
92.002287191588479
 20
27.619948938379359
 30
0.0
 11
81.701646597276806
 21
25.370657593613689
 31
0.0
 12
92.191267737705175
 22
26.426772729091109
 32
0.0
 13
92.191267737705175
 23
26.426772729091109
 33
0.0
210
0.0
220
0.0
230
1.0
  0
SOLID
  5
582
  8
DRG
  6
CONTINUOUS
 62
     7
 10
160.04745823702251
 20
27.619948938379359
 30
0.0
 11
159.8584776909058
 21
26.426772729091081
 31
0.0
 12
170.86170805864339
 22
25.52055346047694
 32
0.0
 13
170.86170805864339
 23
25.52055346047694
 33
0.0
  0
SOLID
  5
583
  8
DRG
  6
CONTINUOUS
 62
     7
 10
55.513311319972217
 20
27.61994893837937
 30
0.0
 11
44.699059029249632
 21
25.52055346047678
 31
0.0
 12
55.702291866088899
 22
26.426772729091091
 32
0.0
 13
55.702291866088899
 23
26.426772729091091
 33
0.0
210
0.0
220
0.0
230
1.0
  0
SOLID
  5
584
  8
DRG
  6
CONTINUOUS
 62
     7
 10
63.235709964757007
 20
27.61994893837937
 30
0.0
 11
63.046729418640332
 21
26.426772729091091
 31
0.0
 12
74.04995978637794
 22
25.52055346047694
 32
0.0
 13
74.04995978637794
 23
25.52055346047694
 33
0.0
  0
SOLID
  5
585
  8
DRG
  6
CONTINUOUS
 62
     7
 10
7.4843847060861783
 20
27.75367310563599
 30
0.0
 11
8.4162019599518825
 21
25.41435317419046
 31
0.0
 12
18.3813068076863
 22
27.48475351793256
 32
0.0
 13
18.3813068076863
 23
27.48475351793256
 33
0.0
210
0.0
220
0.0
230
1.0
  0
SOLID
  5
586
  8
DRG
  6
CONTINUOUS
 62
     7
 10
44.468482394088362
 20
27.861637324670291
 30
0.0
 11
44.699059029249632
 21
25.52055346047678
 31
0.0
 12
55.513311319972217
 22
27.61994893837937
 32
0.0
 13
55.513311319972217
 23
27.61994893837937
 33
0.0
210
0.0
220
0.0
230
1.0
  0
SOLID
  5
587
  8
DRG
  6
CONTINUOUS
 62
     7
 10
171.0922846938046
 20
27.861637324670479
 30
0.0
 11
160.04745823702251
 21
27.619948938379359
 31
0.0
 12
170.86170805864339
 22
25.52055346047694
 32
0.0
 13
170.86170805864339
 23
25.52055346047694
 33
0.0
210
0.0
220
0.0
230
1.0
  0
SOLID
  5
588
  8
DRG
  6
CONTINUOUS
 62
     7
 10
74.280536421539182
 20
27.861637324670479
 30
0.0
 11
63.235709964757007
 21
27.61994893837937
 31
0.0
 12
74.04995978637794
 22
25.52055346047694
 32
0.0
 13
74.04995978637794
 23
25.52055346047694
 33
0.0
210
0.0
220
0.0
230
1.0
  0
SOLID
  5
589
  8
DRG
  6
CONTINUOUS
 62
     7
 10
141.28023066635379
 20
27.861637324670479
 30
0.0
 11
141.51080730151509
 21
25.52055346047694
 31
0.0
 12
152.32505959223769
 22
27.619948938379359
 32
0.0
 13
152.32505959223769
 23
27.619948938379359
 33
0.0
  0
SOLID
  5
58A
  8
DRG
  6
CONTINUOUS
 62
     7
 10
81.440258950509346
 20
27.861637324670479
 30
0.0
 11
81.701646597276806
 21
25.370657593613689
 31
0.0
 12
92.002287191588479
 22
27.619948938379359
 32
0.0
 13
92.002287191588479
 23
27.619948938379359
 33
0.0
210
0.0
220
0.0
230
1.0
  0
SOLID
  5
58B
  8
DRG
  6
CONTINUOUS
 62
     7
 10
101.373673147171
 20
28.442194705705901
 30
0.0
 11
100.8465101302062
 21
26.98604628080799
 31
0.0
 12
111.2523129779601
 22
23.54201089202471
 32
0.0
 13
111.2523129779601
 23
23.54201089202471
 33
0.0
210
0.0
220
0.0
230
1.0
  0
SOLID
  5
58C
  8
DRG
  6
CONTINUOUS
 62
     7
 10
26.7002564035921
 20
28.66914447916551
 30
0.0
 11
25.68195691611335
 21
27.233676125040169
 31
0.0
 12
27.267121908897021
 22
25.817196576320061
 32
0.0
 13
27.267121908897021
 23
25.817196576320061
 33
0.0
  0
SOLID
  5
58D
  8
DRG
  6
CONTINUOUS
 62
     7
 10
26.7002564035921
 20
28.66914447916551
 30
0.0
 11
27.267121908897021
 21
25.817196576320061
 31
0.0
 12
37.639779947293839
 22
13.760967175618781
 32
0.0
 13
37.639779947293839
 23
13.760967175618781
 33
0.0
  0
SOLID
  5
58E
  8
DRG
  6
CONTINUOUS
 62
     7
 10
17.581722267866311
 20
28.914040948303899
 30
0.0
 11
7.4843847060861783
 21
27.75367310563599
 31
0.0
 12
18.3813068076863
 22
27.48475351793256
 32
0.0
 13
18.3813068076863
 23
27.48475351793256
 33
0.0
210
0.0
220
0.0
230
1.0
  0
SOLID
  5
58F
  8
DRG
  6
CONTINUOUS
 62
     7
 10
160.04745823702251
 20
29.300230626583549
 30
0.0
 11
160.04745823702251
 21
27.619948938379359
 31
0.0
 12
171.0922846938046
 22
27.861637324670479
 32
0.0
 13
171.0922846938046
 23
27.861637324670479
 33
0.0
210
0.0
220
0.0
230
1.0
  0
SOLID
  5
590
  8
DRG
  6
CONTINUOUS
 62
     7
 10
152.32505959223769
 20
29.959298931438969
 30
0.0
 11
141.28023066635379
 21
27.861637324670479
 31
0.0
 12
152.32505959223769
 22
27.619948938379359
 32
0.0
 13
152.32505959223769
 23
27.619948938379359
 33
0.0
210
0.0
220
0.0
230
1.0
  0
SOLID
  5
591
  8
DRG
  6
CONTINUOUS
 62
     7
 10
141.28023066635379
 20
29.95929893143898
 30
0.0
 11
141.28023066635379
 21
27.861637324670479
 31
0.0
 12
152.32505959223769
 22
29.959298931438969
 32
0.0
 13
152.32505959223769
 23
29.959298931438969
 33
0.0
210
0.0
220
0.0
230
1.0
  0
SOLID
  5
592
  8
DRG
  6
CONTINUOUS
 62
     7
 10
171.0922846938046
 20
29.95929893143904
 30
0.0
 11
160.04745823702251
 21
29.300230626583549
 31
0.0
 12
171.0922846938046
 22
27.861637324670479
 32
0.0
 13
171.0922846938046
 23
27.861637324670479
 33
0.0
210
0.0
220
0.0
230
1.0
  0
SOLID
  5
593
  8
DRG
  6
CONTINUOUS
 62
     7
 10
101.5095597489034
 20
29.984856014372749
 30
0.0
 11
101.373673147171
 21
28.442194705705901
 31
0.0
 12
111.2523129779601
 22
23.54201089202471
 32
0.0
 13
111.2523129779601
 23
23.54201089202471
 33
0.0
210
0.0
220
0.0
230
1.0
  0
SOLID
  5
594
  8
DRG
  6
CONTINUOUS
 62
     7
 10
7.0565934473582743
 20
30.23514359210488
 30
0.0
 11
7.4843847060861783
 21
27.75367310563599
 31
0.0
 12
17.581722267866311
 22
28.914040948303899
 32
0.0
 13
17.581722267866311
 23
28.914040948303899
 33
0.0
210
0.0
220
0.0
230
1.0
  0
SOLID
  5
595
  8
DRG
  6
CONTINUOUS
 62
     7
 10
27.2838918183243
 20
30.329527851933712
 30
0.0
 11
26.7002564035921
 21
28.66914447916551
 31
0.0
 12
37.639779947293839
 22
13.760967175618781
 32
0.0
 13
37.639779947293839
 23
13.760967175618781
 33
0.0
210
0.0
220
0.0
230
1.0
  0
SOLID
  5
596
  8
DRG
  6
CONTINUOUS
 62
     7
 10
17.256300807526252
 20
30.5191262631974
 30
0.0
 11
7.0565934473582743
 21
30.23514359210488
 31
0.0
 12
17.581722267866311
 22
28.914040948303899
 32
0.0
 13
17.581722267866311
 23
28.914040948303899
 33
0.0
210
0.0
220
0.0
230
1.0
  0
SOLID
  5
597
  8
DRG
  6
CONTINUOUS
 62
     7
 10
63.235709964757
 20
30.81688778835381
 30
0.0
 11
63.235709964757007
 21
27.61994893837937
 31
0.0
 12
74.280536421539182
 22
27.861637324670479
 32
0.0
 13
74.280536421539182
 23
27.861637324670479
 33
0.0
210
0.0
220
0.0
230
1.0
  0
SOLID
  5
598
  8
DRG
  6
CONTINUOUS
 62
     7
 10
74.280536421539196
 20
30.816887788353831
 30
0.0
 11
63.235709964757
 21
30.81688778835381
 31
0.0
 12
74.280536421539182
 22
27.861637324670479
 32
0.0
 13
74.280536421539182
 23
27.861637324670479
 33
0.0
210
0.0
220
0.0
230
1.0
  0
SOLID
  5
599
  8
DRG
  6
CONTINUOUS
 62
     7
 10
159.01581968400799
 20
30.996563617445211
 30
0.0
 11
160.04745823702251
 21
29.300230626583549
 31
0.0
 12
171.0922846938046
 22
29.95929893143904
 32
0.0
 13
171.0922846938046
 23
29.95929893143904
 33
0.0
210
0.0
220
0.0
230
1.0
  0
SOLID
  5
59A
  8
DRG
  6
CONTINUOUS
 62
     7
 10
27.387732575171409
 20
32.086434320449378
 30
0.0
 11
27.2838918183243
 21
30.329527851933712
 31
0.0
 12
37.639779947293839
 22
13.760967175618781
 32
0.0
 13
37.639779947293839
 23
13.760967175618781
 33
0.0
210
0.0
220
0.0
230
1.0
  0
SOLID
  5
59B
  8
DRG
  6
CONTINUOUS
 62
     7
 10
157.53297815821909
 20
32.316792661720299
 30
0.0
 11
159.01581968400799
 21
30.996563617445211
 31
0.0
 12
171.0922846938046
 22
29.95929893143904
 32
0.0
 13
171.0922846938046
 23
29.95929893143904
 33
0.0
210
0.0
220
0.0
230
1.0
  0
SOLID
  5
59C
  8
DRG
  6
CONTINUOUS
 62
     7
 10
81.440258950509346
 20
32.349374231810209
 30
0.0
 11
81.440258950509346
 21
27.861637324670479
 31
0.0
 12
92.002287191588479
 22
27.619948938379359
 32
0.0
 13
92.002287191588479
 23
27.619948938379359
 33
0.0
210
0.0
220
0.0
230
1.0
  0
SOLID
  5
59D
  8
DRG
  6
CONTINUOUS
 62
     7
 10
170.47732661026529
 20
32.356132664391282
 30
0.0
 11
157.53297815821909
 21
32.316792661720299
 31
0.0
 12
171.0922846938046
 22
29.95929893143904
 32
0.0
 13
171.0922846938046
 23
29.95929893143904
 33
0.0
210
0.0
220
0.0
230
1.0
  0
SOLID
  5
59E
  8
DRG
  6
CONTINUOUS
 62
     7
 10
92.002287191588479
 20
33.041326503689838
 30
0.0
 11
81.440258950509346
 21
32.349374231810209
 31
0.0
 12
92.002287191588479
 22
27.619948938379359
 32
0.0
 13
92.002287191588479
 23
27.619948938379359
 33
0.0
210
0.0
220
0.0
230
1.0
  0
SOLID
  5
59F
  8
DRG
  6
CONTINUOUS
 62
     7
 10
155.72873071743231
 20
33.145354604103439
 30
0.0
 11
157.53297815821909
 21
32.316792661720299
 31
0.0
 12
170.47732661026529
 22
32.356132664391282
 32
0.0
 13
170.47732661026529
 23
32.356132664391282
 33
0.0
210
0.0
220
0.0
230
1.0
  0
SOLID
  5
5A0
  8
DRG
  6
CONTINUOUS
 62
     7
 10
152.98516973426729
 20
33.970446153339353
 30
0.0
 11
155.72873071743231
 21
33.145354604103439
 31
0.0
 12
170.47732661026529
 22
32.356132664391282
 32
0.0
 13
170.47732661026529
 23
32.356132664391282
 33
0.0
210
0.0
220
0.0
230
1.0
  0
SOLID
  5
5A1
  8
DRG
  6
CONTINUOUS
 62
     7
 10
92.608158805665866
 20
34.516652178663861
 30
0.0
 11
81.440258950509346
 21
32.349374231810209
 31
0.0
 12
92.002287191588479
 22
33.041326503689838
 32
0.0
 13
92.002287191588479
 23
33.041326503689838
 33
0.0
210
0.0
220
0.0
230
1.0
  0
SOLID
  5
5A2
  8
DRG
  6
CONTINUOUS
 62
     7
 10
169.3838362766385
 20
34.575876856453249
 30
0.0
 11
152.98516973426729
 21
33.970446153339353
 31
0.0
 12
170.47732661026529
 22
32.356132664391282
 32
0.0
 13
170.47732661026529
 23
32.356132664391282
 33
0.0
210
0.0
220
0.0
230
1.0
  0
SOLID
  5
5A3
  8
DRG
  6
CONTINUOUS
 62
     7
 10
81.985263960363469
 20
34.77663157388757
 30
0.0
 11
81.440258950509346
 21
32.349374231810209
 31
0.0
 12
92.608158805665866
 22
34.516652178663861
 32
0.0
 13
92.608158805665866
 23
34.516652178663861
 33
0.0
210
0.0
220
0.0
230
1.0
  0
SOLID
  5
5A4
  8
DRG
  6
CONTINUOUS
 62
     7
 10
150.3822216232935
 20
35.167343836745772
 30
0.0
 11
152.98516973426729
 21
33.970446153339353
 31
0.0
 12
169.3838362766385
 22
34.575876856453249
 32
0.0
 13
169.3838362766385
 23
34.575876856453249
 33
0.0
210
0.0
220
0.0
230
1.0
  0
SOLID
  5
5A5
  8
DRG
  6
CONTINUOUS
 62
     7
 10
55.513311319972232
 20
35.629722934820848
 30
0.0
 11
44.468482394088362
 21
27.861637324670291
 31
0.0
 12
55.513311319972217
 22
27.61994893837937
 32
0.0
 13
55.513311319972217
 23
27.61994893837937
 33
0.0
210
0.0
220
0.0
230
1.0
  0
SOLID
  5
5A6
  8
DRG
  6
CONTINUOUS
 62
     7
 10
93.593074411603624
 20
35.771087314158173
 30
0.0
 11
81.985263960363469
 21
34.77663157388757
 31
0.0
 12
92.608158805665866
 22
34.516652178663861
 32
0.0
 13
92.608158805665866
 23
34.516652178663861
 33
0.0
210
0.0
220
0.0
230
1.0
  0
SOLID
  5
5A7
  8
DRG
  6
CONTINUOUS
 62
     7
 10
44.169020821240288
 20
36.461122307958632
 30
0.0
 11
55.513311319972232
 21
35.629722934820848
 31
0.0
 12
74.280536421539182
 22
35.629722934820848
 32
0.0
 13
74.280536421539182
 23
35.629722934820848
 33
0.0
210
0.0
220
0.0
230
1.0
  0
SOLID
  5
5A8
  8
DRG
  6
CONTINUOUS
 62
     7
 10
44.169020821240288
 20
36.461122307958632
 30
0.0
 11
44.468482394088362
 21
27.861637324670291
 31
0.0
 12
55.513311319972232
 22
35.629722934820848
 32
0.0
 13
55.513311319972232
 23
35.629722934820848
 33
0.0
210
0.0
220
0.0
230
1.0
  0
SOLID
  5
5A9
  8
DRG
  6
CONTINUOUS
 62
     7
 10
167.85830970219251
 20
36.524146360035118
 30
0.0
 11
150.3822216232935
 21
35.167343836745772
 31
0.0
 12
169.3838362766385
 22
34.575876856453249
 32
0.0
 13
169.3838362766385
 23
34.575876856453249
 33
0.0
  0
SOLID
  5
5AA
  8
DRG
  6
CONTINUOUS
 62
     7
 10
94.88251018784689
 20
36.709714843546827
 30
0.0
 11
81.985263960363469
 21
34.77663157388757
 31
0.0
 12
93.593074411603624
 22
35.771087314158173
 32
0.0
 13
93.593074411603624
 23
35.771087314158173
 33
0.0
210
0.0
220
0.0
230
1.0
  0
SOLID
  5
5AB
  8
DRG
  6
CONTINUOUS
 62
     7
 10
147.96999619585119
 20
36.713005966762211
 30
0.0
 11
150.3822216232935
 21
35.167343836745772
 31
0.0
 12
167.85830970219251
 22
36.524146360035118
 32
0.0
 13
167.85830970219251
 23
36.524146360035118
 33
0.0
210
0.0
220
0.0
230
1.0
  0
SOLID
  5
5AC
  8
DRG
  6
CONTINUOUS
 62
     7
 10
83.019036262207464
 20
37.03935636788588
 30
0.0
 11
81.985263960363469
 21
34.77663157388757
 31
0.0
 12
94.88251018784689
 22
36.709714843546827
 32
0.0
 13
94.88251018784689
 23
36.709714843546827
 33
0.0
210
0.0
220
0.0
230
1.0
  0
SOLID
  5
5AD
  8
DRG
  6
CONTINUOUS
 62
     7
 10
96.378900737811577
 20
37.261513341151442
 30
0.0
 11
83.019036262207464
 21
37.03935636788588
 31
0.0
 12
94.88251018784689
 22
36.709714843546827
 32
0.0
 13
94.88251018784689
 23
36.709714843546827
 33
0.0
210
0.0
220
0.0
230
1.0
  0
SOLID
  5
5AE
  8
DRG
  6
CONTINUOUS
 62
     7
 10
97.969021393668683
 20
37.384730871555568
 30
0.0
 11
83.019036262207464
 21
37.03935636788588
 31
0.0
 12
96.378900737811577
 22
37.261513341151442
 32
0.0
 13
96.378900737811577
 23
37.261513341151442
 33
0.0
210
0.0
220
0.0
230
1.0
  0
SOLID
  5
5AF
  8
DRG
  6
CONTINUOUS
 62
     7
 10
101.5095597489034
 20
37.384730871555568
 30
0.0
 11
101.5095597489034
 21
29.984856014372749
 31
0.0
 12
111.2523129779601
 22
23.54201089202471
 32
0.0
 13
111.2523129779601
 23
23.54201089202471
 33
0.0
210
0.0
220
0.0
230
1.0
  0
SOLID
  5
5B0
  8
DRG
  6
CONTINUOUS
 62
     7
 10
165.96561339334559
 20
38.118099329982897
 30
0.0
 11
147.96999619585119
 21
36.713005966762211
 31
0.0
 12
167.85830970219251
 22
36.524146360035118
 32
0.0
 13
167.85830970219251
 23
36.524146360035118
 33
0.0
210
0.0
220
0.0
230
1.0
  0
SOLID
  5
5B1
  8
DRG
  6
CONTINUOUS
 62
     7
 10
6.7865631049779154
 20
38.202265524009427
 30
0.0
 11
7.0565934473582743
 21
30.23514359210488
 31
0.0
 12
17.256300807526252
 22
30.5191262631974
 32
0.0
 13
17.256300807526252
 23
30.5191262631974
 33
0.0
210
0.0
220
0.0
230
1.0
  0
SOLID
  5
5B2
  8
DRG
  6
CONTINUOUS
 62
     7
 10
145.79493162739621
 20
38.577676730199528
 30
0.0
 11
147.96999619585119
 21
36.713005966762211
 31
0.0
 12
165.96561339334559
 22
38.118099329982897
 32
0.0
 13
165.96561339334559
 23
38.118099329982897
 33
0.0
210
0.0
220
0.0
230
1.0
  0
SOLID
  5
5B3
  8
DRG
  6
CONTINUOUS
 62
     7
 10
84.497147993365729
 20
39.040304736946602
 30
0.0
 11
83.019036262207464
 21
37.03935636788588
 31
0.0
 12
97.969021393668683
 22
37.384730871555568
 32
0.0
 13
97.969021393668683
 23
37.384730871555568
 33
0.0
  0
SOLID
  5
5B4
  8
DRG
  6
CONTINUOUS
 62
     7
 10
163.78622618233979
 20
39.289959719462992
 30
0.0
 11
145.79493162739621
 21
38.577676730199528
 31
0.0
 12
165.96561339334559
 22
38.118099329982897
 32
0.0
 13
165.96561339334559
 23
38.118099329982897
 33
0.0
  0
SOLID
  5
5B5
  8
DRG
  6
CONTINUOUS
 62
     7
 10
161.4128172083947
 20
39.98989916707626
 30
0.0
 11
145.79493162739621
 21
38.577676730199528
 31
0.0
 12
163.78622618233979
 22
39.289959719462992
 32
0.0
 13
163.78622618233979
 23
39.289959719462992
 33
0.0
210
0.0
220
0.0
230
1.0
  0
SOLID
  5
5B6
  8
DRG
  6
CONTINUOUS
 62
     7
 10
159.18695030849
 20
40.665065806460063
 30
0.0
 11
145.79493162739621
 21
38.577676730199528
 31
0.0
 12
161.4128172083947
 22
39.98989916707626
 32
0.0
 13
161.4128172083947
 23
39.98989916707626
 33
0.0
210
0.0
220
0.0
230
1.0
  0
SOLID
  5
5B7
  8
DRG
  6
CONTINUOUS
 62
     7
 10
86.356075160311036
 20
40.693483025404078
 30
0.0
 11
84.497147993365729
 21
39.040304736946602
 31
0.0
 12
97.969021393668683
 22
37.384730871555568
 32
0.0
 13
97.969021393668683
 23
37.384730871555568
 33
0.0
210
0.0
220
0.0
230
1.0
  0
SOLID
  5
5B8
  8
DRG
  6
CONTINUOUS
 62
     7
 10
86.356075160311036
 20
40.693483025404078
 30
0.0
 11
97.969021393668683
 21
37.384730871555568
 31
0.0
 12
101.5095597489034
 22
37.384730871555568
 32
0.0
 13
101.5095597489034
 23
37.384730871555568
 33
0.0
210
0.0
220
0.0
230
1.0
  0
SOLID
  5
5B9
  8
DRG
  6
CONTINUOUS
 62
     7
 10
143.89890046802631
 20
40.725459022626843
 30
0.0
 11
145.79493162739621
 21
38.577676730199528
 31
0.0
 12
159.18695030849
 22
40.665065806460063
 32
0.0
 13
159.18695030849
 23
40.665065806460063
 33
0.0
210
0.0
220
0.0
230
1.0
  0
SOLID
  5
5BA
  8
DRG
  6
CONTINUOUS
 62
     7
 10
127.2345352189994
 20
40.740104065808097
 30
0.0
 11
116.19314081319391
 21
17.28637227261407
 31
0.0
 12
127.2345352189994
 22
17.28637227261407
 32
0.0
 13
127.2345352189994
 23
17.28637227261407
 33
0.0
210
0.0
220
0.0
230
1.0
  0
SOLID
  5
5BB
  8
DRG
  6
CONTINUOUS
 62
     7
 10
157.0907498111003
 20
41.67317141688541
 30
0.0
 11
143.89890046802631
 21
40.725459022626843
 31
0.0
 12
159.18695030849
 22
40.665065806460063
 32
0.0
 13
159.18695030849
 23
40.665065806460063
 33
0.0
210
0.0
220
0.0
230
1.0
  0
SOLID
  5
5BC
  8
DRG
  6
CONTINUOUS
 62
     7
 10
55.51331131997221
 20
41.923431282527638
 30
0.0
 11
44.169020821240288
 21
36.461122307958632
 31
0.0
 12
74.280536421539182
 22
35.629722934820848
 32
0.0
 13
74.280536421539182
 23
35.629722934820848
 33
0.0
210
0.0
220
0.0
230
1.0
  0
SOLID
  5
5BD
  8
DRG
  6
CONTINUOUS
 62
     7
 10
63.235709964756971
 20
41.923431282527652
 30
0.0
 11
55.51331131997221
 21
41.923431282527638
 31
0.0
 12
74.280536421539182
 22
35.629722934820848
 32
0.0
 13
74.280536421539182
 23
35.629722934820848
 33
0.0
210
0.0
220
0.0
230
1.0
  0
SOLID
  5
5BE
  8
DRG
  6
CONTINUOUS
 62
     7
 10
88.515927674336666
 20
41.927843500748189
 30
0.0
 11
86.356075160311036
 21
40.693483025404078
 31
0.0
 12
101.5095597489034
 22
37.384730871555568
 32
0.0
 13
101.5095597489034
 23
37.384730871555568
 33
0.0
210
0.0
220
0.0
230
1.0
  0
SOLID
  5
5BF
  8
DRG
  6
CONTINUOUS
 62
     7
 10
127.4351119215448
 20
42.520271537458619
 30
0.0
 11
116.19314081319391
 21
17.28637227261407
 31
0.0
 12
127.2345352189994
 22
40.740104065808097
 32
0.0
 13
127.2345352189994
 23
40.740104065808097
 33
0.0
210
0.0
220
0.0
230
1.0
  0
SOLID
  5
5C0
  8
DRG
  6
CONTINUOUS
 62
     7
 10
90.883882743884527
 20
42.690337732881808
 30
0.0
 11
88.515927674336666
 21
41.927843500748189
 31
0.0
 12
101.5095597489034
 22
37.384730871555568
 32
0.0
 13
101.5095597489034
 23
37.384730871555568
 33
0.0
210
0.0
220
0.0
230
1.0
  0
SOLID
  5
5C1
  8
DRG
  6
CONTINUOUS
 62
     7
 10
93.358174068518778
 20
42.948196427274922
 30
0.0
 11
90.883882743884527
 21
42.690337732881808
 31
0.0
 12
101.5095597489034
 22
37.384730871555568
 32
0.0
 13
101.5095597489034
 23
37.384730871555568
 33
0.0
210
0.0
220
0.0
230
1.0
  0
SOLID
  5
5C2
  8
DRG
  6
CONTINUOUS
 62
     7
 10
101.5095597489034
 20
37.384730871555568
 30
0.0
 11
100.207486521178
 21
42.948196427274922
 31
0.0
 12
93.358174068518778
 22
42.948196427274922
 32
0.0
 13
93.358174068518778
 23
42.948196427274922
 33
0.0
  0
SOLID
  5
5C3
  8
DRG
  6
CONTINUOUS
 62
     7
 10
100.207486521178
 20
42.948196427274922
 30
0.0
 11
101.5095597489034
 21
37.384730871555568
 31
0.0
 12
111.2523129779601
 22
23.54201089202471
 32
0.0
 13
111.2523129779601
 23
23.54201089202471
 33
0.0
  0
SOLID
  5
5C4
  8
DRG
  6
CONTINUOUS
 62
     7
 10
155.17367747190539
 20
42.990428830347881
 30
0.0
 11
143.89890046802631
 21
40.725459022626843
 31
0.0
 12
157.0907498111003
 22
41.67317141688541
 32
0.0
 13
157.0907498111003
 23
41.67317141688541
 33
0.0
210
0.0
220
0.0
230
1.0
  0
SOLID
  5
5C5
  8
DRG
  6
CONTINUOUS
 62
     7
 10
142.3184035466634
 20
43.11500550983493
 30
0.0
 11
143.89890046802631
 21
40.725459022626843
 31
0.0
 12
155.17367747190539
 22
42.990428830347881
 32
0.0
 13
155.17367747190539
 23
42.990428830347881
 33
0.0
  0
SOLID
  5
5C6
  8
DRG
  6
CONTINUOUS
 62
     7
 10
128.02678427577999
 20
44.211173978748569
 30
0.0
 11
116.19314081319391
 21
17.28637227261407
 31
0.0
 12
127.4351119215448
 22
42.520271537458619
 32
0.0
 13
127.4351119215448
 23
42.520271537458619
 33
0.0
210
0.0
220
0.0
230
1.0
  0
SOLID
  5
5C7
  8
DRG
  6
CONTINUOUS
 62
     7
 10
153.4809683549079
 20
44.585756161105429
 30
0.0
 11
142.3184035466634
 21
43.11500550983493
 31
0.0
 12
155.17367747190539
 22
42.990428830347881
 32
0.0
 13
155.17367747190539
 23
42.990428830347881
 33
0.0
210
0.0
220
0.0
230
1.0
  0
SOLID
  5
5C8
  8
DRG
  6
CONTINUOUS
 62
     7
 10
27.387732575171409
 20
44.745475926535612
 30
0.0
 11
27.387732575171409
 21
32.086434320449378
 31
0.0
 12
37.639779947293839
 22
13.760967175618781
 32
0.0
 13
37.639779947293839
 23
13.760967175618781
 33
0.0
210
0.0
220
0.0
230
1.0
  0
SOLID
  5
5C9
  8
DRG
  6
CONTINUOUS
 62
     7
 10
141.68103748780231
 20
44.96578368522475
 30
0.0
 11
142.3184035466634
 21
43.11500550983493
 31
0.0
 12
153.4809683549079
 22
44.585756161105429
 32
0.0
 13
153.4809683549079
 23
44.585756161105429
 33
0.0
210
0.0
220
0.0
230
1.0
  0
SOLID
  5
5CA
  8
DRG
  6
CONTINUOUS
 62
     7
 10
111.2523129779601
 20
45.06060729124669
 30
0.0
 11
100.207486521178
 21
42.948196427274922
 31
0.0
 12
111.2523129779601
 22
23.54201089202471
 32
0.0
 13
111.2523129779601
 23
23.54201089202471
 33
0.0
  0
SOLID
  5
5CB
  8
DRG
  6
CONTINUOUS
 62
     7
 10
74.280536421539182
 20
45.06060729124669
 30
0.0
 11
63.235709964756971
 21
41.923431282527652
 31
0.0
 12
74.280536421539182
 22
35.629722934820848
 32
0.0
 13
74.280536421539182
 23
35.629722934820848
 33
0.0
  0
SOLID
  5
5CC
  8
DRG
  6
CONTINUOUS
 62
     7
 10
44.468482394088362
 20
45.06060729124696
 30
0.0
 11
44.169020821240288
 21
36.461122307958632
 31
0.0
 12
55.51331131997221
 22
41.923431282527638
 32
0.0
 13
55.51331131997221
 23
41.923431282527638
 33
0.0
210
0.0
220
0.0
230
1.0
  0
SOLID
  5
5CD
  8
DRG
  6
CONTINUOUS
 62
     7
 10
152.7676036732239
 20
45.45462446566345
 30
0.0
 11
141.68103748780231
 21
44.96578368522475
 31
0.0
 12
153.4809683549079
 22
44.585756161105429
 32
0.0
 13
153.4809683549079
 23
44.585756161105429
 33
0.0
  0
SOLID
  5
5CE
  8
DRG
  6
CONTINUOUS
 62
     7
 10
7.0305774038875759
 20
46.17022669896302
 30
0.0
 11
6.7865631049779154
 21
38.202265524009427
 31
0.0
 12
17.256300807526252
 22
30.5191262631974
 32
0.0
 13
17.256300807526252
 23
30.5191262631974
 33
0.0
  0
SOLID
  5
5CF
  8
DRG
  6
CONTINUOUS
 62
     7
 10
17.256300807526252
 20
46.312783983787632
 30
0.0
 11
7.0305774038875759
 21
46.17022669896302
 31
0.0
 12
17.256300807526252
 22
30.5191262631974
 32
0.0
 13
17.256300807526252
 23
30.5191262631974
 33
0.0
210
0.0
220
0.0
230
1.0
  0
SOLID
  5
5D0
  8
DRG
  6
CONTINUOUS
 62
     7
 10
160.04745823702251
 20
46.421288526219293
 30
0.0
 11
160.04745823702251
 21
45.21828747592599
 31
0.0
 12
171.0912486890569
 22
45.21828747592599
 32
0.0
 13
171.0912486890569
 23
45.21828747592599
 33
0.0
210
0.0
220
0.0
230
1.0
  0
SOLID
  5
5D1
  8
DRG
  6
CONTINUOUS
 62
     7
 10
27.28389181832431
 20
46.502382395051256
 30
0.0
 11
27.387732575171409
 21
44.745475926535612
 31
0.0
 12
37.639779947293839
 22
13.760967175618781
 32
0.0
 13
37.639779947293839
 23
13.760967175618781
 33
0.0
210
0.0
220
0.0
230
1.0
  0
SOLID
  5
5D2
  8
DRG
  6
CONTINUOUS
 62
     7
 10
152.43266305936851
 20
46.527767552548831
 30
0.0
 11
141.68103748780231
 21
44.96578368522475
 31
0.0
 12
152.7676036732239
 22
45.45462446566345
 32
0.0
 13
152.7676036732239
 23
45.45462446566345
 33
0.0
210
0.0
220
0.0
230
1.0
  0
SOLID
  5
5D3
  8
DRG
  6
CONTINUOUS
 62
     7
 10
63.235709964757007
 20
46.690614073903127
 30
0.0
 11
63.235709964756971
 21
41.923431282527652
 31
0.0
 12
74.280536421539182
 22
45.06060729124669
 32
0.0
 13
74.280536421539182
 23
45.06060729124669
 33
0.0
210
0.0
220
0.0
230
1.0
  0
SOLID
  5
5D4
  8
DRG
  6
CONTINUOUS
 62
     7
 10
55.513311319972217
 20
46.690614073903141
 30
0.0
 11
44.468482394088362
 21
45.06060729124696
 31
0.0
 12
55.51331131997221
 22
41.923431282527638
 32
0.0
 13
55.51331131997221
 23
41.923431282527638
 33
0.0
210
0.0
220
0.0
230
1.0
  0
SOLID
  5
5D5
  8
DRG
  6
CONTINUOUS
 62
     7
 10
141.53564323306159
 20
46.917827705777547
 30
0.0
 11
141.68103748780231
 21
44.96578368522475
 31
0.0
 12
152.43266305936851
 22
46.527767552548831
 32
0.0
 13
152.43266305936851
 23
46.527767552548831
 33
0.0
  0
SOLID
  5
5D6
  8
DRG
  6
CONTINUOUS
 62
     7
 10
92.485087876393209
 20
47.313129977668268
 30
0.0
 11
81.470405744524527
 21
45.910674481046733
 31
0.0
 12
92.485087876393209
 22
45.910674481046733
 32
0.0
 13
92.485087876393209
 23
45.910674481046733
 33
0.0
210
0.0
220
0.0
230
1.0
  0
SOLID
  5
5D7
  8
DRG
  6
CONTINUOUS
 62
     7
 10
100.2074865211779
 20
47.313129977668268
 30
0.0
 11
100.207486521178
 21
42.948196427274922
 31
0.0
 12
111.2523129779601
 22
45.06060729124669
 32
0.0
 13
111.2523129779601
 23
45.06060729124669
 33
0.0
210
0.0
220
0.0
230
1.0
  0
SOLID
  5
5D8
  8
DRG
  6
CONTINUOUS
 62
     7
 10
111.0217363427989
 20
47.401691155440233
 30
0.0
 11
100.2074865211779
 21
47.313129977668268
 31
0.0
 12
111.2523129779601
 22
45.06060729124669
 32
0.0
 13
111.2523129779601
 23
45.06060729124669
 33
0.0
210
0.0
220
0.0
230
1.0
  0
SOLID
  5
5D9
  8
DRG
  6
CONTINUOUS
 62
     7
 10
74.04995978637794
 20
47.401691155440233
 30
0.0
 11
63.235709964757007
 21
46.690614073903127
 31
0.0
 12
74.280536421539182
 22
45.06060729124669
 32
0.0
 13
74.280536421539182
 23
45.06060729124669
 33
0.0
210
0.0
220
0.0
230
1.0
  0
SOLID
  5
5DA
  8
DRG
  6
CONTINUOUS
 62
     7
 10
44.699059029249632
 20
47.401691155440453
 30
0.0
 11
44.468482394088362
 21
45.06060729124696
 31
0.0
 12
55.513311319972217
 22
46.690614073903141
 32
0.0
 13
55.513311319972217
 23
46.690614073903141
 33
0.0
210
0.0
220
0.0
230
1.0
  0
SOLID
  5
5DB
  8
DRG
  6
CONTINUOUS
 62
     7
 10
170.83401328102289
 20
47.536856427359872
 30
0.0
 11
160.04745823702251
 21
46.421288526219293
 31
0.0
 12
171.0912486890569
 22
45.21828747592599
 32
0.0
 13
171.0912486890569
 23
45.21828747592599
 33
0.0
210
0.0
220
0.0
230
1.0
  0
SOLID
  5
5DC
  8
DRG
  6
CONTINUOUS
 62
     7
 10
159.85969387221371
 20
47.610715203087587
 30
0.0
 11
160.04745823702251
 21
46.421288526219293
 31
0.0
 12
170.83401328102289
 22
47.536856427359872
 32
0.0
 13
170.83401328102289
 23
47.536856427359872
 33
0.0
  0
SOLID
  5
5DD
  8
DRG
  6
CONTINUOUS
 62
     7
 10
152.52515784094209
 20
47.648154099737518
 30
0.0
 11
141.53564323306159
 21
46.917827705777547
 31
0.0
 12
152.43266305936851
 22
46.527767552548831
 32
0.0
 13
152.43266305936851
 23
46.527767552548831
 33
0.0
210
0.0
220
0.0
230
1.0
  0
SOLID
  5
5DE
  8
DRG
  6
CONTINUOUS
 62
     7
 10
63.046729418640332
 20
47.883790283191409
 30
0.0
 11
63.235709964757007
 21
46.690614073903127
 31
0.0
 12
74.04995978637794
 22
47.401691155440233
 32
0.0
 13
74.04995978637794
 23
47.401691155440233
 33
0.0
  0
SOLID
  5
5DF
  8
DRG
  6
CONTINUOUS
 62
     7
 10
55.702291866088892
 20
47.883790283191423
 30
0.0
 11
44.699059029249632
 21
47.401691155440453
 31
0.0
 12
55.513311319972217
 22
46.690614073903141
 32
0.0
 13
55.513311319972217
 23
46.690614073903141
 33
0.0
210
0.0
220
0.0
230
1.0
  0
SOLID
  5
5E0
  8
DRG
  6
CONTINUOUS
 62
     7
 10
17.581722267866329
 20
47.917869298681147
 30
0.0
 11
7.0305774038875759
 21
46.17022669896302
 31
0.0
 12
17.256300807526252
 22
46.312783983787632
 32
0.0
 13
17.256300807526252
 23
46.312783983787632
 33
0.0
210
0.0
220
0.0
230
1.0
  0
SOLID
  5
5E1
  8
DRG
  6
CONTINUOUS
 62
     7
 10
81.838613850140788
 20
48.126847817541709
 30
0.0
 11
81.470405744524527
 21
45.910674481046733
 31
0.0
 12
92.485087876393209
 22
47.313129977668268
 32
0.0
 13
92.485087876393209
 23
47.313129977668268
 33
0.0
  0
SOLID
  5
5E2
  8
DRG
  6
CONTINUOUS
 62
     7
 10
7.2724805460411552
 20
48.444821990224007
 30
0.0
 11
7.0305774038875759
 21
46.17022669896302
 31
0.0
 12
17.581722267866329
 22
47.917869298681147
 32
0.0
 13
17.581722267866329
 23
47.917869298681147
 33
0.0
  0
SOLID
  5
5E3
  8
DRG
  6
CONTINUOUS
 62
     7
 10
92.674068422509905
 20
48.50630618695655
 30
0.0
 11
81.838613850140788
 21
48.126847817541709
 31
0.0
 12
92.485087876393209
 22
47.313129977668268
 32
0.0
 13
92.485087876393209
 23
47.313129977668268
 33
0.0
  0
SOLID
  5
5E4
  8
DRG
  6
CONTINUOUS
 62
     7
 10
100.0185059750613
 20
48.50630618695655
 30
0.0
 11
100.2074865211779
 21
47.313129977668268
 31
0.0
 12
111.0217363427989
 22
47.401691155440233
 32
0.0
 13
111.0217363427989
 23
47.401691155440233
 33
0.0
210
0.0
220
0.0
230
1.0
  0
SOLID
  5
5E5
  8
DRG
  6
CONTINUOUS
 62
     7
 10
159.3146621798796
 20
48.684461788967788
 30
0.0
 11
159.85969387221371
 21
47.610715203087587
 31
0.0
 12
170.83401328102289
 22
47.536856427359872
 32
0.0
 13
170.83401328102289
 23
47.536856427359872
 33
0.0
210
0.0
220
0.0
230
1.0
  0
SOLID
  5
5E6
  8
DRG
  6
CONTINUOUS
 62
     7
 10
153.08112265405759
 20
48.716280685360893
 30
0.0
 11
141.53564323306159
 21
46.917827705777547
 31
0.0
 12
152.52515784094209
 22
47.648154099737518
 32
0.0
 13
152.52515784094209
 23
47.648154099737518
 33
0.0
210
0.0
220
0.0
230
1.0
  0
SOLID
  5
5E7
  8
DRG
  6
CONTINUOUS
 62
     7
 10
141.8917942032017
 20
48.84260609145101
 30
0.0
 11
141.53564323306159
 21
46.917827705777547
 31
0.0
 12
153.08112265405759
 22
48.716280685360893
 32
0.0
 13
153.08112265405759
 23
48.716280685360893
 33
0.0
210
0.0
220
0.0
230
1.0
  0
SOLID
  5
5E8
  8
DRG
  6
CONTINUOUS
 62
     7
 10
56.250734771880133
 20
48.960170091767068
 30
0.0
 11
44.699059029249632
 21
47.401691155440453
 31
0.0
 12
55.702291866088892
 22
47.883790283191423
 32
0.0
 13
55.702291866088892
 23
47.883790283191423
 33
0.0
210
0.0
220
0.0
230
1.0
  0
SOLID
  5
5E9
  8
DRG
  6
CONTINUOUS
 62
     7
 10
62.498286512849091
 20
48.960170091767068
 30
0.0
 11
63.046729418640332
 21
47.883790283191409
 31
0.0
 12
74.04995978637794
 22
47.401691155440233
 32
0.0
 13
74.04995978637794
 23
47.401691155440233
 33
0.0
210
0.0
220
0.0
230
1.0
  0
SOLID
  5
5EA
  8
DRG
  6
CONTINUOUS
 62
     7
 10
18.38130680768635
 20
49.347156729052493
 30
0.0
 11
7.2724805460411552
 21
48.444821990224007
 31
0.0
 12
17.581722267866329
 22
47.917869298681147
 32
0.0
 13
17.581722267866329
 23
47.917869298681147
 33
0.0
210
0.0
220
0.0
230
1.0
  0
SOLID
  5
5EB
  8
DRG
  6
CONTINUOUS
 62
     7
 10
158.46537131679571
 20
49.538098893491913
 30
0.0
 11
159.3146621798796
 21
48.684461788967788
 31
0.0
 12
170.83401328102289
 22
47.536856427359872
 32
0.0
 13
170.83401328102289
 23
47.536856427359872
 33
0.0
210
0.0
220
0.0
230
1.0
  0
SOLID
  5
5EC
  8
DRG
  6
CONTINUOUS
 62
     7
 10
153.9390837584445
 20
49.561203178668571
 30
0.0
 11
141.8917942032017
 21
48.84260609145101
 31
0.0
 12
153.08112265405759
 22
48.716280685360893
 32
0.0
 13
153.08112265405759
 23
48.716280685360893
 33
0.0
210
0.0
220
0.0
230
1.0
  0
SOLID
  5
5ED
  8
DRG
  6
CONTINUOUS
 62
     7
 10
93.222511328301124
 20
49.582685995532209
 30
0.0
 11
81.838613850140788
 21
48.126847817541709
 31
0.0
 12
92.674068422509905
 22
48.50630618695655
 32
0.0
 13
92.674068422509905
 23
48.50630618695655
 33
0.0
210
0.0
220
0.0
230
1.0
  0
SOLID
  5
5EE
  8
DRG
  6
CONTINUOUS
 62
     7
 10
99.470063069270083
 20
49.582685995532209
 30
0.0
 11
100.0185059750613
 21
48.50630618695655
 31
0.0
 12
111.0217363427989
 22
47.401691155440233
 32
0.0
 13
111.0217363427989
 23
47.401691155440233
 33
0.0
210
0.0
220
0.0
230
1.0
  0
SOLID
  5
5EF
  8
DRG
  6
CONTINUOUS
 62
     7
 10
73.367090811674615
 20
49.652808479627772
 30
0.0
 11
62.498286512849091
 21
48.960170091767068
 31
0.0
 12
74.04995978637794
 22
47.401691155440233
 32
0.0
 13
74.04995978637794
 23
47.401691155440233
 33
0.0
210
0.0
220
0.0
230
1.0
  0
SOLID
  5
5F0
  8
DRG
  6
CONTINUOUS
 62
     7
 10
110.33886736809561
 20
49.652808479627772
 30
0.0
 11
99.470063069270083
 21
49.582685995532209
 31
0.0
 12
111.0217363427989
 22
47.401691155440233
 32
0.0
 13
111.0217363427989
 23
47.401691155440233
 33
0.0
210
0.0
220
0.0
230
1.0
  0
SOLID
  5
5F1
  8
DRG
  6
CONTINUOUS
 62
     7
 10
45.381928003952993
 20
49.65280847962795
 30
0.0
 11
44.699059029249632
 21
47.401691155440453
 31
0.0
 12
56.250734771880133
 22
48.960170091767068
 32
0.0
 13
56.250734771880133
 23
48.960170091767068
 33
0.0
210
0.0
220
0.0
230
1.0
  0
SOLID
  5
5F2
  8
DRG
  6
CONTINUOUS
 62
     7
 10
170.1330439217615
 20
49.761844965549727
 30
0.0
 11
158.46537131679571
 21
49.538098893491913
 31
0.0
 12
170.83401328102289
 22
47.536856427359872
 32
0.0
 13
170.83401328102289
 23
47.536856427359872
 33
0.0
210
0.0
220
0.0
230
1.0
  0
SOLID
  5
5F3
  8
DRG
  6
CONTINUOUS
 62
     7
 10
57.104954624500678
 20
49.814389944387607
 30
0.0
 11
45.381928003952993
 21
49.65280847962795
 31
0.0
 12
56.250734771880133
 22
48.960170091767068
 32
0.0
 13
56.250734771880133
 23
48.960170091767068
 33
0.0
210
0.0
220
0.0
230
1.0
  0
SOLID
  5
5F4
  8
DRG
  6
CONTINUOUS
 62
     7
 10
61.64406666022856
 20
49.814389944387607
 30
0.0
 11
62.498286512849091
 21
48.960170091767068
 31
0.0
 12
73.367090811674615
 22
49.652808479627772
 32
0.0
 13
73.367090811674615
 23
49.652808479627772
 33
0.0
210
0.0
220
0.0
230
1.0
  0
SOLID
  5
5F5
  8
DRG
  6
CONTINUOUS
 62
     7
 10
157.39442077919639
 20
50.088604317946377
 30
0.0
 11
158.46537131679571
 21
49.538098893491913
 31
0.0
 12
170.1330439217615
 22
49.761844965549727
 32
0.0
 13
170.1330439217615
 23
49.761844965549727
 33
0.0
210
0.0
220
0.0
230
1.0
  0
SOLID
  5
5F6
  8
DRG
  6
CONTINUOUS
 62
     7
 10
155.01559841605931
 20
50.100746938041553
 30
0.0
 11
141.8917942032017
 21
48.84260609145101
 31
0.0
 12
153.9390837584445
 22
49.561203178668571
 32
0.0
 13
153.9390837584445
 23
49.561203178668571
 33
0.0
210
0.0
220
0.0
230
1.0
  0
SOLID
  5
5F7
  8
DRG
  6
CONTINUOUS
 62
     7
 10
82.613443621275053
 20
50.235553651032191
 30
0.0
 11
81.838613850140788
 21
48.126847817541709
 31
0.0
 12
93.222511328301124
 22
49.582685995532209
 32
0.0
 13
93.222511328301124
 23
49.582685995532209
 33
0.0
210
0.0
220
0.0
230
1.0
  0
SOLID
  5
5F8
  8
DRG
  6
CONTINUOUS
 62
     7
 10
156.20596802213339
 20
50.282437546695562
 30
0.0
 11
141.8917942032017
 21
48.84260609145101
 31
0.0
 12
155.01559841605931
 22
50.100746938041553
 32
0.0
 13
155.01559841605931
 23
50.100746938041553
 33
0.0
210
0.0
220
0.0
230
1.0
  0
SOLID
  5
5F9
  8
DRG
  6
CONTINUOUS
 62
     7
 10
156.20596802213339
 20
50.282437546695562
 30
0.0
 11
157.39442077919639
 21
50.088604317946377
 31
0.0
 12
170.1330439217615
 22
49.761844965549727
 32
0.0
 13
170.1330439217615
 23
49.761844965549727
 33
0.0
210
0.0
220
0.0
230
1.0
  0
SOLID
  5
5FA
  8
DRG
  6
CONTINUOUS
 62
     7
 10
58.18133443307633
 20
50.362832850178847
 30
0.0
 11
45.381928003952993
 21
49.65280847962795
 31
0.0
 12
57.104954624500678
 22
49.814389944387607
 32
0.0
 13
57.104954624500678
 23
49.814389944387607
 33
0.0
210
0.0
220
0.0
230
1.0
  0
SOLID
  5
5FB
  8
DRG
  6
CONTINUOUS
 62
     7
 10
60.567686851652887
 20
50.362832850178847
 30
0.0
 11
61.64406666022856
 21
49.814389944387607
 31
0.0
 12
73.367090811674615
 22
49.652808479627772
 32
0.0
 13
73.367090811674615
 23
49.652808479627772
 33
0.0
210
0.0
220
0.0
230
1.0
  0
SOLID
  5
5FC
  8
DRG
  6
CONTINUOUS
 62
     7
 10
94.076731180921669
 20
50.436905848152747
 30
0.0
 11
82.613443621275053
 21
50.235553651032191
 31
0.0
 12
93.222511328301124
 22
49.582685995532209
 32
0.0
 13
93.222511328301124
 23
49.582685995532209
 33
0.0
  0
SOLID
  5
5FD
  8
DRG
  6
CONTINUOUS
 62
     7
 10
98.615843216649537
 20
50.436905848152747
 30
0.0
 11
99.470063069270083
 21
49.582685995532209
 31
0.0
 12
110.33886736809561
 22
49.652808479627772
 32
0.0
 13
110.33886736809561
 23
49.652808479627772
 33
0.0
  0
SOLID
  5
5FE
  8
DRG
  6
CONTINUOUS
 62
     7
 10
19.57881763530445
 20
50.464370143165517
 30
0.0
 11
7.2724805460411552
 21
48.444821990224007
 31
0.0
 12
18.38130680768635
 22
49.347156729052493
 32
0.0
 13
18.38130680768635
 23
49.347156729052493
 33
0.0
210
0.0
220
0.0
230
1.0
  0
SOLID
  5
5FF
  8
DRG
  6
CONTINUOUS
 62
     7
 10
59.374510642364612
 20
50.551813396295529
 30
0.0
 11
45.381928003952993
 21
49.65280847962795
 31
0.0
 12
58.18133443307633
 22
50.362832850178847
 32
0.0
 13
58.18133443307633
 23
50.362832850178847
 33
0.0
210
0.0
220
0.0
230
1.0
  0
SOLID
  5
600
  8
DRG
  6
CONTINUOUS
 62
     7
 10
59.374510642364612
 20
50.551813396295529
 30
0.0
 11
60.567686851652887
 21
50.362832850178847
 31
0.0
 12
73.367090811674615
 22
49.652808479627772
 32
0.0
 13
73.367090811674615
 23
49.652808479627772
 33
0.0
210
0.0
220
0.0
230
1.0
  0
SOLID
  5
601
  8
DRG
  6
CONTINUOUS
 62
     7
 10
7.9378654549163707
 20
50.633329196575339
 30
0.0
 11
7.2724805460411552
 21
48.444821990224007
 31
0.0
 12
19.57881763530445
 22
50.464370143165517
 32
0.0
 13
19.57881763530445
 23
50.464370143165517
 33
0.0
210
0.0
220
0.0
230
1.0
  0
SOLID
  5
602
  8
DRG
  6
CONTINUOUS
 62
     7
 10
95.153110989497321
 20
50.985348753943988
 30
0.0
 11
82.613443621275053
 21
50.235553651032191
 31
0.0
 12
94.076731180921669
 22
50.436905848152747
 32
0.0
 13
94.076731180921669
 23
50.436905848152747
 33
0.0
  0
SOLID
  5
603
  8
DRG
  6
CONTINUOUS
 62
     7
 10
97.539463408073885
 20
50.985348753943988
 30
0.0
 11
98.615843216649537
 21
50.436905848152747
 31
0.0
 12
110.33886736809561
 22
49.652808479627772
 32
0.0
 13
110.33886736809561
 23
49.652808479627772
 33
0.0
210
0.0
220
0.0
230
1.0
  0
SOLID
  5
604
  8
DRG
  6
CONTINUOUS
 62
     7
 10
142.920441326131
 20
51.116576646040869
 30
0.0
 11
141.8917942032017
 21
48.84260609145101
 31
0.0
 12
156.20596802213339
 22
50.282437546695562
 32
0.0
 13
156.20596802213339
 23
50.282437546695562
 33
0.0
210
0.0
220
0.0
230
1.0
  0
SOLID
  5
605
  8
DRG
  6
CONTINUOUS
 62
     7
 10
21.06007747620454
 20
51.162988263939191
 30
0.0
 11
7.9378654549163707
 21
50.633329196575339
 31
0.0
 12
19.57881763530445
 22
50.464370143165517
 32
0.0
 13
19.57881763530445
 23
50.464370143165517
 33
0.0
210
0.0
220
0.0
230
1.0
  0
SOLID
  5
606
  8
DRG
  6
CONTINUOUS
 62
     7
 10
96.346287198785603
 20
51.174329300060663
 30
0.0
 11
82.613443621275053
 21
50.235553651032191
 31
0.0
 12
95.153110989497321
 22
50.985348753943988
 32
0.0
 13
95.153110989497321
 23
50.985348753943988
 33
0.0
210
0.0
220
0.0
230
1.0
  0
SOLID
  5
607
  8
DRG
  6
CONTINUOUS
 62
     7
 10
96.346287198785603
 20
51.174329300060663
 30
0.0
 11
97.539463408073885
 21
50.985348753943988
 31
0.0
 12
110.33886736809561
 22
49.652808479627772
 32
0.0
 13
110.33886736809561
 23
49.652808479627772
 33
0.0
  0
SOLID
  5
608
  8
DRG
  6
CONTINUOUS
 62
     7
 10
27.267121908897021
 20
51.255838552818979
 30
0.0
 11
24.30773506784762
 21
50.697787464736152
 31
0.0
 12
25.68195691611341
 22
49.598234121944778
 32
0.0
 13
25.68195691611341
 23
49.598234121944778
 33
0.0
  0
SOLID
  5
609
  8
DRG
  6
CONTINUOUS
 62
     7
 10
27.267121908897021
 20
51.255838552818979
 30
0.0
 11
25.68195691611341
 21
49.598234121944778
 31
0.0
 12
26.700256403592132
 22
48.162765767819458
 32
0.0
 13
26.700256403592132
 23
48.162765767819458
 33
0.0
  0
SOLID
  5
60A
  8
DRG
  6
CONTINUOUS
 62
     7
 10
27.267121908897021
 20
51.255838552818979
 30
0.0
 11
26.700256403592132
 21
48.162765767819458
 31
0.0
 12
27.28389181832431
 22
46.502382395051256
 32
0.0
 13
27.28389181832431
 23
46.502382395051256
 33
0.0
  0
SOLID
  5
60B
  8
DRG
  6
CONTINUOUS
 62
     7
 10
27.267121908897021
 20
51.255838552818979
 30
0.0
 11
27.28389181832431
 21
46.502382395051256
 31
0.0
 12
37.639779947293839
 22
13.760967175618781
 32
0.0
 13
37.639779947293839
 23
13.760967175618781
 33
0.0
210
0.0
220
0.0
230
1.0
  0
SOLID
  5
60C
  8
DRG
  6
CONTINUOUS
 62
     7
 10
22.683854862926282
 20
51.376400993896397
 30
0.0
 11
7.9378654549163707
 21
50.633329196575339
 31
0.0
 12
21.06007747620454
 22
51.162988263939191
 32
0.0
 13
21.06007747620454
 23
51.162988263939191
 33
0.0
210
0.0
220
0.0
230
1.0
  0
SOLID
  5
60D
  8
DRG
  6
CONTINUOUS
 62
     7
 10
22.683854862926282
 20
51.376400993896397
 30
0.0
 11
24.30773506784762
 21
50.697787464736152
 31
0.0
 12
27.267121908897021
 22
51.255838552818979
 32
0.0
 13
27.267121908897021
 23
51.255838552818979
 33
0.0
210
0.0
220
0.0
230
1.0
  0
SOLID
  5
60E
  8
DRG
  6
CONTINUOUS
 62
     7
 10
72.258171769169721
 20
51.727450087481927
 30
0.0
 11
59.374510642364612
 21
50.551813396295529
 31
0.0
 12
73.367090811674615
 22
49.652808479627772
 32
0.0
 13
73.367090811674615
 23
49.652808479627772
 33
0.0
210
0.0
220
0.0
230
1.0
  0
SOLID
  5
60F
  8
DRG
  6
CONTINUOUS
 62
     7
 10
109.2299483255907
 20
51.727450087481927
 30
0.0
 11
96.346287198785603
 21
51.174329300060663
 31
0.0
 12
110.33886736809561
 22
49.652808479627772
 32
0.0
 13
110.33886736809561
 23
49.652808479627772
 33
0.0
210
0.0
220
0.0
230
1.0
  0
SOLID
  5
610
  8
DRG
  6
CONTINUOUS
 62
     7
 10
46.490847046457908
 20
51.727450087482048
 30
0.0
 11
59.374510642364612
 21
50.551813396295529
 31
0.0
 12
72.258171769169721
 22
51.727450087481927
 32
0.0
 13
72.258171769169721
 23
51.727450087481927
 33
0.0
210
0.0
220
0.0
230
1.0
  0
SOLID
  5
611
  8
DRG
  6
CONTINUOUS
 62
     7
 10
46.490847046457908
 20
51.727450087482048
 30
0.0
 11
45.381928003952993
 21
49.65280847962795
 31
0.0
 12
59.374510642364612
 22
50.551813396295529
 32
0.0
 13
59.374510642364612
 23
50.551813396295529
 33
0.0
210
0.0
220
0.0
230
1.0
  0
SOLID
  5
612
  8
DRG
  6
CONTINUOUS
 62
     7
 10
169.01483108081149
 20
51.80916811542965
 30
0.0
 11
142.920441326131
 21
51.116576646040869
 31
0.0
 12
156.20596802213339
 22
50.282437546695562
 32
0.0
 13
156.20596802213339
 23
50.282437546695562
 33
0.0
210
0.0
220
0.0
230
1.0
  0
SOLID
  5
613
  8
DRG
  6
CONTINUOUS
 62
     7
 10
169.01483108081149
 20
51.80916811542965
 30
0.0
 11
156.20596802213339
 21
50.282437546695562
 31
0.0
 12
170.1330439217615
 22
49.761844965549727
 32
0.0
 13
170.1330439217615
 23
49.761844965549727
 33
0.0
210
0.0
220
0.0
230
1.0
  0
SOLID
  5
614
  8
DRG
  6
CONTINUOUS
 62
     7
 10
83.767738342711013
 20
52.162884749338318
 30
0.0
 11
96.346287198785603
 21
51.174329300060663
 31
0.0
 12
109.2299483255907
 22
51.727450087481927
 32
0.0
 13
109.2299483255907
 23
51.727450087481927
 33
0.0
210
0.0
220
0.0
230
1.0
  0
SOLID
  5
615
  8
DRG
  6
CONTINUOUS
 62
     7
 10
83.767738342711013
 20
52.162884749338318
 30
0.0
 11
82.613443621275053
 21
50.235553651032191
 31
0.0
 12
96.346287198785603
 22
51.174329300060663
 32
0.0
 13
96.346287198785603
 23
51.174329300060663
 33
0.0
210
0.0
220
0.0
230
1.0
  0
SOLID
  5
616
  8
DRG
  6
CONTINUOUS
 62
     7
 10
9.0029836342297038
 20
52.657637506420173
 30
0.0
 11
7.9378654549163707
 21
50.633329196575339
 31
0.0
 12
22.683854862926282
 22
51.376400993896397
 32
0.0
 13
22.683854862926282
 23
51.376400993896397
 33
0.0
210
0.0
220
0.0
230
1.0
  0
SOLID
  5
617
  8
DRG
  6
CONTINUOUS
 62
     7
 10
127.2345352189994
 20
53.086533694841222
 30
0.0
 11
135.23453521899941
 21
48.740104065808111
 31
0.0
 12
136.6041529029215
 22
48.740104065808111
 32
0.0
 13
136.6041529029215
 23
48.740104065808111
 33
0.0
210
0.0
220
0.0
230
1.0
  0
SOLID
  5
618
  8
DRG
  6
CONTINUOUS
 62
     7
 10
127.2345352189994
 20
53.086533694841222
 30
0.0
 11
133.4543677473489
 21
48.5395273632627
 31
0.0
 12
135.23453521899941
 22
48.740104065808111
 32
0.0
 13
135.23453521899941
 23
48.740104065808111
 33
0.0
210
0.0
220
0.0
230
1.0
  0
SOLID
  5
619
  8
DRG
  6
CONTINUOUS
 62
     7
 10
127.2345352189994
 20
53.086533694841222
 30
0.0
 11
131.76346530605889
 21
47.947855009027457
 31
0.0
 12
133.4543677473489
 22
48.5395273632627
 32
0.0
 13
133.4543677473489
 23
48.5395273632627
 33
0.0
210
0.0
220
0.0
230
1.0
  0
SOLID
  5
61A
  8
DRG
  6
CONTINUOUS
 62
     7
 10
127.2345352189994
 20
53.086533694841222
 30
0.0
 11
130.2466168041295
 21
46.99475592555234
 31
0.0
 12
131.76346530605889
 22
47.947855009027457
 32
0.0
 13
131.76346530605889
 23
47.947855009027457
 33
0.0
210
0.0
220
0.0
230
1.0
  0
SOLID
  5
61B
  8
DRG
  6
CONTINUOUS
 62
     7
 10
127.2345352189994
 20
53.086533694841222
 30
0.0
 11
128.97988335925521
 21
45.728022480677971
 31
0.0
 12
130.2466168041295
 22
46.99475592555234
 32
0.0
 13
130.2466168041295
 23
46.99475592555234
 33
0.0
210
0.0
220
0.0
230
1.0
  0
SOLID
  5
61C
  8
DRG
  6
CONTINUOUS
 62
     7
 10
127.2345352189994
 20
53.086533694841222
 30
0.0
 11
128.02678427577999
 21
44.211173978748569
 31
0.0
 12
128.97988335925521
 22
45.728022480677971
 32
0.0
 13
128.97988335925521
 23
45.728022480677971
 33
0.0
210
0.0
220
0.0
230
1.0
  0
SOLID
  5
61D
  8
DRG
  6
CONTINUOUS
 62
     7
 10
127.2345352189994
 20
53.086533694841222
 30
0.0
 11
116.19314081319391
 21
17.28637227261407
 31
0.0
 12
128.02678427577999
 22
44.211173978748569
 32
0.0
 13
128.02678427577999
 23
44.211173978748569
 33
0.0
  0
SOLID
  5
61E
  8
DRG
  6
CONTINUOUS
 62
     7
 10
26.5765362782073
 20
53.111824663876313
 30
0.0
 11
9.0029836342297038
 21
52.657637506420173
 31
0.0
 12
22.683854862926282
 22
51.376400993896397
 32
0.0
 13
22.683854862926282
 23
51.376400993896397
 33
0.0
210
0.0
220
0.0
230
1.0
  0
SOLID
  5
61F
  8
DRG
  6
CONTINUOUS
 62
     7
 10
26.5765362782073
 20
53.111824663876313
 30
0.0
 11
22.683854862926282
 21
51.376400993896397
 31
0.0
 12
27.267121908897021
 22
51.255838552818979
 32
0.0
 13
27.267121908897021
 23
51.255838552818979
 33
0.0
210
0.0
220
0.0
230
1.0
  0
SOLID
  5
620
  8
DRG
  6
CONTINUOUS
 62
     7
 10
144.39722538079619
 20
53.12858207409991
 30
0.0
 11
142.920441326131
 21
51.116576646040869
 31
0.0
 12
169.01483108081149
 22
51.80916811542965
 32
0.0
 13
169.01483108081149
 23
51.80916811542965
 33
0.0
210
0.0
220
0.0
230
1.0
  0
SOLID
  5
621
  8
DRG
  6
CONTINUOUS
 62
     7
 10
70.76581779577775
 20
53.545888665485258
 30
0.0
 11
46.490847046457908
 21
51.727450087482048
 31
0.0
 12
72.258171769169721
 22
51.727450087481927
 32
0.0
 13
72.258171769169721
 23
51.727450087481927
 33
0.0
  0
SOLID
  5
622
  8
DRG
  6
CONTINUOUS
 62
     7
 10
107.7375943521987
 20
53.545888665485258
 30
0.0
 11
83.767738342711013
 21
52.162884749338318
 31
0.0
 12
109.2299483255907
 22
51.727450087481927
 32
0.0
 13
109.2299483255907
 23
51.727450087481927
 33
0.0
210
0.0
220
0.0
230
1.0
  0
SOLID
  5
623
  8
DRG
  6
CONTINUOUS
 62
     7
 10
47.983201019849879
 20
53.54588866548535
 30
0.0
 11
46.490847046457908
 21
51.727450087482048
 31
0.0
 12
70.76581779577775
 22
53.545888665485258
 32
0.0
 13
70.76581779577775
 23
53.545888665485258
 33
0.0
210
0.0
220
0.0
230
1.0
  0
SOLID
  5
624
  8
DRG
  6
CONTINUOUS
 62
     7
 10
167.52163335736839
 20
53.601455089215918
 30
0.0
 11
144.39722538079619
 21
53.12858207409991
 31
0.0
 12
169.01483108081149
 22
51.80916811542965
 32
0.0
 13
169.01483108081149
 23
51.80916811542965
 33
0.0
210
0.0
220
0.0
230
1.0
  0
SOLID
  5
625
  8
DRG
  6
CONTINUOUS
 62
     7
 10
85.261041575894609
 20
53.841290814686097
 30
0.0
 11
83.767738342711013
 21
52.162884749338318
 31
0.0
 12
107.7375943521987
 22
53.545888665485258
 32
0.0
 13
107.7375943521987
 23
53.545888665485258
 33
0.0
  0
SOLID
  5
626
  8
DRG
  6
CONTINUOUS
 62
     7
 10
10.429819561258061
 20
54.445496591066302
 30
0.0
 11
9.0029836342297038
 21
52.657637506420173
 31
0.0
 12
26.5765362782073
 22
53.111824663876313
 32
0.0
 13
26.5765362782073
 23
53.111824663876313
 33
0.0
210
0.0
220
0.0
230
1.0
  0
SOLID
  5
627
  8
DRG
  6
CONTINUOUS
 62
     7
 10
128.67452611822259
 20
54.668946024108031
 30
0.0
 11
127.2345352189994
 21
53.086533694841222
 31
0.0
 12
136.6041529029215
 22
48.740104065808111
 32
0.0
 13
136.6041529029215
 23
48.740104065808111
 33
0.0
210
0.0
220
0.0
230
1.0
  0
SOLID
  5
628
  8
DRG
  6
CONTINUOUS
 62
     7
 10
25.500790394036571
 20
54.774462252300957
 30
0.0
 11
10.429819561258061
 21
54.445496591066302
 31
0.0
 12
26.5765362782073
 22
53.111824663876313
 32
0.0
 13
26.5765362782073
 23
53.111824663876313
 33
0.0
  0
SOLID
  5
629
  8
DRG
  6
CONTINUOUS
 62
     7
 10
146.2582646169646
 20
54.791588372372388
 30
0.0
 11
144.39722538079619
 21
53.12858207409991
 31
0.0
 12
167.52163335736839
 22
53.601455089215918
 32
0.0
 13
167.52163335736839
 23
53.601455089215918
 33
0.0
210
0.0
220
0.0
230
1.0
  0
SOLID
  5
62A
  8
DRG
  6
CONTINUOUS
 62
     7
 10
105.9191557741953
 20
55.038242638877229
 30
0.0
 11
85.261041575894609
 21
53.841290814686097
 31
0.0
 12
107.7375943521987
 22
53.545888665485258
 32
0.0
 13
107.7375943521987
 23
53.545888665485258
 33
0.0
210
0.0
220
0.0
230
1.0
  0
SOLID
  5
62B
  8
DRG
  6
CONTINUOUS
 62
     7
 10
68.947379217774412
 20
55.038242638877229
 30
0.0
 11
47.983201019849879
 21
53.54588866548535
 31
0.0
 12
70.76581779577775
 22
53.545888665485258
 32
0.0
 13
70.76581779577775
 23
53.545888665485258
 33
0.0
210
0.0
220
0.0
230
1.0
  0
SOLID
  5
62C
  8
DRG
  6
CONTINUOUS
 62
     7
 10
49.801639597853217
 20
55.038242638877293
 30
0.0
 11
47.983201019849879
 21
53.54588866548535
 31
0.0
 12
68.947379217774412
 22
55.038242638877229
 32
0.0
 13
68.947379217774412
 23
55.038242638877229
 33
0.0
210
0.0
220
0.0
230
1.0
  0
SOLID
  5
62D
  8
DRG
  6
CONTINUOUS
 62
     7
 10
165.70988047733371
 20
55.070973220912713
 30
0.0
 11
146.2582646169646
 21
54.791588372372388
 31
0.0
 12
167.52163335736839
 22
53.601455089215918
 32
0.0
 13
167.52163335736839
 23
53.601455089215918
 33
0.0
210
0.0
220
0.0
230
1.0
  0
SOLID
  5
62E
  8
DRG
  6
CONTINUOUS
 62
     7
 10
87.041015101327872
 20
55.211946028512493
 30
0.0
 11
85.261041575894609
 21
53.841290814686097
 31
0.0
 12
105.9191557741953
 22
55.038242638877229
 32
0.0
 13
105.9191557741953
 23
55.038242638877229
 33
0.0
210
0.0
220
0.0
230
1.0
  0
SOLID
  5
62F
  8
DRG
  6
CONTINUOUS
 62
     7
 10
130.41157415689369
 20
55.918052377070133
 30
0.0
 11
128.67452611822259
 21
54.668946024108031
 31
0.0
 12
136.6041529029215
 22
48.740104065808111
 32
0.0
 13
136.6041529029215
 23
48.740104065808111
 33
0.0
210
0.0
220
0.0
230
1.0
  0
SOLID
  5
630
  8
DRG
  6
CONTINUOUS
 62
     7
 10
12.1674475127723
 20
55.93309531764784
 30
0.0
 11
10.429819561258061
 21
54.445496591066302
 31
0.0
 12
25.500790394036571
 22
54.774462252300957
 32
0.0
 13
25.500790394036571
 23
54.774462252300957
 33
0.0
210
0.0
220
0.0
230
1.0
  0
SOLID
  5
631
  8
DRG
  6
CONTINUOUS
 62
     7
 10
148.42305542729969
 20
56.033658311683958
 30
0.0
 11
146.2582646169646
 21
54.791588372372388
 31
0.0
 12
165.70988047733371
 22
55.070973220912713
 32
0.0
 13
165.70988047733371
 23
55.070973220912713
 33
0.0
  0
SOLID
  5
632
  8
DRG
  6
CONTINUOUS
 62
     7
 10
103.8445141663412
 20
56.147161681382137
 30
0.0
 11
87.041015101327872
 21
55.211946028512493
 31
0.0
 12
105.9191557741953
 22
55.038242638877229
 32
0.0
 13
105.9191557741953
 23
55.038242638877229
 33
0.0
210
0.0
220
0.0
230
1.0
  0
SOLID
  5
633
  8
DRG
  6
CONTINUOUS
 62
     7
 10
66.87273760992025
 20
56.147161681382137
 30
0.0
 11
49.801639597853217
 21
55.038242638877293
 31
0.0
 12
68.947379217774412
 22
55.038242638877229
 32
0.0
 13
68.947379217774412
 23
55.038242638877229
 33
0.0
210
0.0
220
0.0
230
1.0
  0
SOLID
  5
634
  8
DRG
  6
CONTINUOUS
 62
     7
 10
51.87628120570735
 20
56.147161681382158
 30
0.0
 11
49.801639597853217
 21
55.038242638877293
 31
0.0
 12
66.87273760992025
 22
56.147161681382137
 32
0.0
 13
66.87273760992025
 23
56.147161681382137
 33
0.0
210
0.0
220
0.0
230
1.0
  0
SOLID
  5
635
  8
DRG
  6
CONTINUOUS
 62
     7
 10
163.64804074655649
 20
56.162187664680708
 30
0.0
 11
148.42305542729969
 21
56.033658311683958
 31
0.0
 12
165.70988047733371
 22
55.070973220912713
 32
0.0
 13
165.70988047733371
 23
55.070973220912713
 33
0.0
210
0.0
220
0.0
230
1.0
  0
SOLID
  5
636
  8
DRG
  6
CONTINUOUS
 62
     7
 10
24.090833070868062
 20
56.165006499923557
 30
0.0
 11
12.1674475127723
 21
55.93309531764784
 31
0.0
 12
25.500790394036571
 22
54.774462252300957
 32
0.0
 13
25.500790394036571
 23
54.774462252300957
 33
0.0
210
0.0
220
0.0
230
1.0
  0
SOLID
  5
637
  8
DRG
  6
CONTINUOUS
 62
     7
 10
89.045273301003363
 20
56.226810815302507
 30
0.0
 11
87.041015101327872
 21
55.211946028512493
 31
0.0
 12
103.8445141663412
 22
56.147161681382137
 32
0.0
 13
103.8445141663412
 23
56.147161681382137
 33
0.0
  0
SOLID
  5
638
  8
DRG
  6
CONTINUOUS
 62
     7
 10
132.37003801702659
 20
56.779459294975013
 30
0.0
 11
130.41157415689369
 21
55.918052377070133
 31
0.0
 12
136.6041529029215
 22
48.740104065808111
 32
0.0
 13
136.6041529029215
 23
48.740104065808111
 33
0.0
210
0.0
220
0.0
230
1.0
  0
SOLID
  5
639
  8
DRG
  6
CONTINUOUS
 62
     7
 10
150.79795471928901
 20
56.801063250136181
 30
0.0
 11
148.42305542729969
 21
56.033658311683958
 31
0.0
 12
163.64804074655649
 22
56.162187664680708
 32
0.0
 13
163.64804074655649
 23
56.162187664680708
 33
0.0
210
0.0
220
0.0
230
1.0
  0
SOLID
  5
63A
  8
DRG
  6
CONTINUOUS
 62
     7
 10
64.621620285732703
 20
56.830030656085462
 30
0.0
 11
51.87628120570735
 21
56.147161681382158
 31
0.0
 12
66.87273760992025
 22
56.147161681382137
 32
0.0
 13
66.87273760992025
 23
56.147161681382137
 33
0.0
210
0.0
220
0.0
230
1.0
  0
SOLID
  5
63B
  8
DRG
  6
CONTINUOUS
 62
     7
 10
101.59339684215369
 20
56.830030656085462
 30
0.0
 11
89.045273301003363
 21
56.226810815302507
 31
0.0
 12
103.8445141663412
 22
56.147161681382137
 32
0.0
 13
103.8445141663412
 23
56.147161681382137
 33
0.0
  0
SOLID
  5
63C
  8
DRG
  6
CONTINUOUS
 62
     7
 10
54.127398529894862
 20
56.830030656085469
 30
0.0
 11
51.87628120570735
 21
56.147161681382158
 31
0.0
 12
64.621620285732703
 22
56.830030656085462
 32
0.0
 13
64.621620285732703
 23
56.830030656085462
 33
0.0
210
0.0
220
0.0
230
1.0
  0
SOLID
  5
63D
  8
DRG
  6
CONTINUOUS
 62
     7
 10
161.41403355175541
 20
56.83386012300921
 30
0.0
 11
150.79795471928901
 21
56.801063250136181
 31
0.0
 12
163.64804074655649
 22
56.162187664680708
 32
0.0
 13
163.64804074655649
 23
56.162187664680708
 33
0.0
210
0.0
220
0.0
230
1.0
  0
SOLID
  5
63E
  8
DRG
  6
CONTINUOUS
 62
     7
 10
91.203569688303915
 20
56.850315563478652
 30
0.0
 11
89.045273301003363
 21
56.226810815302507
 31
0.0
 12
101.59339684215369
 22
56.830030656085462
 32
0.0
 13
101.59339684215369
 23
56.830030656085462
 33
0.0
210
0.0
220
0.0
230
1.0
  0
SOLID
  5
63F
  8
DRG
  6
CONTINUOUS
 62
     7
 10
54.127398529894862
 20
56.830030656085469
 30
0.0
 11
62.280536421539182
 21
57.06060729124669
 31
0.0
 12
56.468482394088369
 22
57.06060729124669
 32
0.0
 13
56.468482394088369
 23
57.06060729124669
 33
0.0
210
0.0
220
0.0
230
1.0
  0
SOLID
  5
640
  8
DRG
  6
CONTINUOUS
 62
     7
 10
62.280536421539182
 20
57.06060729124669
 30
0.0
 11
54.127398529894862
 21
56.830030656085469
 31
0.0
 12
64.621620285732703
 22
56.830030656085462
 32
0.0
 13
64.621620285732703
 23
56.830030656085462
 33
0.0
210
0.0
220
0.0
230
1.0
  0
SOLID
  5
641
  8
DRG
  6
CONTINUOUS
 62
     7
 10
161.41403355175541
 20
56.83386012300921
 30
0.0
 11
159.0922846938046
 21
57.06060729124669
 31
0.0
 12
153.28023066635379
 22
57.06060729124669
 32
0.0
 13
153.28023066635379
 23
57.06060729124669
 33
0.0
210
0.0
220
0.0
230
1.0
  0
SOLID
  5
642
  8
DRG
  6
CONTINUOUS
 62
     7
 10
153.28023066635379
 20
57.06060729124669
 30
0.0
 11
150.79795471928901
 21
56.801063250136181
 31
0.0
 12
161.41403355175541
 22
56.83386012300921
 32
0.0
 13
161.41403355175541
 23
56.83386012300921
 33
0.0
  0
SOLID
  5
643
  8
DRG
  6
CONTINUOUS
 62
     7
 10
27.267121908897021
 20
51.255838552818979
 30
0.0
 11
37.639779947293832
 21
57.06060729124669
 31
0.0
 12
27.267121908897028
 22
57.06060729124669
 32
0.0
 13
27.267121908897028
 23
57.06060729124669
 33
0.0
210
0.0
220
0.0
230
1.0
  0
SOLID
  5
644
  8
DRG
  6
CONTINUOUS
 62
     7
 10
37.639779947293832
 20
57.06060729124669
 30
0.0
 11
27.267121908897021
 21
51.255838552818979
 31
0.0
 12
37.639779947293839
 22
13.760967175618781
 32
0.0
 13
37.639779947293839
 23
13.760967175618781
 33
0.0
  0
SOLID
  5
645
  8
DRG
  6
CONTINUOUS
 62
     7
 10
91.203569688303915
 20
56.850315563478652
 30
0.0
 11
99.252312977960173
 21
57.06060729124669
 31
0.0
 12
93.440258950509346
 22
57.06060729124669
 32
0.0
 13
93.440258950509346
 23
57.06060729124669
 33
0.0
210
0.0
220
0.0
230
1.0
  0
SOLID
  5
646
  8
DRG
  6
CONTINUOUS
 62
     7
 10
99.252312977960173
 20
57.06060729124669
 30
0.0
 11
91.203569688303915
 21
56.850315563478652
 31
0.0
 12
101.59339684215369
 22
56.830030656085462
 32
0.0
 13
101.59339684215369
 23
56.830030656085462
 33
0.0
210
0.0
220
0.0
230
1.0
  0
SOLID
  5
647
  8
DRG
  6
CONTINUOUS
 62
     7
 10
14.15384917366147
 20
57.067339255620332
 30
0.0
 11
12.1674475127723
 21
55.93309531764784
 31
0.0
 12
24.090833070868062
 22
56.165006499923557
 32
0.0
 13
24.090833070868062
 23
56.165006499923557
 33
0.0
210
0.0
220
0.0
230
1.0
  0
SOLID
  5
648
  8
DRG
  6
CONTINUOUS
 62
     7
 10
127.2345352189994
 20
53.086533694841222
 30
0.0
 11
127.2345352189994
 21
57.207648031108022
 31
0.0
 12
116.19314081319391
 22
57.207648031108022
 32
0.0
 13
116.19314081319391
 23
57.207648031108022
 33
0.0
210
0.0
220
0.0
230
1.0
  0
SOLID
  5
649
  8
DRG
  6
CONTINUOUS
 62
     7
 10
116.19314081319391
 20
57.207648031108022
 30
0.0
 11
116.19314081319391
 21
17.28637227261407
 31
0.0
 12
127.2345352189994
 22
53.086533694841222
 32
0.0
 13
127.2345352189994
 23
53.086533694841222
 33
0.0
210
0.0
220
0.0
230
1.0
  0
SOLID
  5
64A
  8
DRG
  6
CONTINUOUS
 62
     7
 10
136.6041529029215
 20
57.207648031108022
 30
0.0
 11
132.37003801702659
 21
56.779459294975013
 31
0.0
 12
136.6041529029215
 22
48.740104065808111
 32
0.0
 13
136.6041529029215
 23
48.740104065808111
 33
0.0
  0
SOLID
  5
64B
  8
DRG
  6
CONTINUOUS
 62
     7
 10
134.46463462969641
 20
57.215656039407847
 30
0.0
 11
132.37003801702659
 21
56.779459294975013
 31
0.0
 12
136.6041529029215
 22
57.207648031108022
 32
0.0
 13
136.6041529029215
 23
57.207648031108022
 33
0.0
210
0.0
220
0.0
230
1.0
  0
SOLID
  5
64C
  8
DRG
  6
CONTINUOUS
 62
     7
 10
22.41344183966368
 20
57.217599305918121
 30
0.0
 11
14.15384917366147
 21
57.067339255620332
 31
0.0
 12
24.090833070868062
 22
56.165006499923557
 32
0.0
 13
24.090833070868062
 23
56.165006499923557
 33
0.0
210
0.0
220
0.0
230
1.0
  0
SOLID
  5
64D
  8
DRG
  6
CONTINUOUS
 62
     7
 10
16.318127155313359
 20
57.807745689511478
 30
0.0
 11
14.15384917366147
 21
57.067339255620332
 31
0.0
 12
22.41344183966368
 22
57.217599305918121
 32
0.0
 13
22.41344183966368
 23
57.217599305918121
 33
0.0
210
0.0
220
0.0
230
1.0
  0
SOLID
  5
64E
  8
DRG
  6
CONTINUOUS
 62
     7
 10
20.548060271541839
 20
57.882388417640122
 30
0.0
 11
16.318127155313359
 21
57.807745689511478
 31
0.0
 12
22.41344183966368
 22
57.217599305918121
 32
0.0
 13
22.41344183966368
 23
57.217599305918121
 33
0.0
210
0.0
220
0.0
230
1.0
  0
SOLID
  5
64F
  8
DRG
  6
CONTINUOUS
 62
     7
 10
18.58303542025671
 20
58.127888502333931
 30
0.0
 11
16.318127155313359
 21
57.807745689511478
 31
0.0
 12
20.548060271541839
 22
57.882388417640122
 32
0.0
 13
20.548060271541839
 23
57.882388417640122
 33
0.0
210
0.0
220
0.0
230
1.0
  0
SOLID
  5
650
  8
DRG
  6
CONTINUOUS
 62
     7
 10
73.551023738501186
 20
61.097908438012972
 30
0.0
 11
75.331191210151701
 21
60.89733173546756
 31
0.0
 12
80.675802928262684
 22
60.89733173546756
 32
0.0
 13
80.675802928262684
 23
60.89733173546756
 33
0.0
210
0.0
220
0.0
230
1.0
  0
SOLID
  5
651
  8
DRG
  6
CONTINUOUS
 62
     7
 10
106.0029162871861
 20
61.127907507119559
 30
0.0
 11
97.849782736700035
 21
60.89733173546756
 31
0.0
 12
103.66183676415081
 22
60.89733173546756
 32
0.0
 13
103.66183676415081
 23
60.89733173546756
 33
0.0
210
0.0
220
0.0
230
1.0
  0
SOLID
  5
652
  8
DRG
  6
CONTINUOUS
 62
     7
 10
49.991276450151993
 20
61.127907507119559
 30
0.0
 11
41.838142899665847
 21
60.89733173546756
 31
0.0
 12
47.650196927116667
 22
60.89733173546756
 32
0.0
 13
47.650196927116667
 23
60.89733173546756
 33
0.0
210
0.0
220
0.0
230
1.0
  0
SOLID
  5
653
  8
DRG
  6
CONTINUOUS
 62
     7
 10
95.5086988725065
 20
61.127908370628781
 30
0.0
 11
97.849782736700035
 21
60.89733173546756
 31
0.0
 12
106.0029162871861
 22
61.127907507119559
 32
0.0
 13
106.0029162871861
 23
61.127907507119559
 33
0.0
210
0.0
220
0.0
230
1.0
  0
SOLID
  5
654
  8
DRG
  6
CONTINUOUS
 62
     7
 10
39.497059035472361
 20
61.127908370628781
 30
0.0
 11
41.838142899665847
 21
60.89733173546756
 31
0.0
 12
49.991276450151993
 22
61.127907507119559
 32
0.0
 13
49.991276450151993
 23
61.127907507119559
 33
0.0
210
0.0
220
0.0
230
1.0
  0
SOLID
  5
655
  8
DRG
  6
CONTINUOUS
 62
     7
 10
82.673677075028507
 20
61.207576574819242
 30
0.0
 11
73.551023738501186
 21
61.097908438012972
 31
0.0
 12
80.675802928262684
 22
60.89733173546756
 32
0.0
 13
80.675802928262684
 23
60.89733173546756
 33
0.0
210
0.0
220
0.0
230
1.0
  0
SOLID
  5
656
  8
DRG
  6
CONTINUOUS
 62
     7
 10
71.860121297211236
 20
61.689580792248208
 30
0.0
 11
73.551023738501186
 21
61.097908438012972
 31
0.0
 12
82.673677075028507
 22
61.207576574819242
 32
0.0
 13
82.673677075028507
 23
61.207576574819242
 33
0.0
210
0.0
220
0.0
230
1.0
  0
SOLID
  5
657
  8
DRG
  6
CONTINUOUS
 62
     7
 10
52.242389936933542
 20
61.810773957663443
 30
0.0
 11
39.497059035472361
 21
61.127908370628781
 31
0.0
 12
49.991276450151993
 22
61.127907507119559
 32
0.0
 13
49.991276450151993
 23
61.127907507119559
 33
0.0
210
0.0
220
0.0
230
1.0
  0
SOLID
  5
658
  8
DRG
  6
CONTINUOUS
 62
     7
 10
108.2540297739677
 20
61.810773957663443
 30
0.0
 11
95.5086988725065
 21
61.127908370628781
 31
0.0
 12
106.0029162871861
 22
61.127907507119559
 32
0.0
 13
106.0029162871861
 23
61.127907507119559
 33
0.0
210
0.0
220
0.0
230
1.0
  0
SOLID
  5
659
  8
DRG
  6
CONTINUOUS
 62
     7
 10
37.24594171128485
 20
61.810777345332077
 30
0.0
 11
39.497059035472361
 21
61.127908370628781
 31
0.0
 12
52.242389936933542
 22
61.810773957663443
 32
0.0
 13
52.242389936933542
 23
61.810773957663443
 33
0.0
  0
SOLID
  5
65A
  8
DRG
  6
CONTINUOUS
 62
     7
 10
93.257581548318967
 20
61.810777345332113
 30
0.0
 11
95.5086988725065
 21
61.127908370628781
 31
0.0
 12
108.2540297739677
 22
61.810773957663443
 32
0.0
 13
108.2540297739677
 23
61.810773957663443
 33
0.0
210
0.0
220
0.0
230
1.0
  0
SOLID
  5
65B
  8
DRG
  6
CONTINUOUS
 62
     7
 10
84.501142256151084
 20
62.072518178885289
 30
0.0
 11
71.860121297211236
 21
61.689580792248208
 31
0.0
 12
82.673677075028507
 22
61.207576574819242
 32
0.0
 13
82.673677075028507
 23
61.207576574819242
 33
0.0
210
0.0
220
0.0
230
1.0
  0
SOLID
  5
65C
  8
DRG
  6
CONTINUOUS
 62
     7
 10
70.343272795281834
 20
62.642679875723317
 30
0.0
 11
71.860121297211236
 21
61.689580792248208
 31
0.0
 12
84.501142256151084
 22
62.072518178885289
 32
0.0
 13
84.501142256151084
 23
62.072518178885289
 33
0.0
210
0.0
220
0.0
230
1.0
  0
SOLID
  5
65D
  8
DRG
  6
CONTINUOUS
 62
     7
 10
110.3286685196136
 20
62.919689010637612
 30
0.0
 11
93.257581548318967
 21
61.810777345332113
 31
0.0
 12
108.2540297739677
 22
61.810773957663443
 32
0.0
 13
108.2540297739677
 23
61.810773957663443
 33
0.0
210
0.0
220
0.0
230
1.0
  0
SOLID
  5
65E
  8
DRG
  6
CONTINUOUS
 62
     7
 10
54.317028682579519
 20
62.919689010637612
 30
0.0
 11
37.24594171128485
 21
61.810777345332077
 31
0.0
 12
52.242389936933542
 22
61.810773957663443
 32
0.0
 13
52.242389936933542
 23
61.810773957663443
 33
0.0
210
0.0
220
0.0
230
1.0
  0
SOLID
  5
65F
  8
DRG
  6
CONTINUOUS
 62
     7
 10
35.171300103430731
 20
62.919696387836943
 30
0.0
 11
37.24594171128485
 21
61.810777345332077
 31
0.0
 12
54.317028682579519
 22
62.919689010637612
 32
0.0
 13
54.317028682579519
 23
62.919689010637612
 33
0.0
210
0.0
220
0.0
230
1.0
  0
SOLID
  5
660
  8
DRG
  6
CONTINUOUS
 62
     7
 10
91.182939940464834
 20
62.919696387837
 30
0.0
 11
93.257581548318967
 21
61.810777345332113
 31
0.0
 12
110.3286685196136
 22
62.919689010637612
 32
0.0
 13
110.3286685196136
 23
62.919689010637612
 33
0.0
210
0.0
220
0.0
230
1.0
  0
SOLID
  5
661
  8
DRG
  6
CONTINUOUS
 62
     7
 10
69.076539350407444
 20
63.909413320597693
 30
0.0
 11
70.343272795281834
 21
62.642679875723317
 31
0.0
 12
84.501142256151084
 22
62.072518178885289
 32
0.0
 13
84.501142256151084
 23
62.072518178885289
 33
0.0
210
0.0
220
0.0
230
1.0
  0
SOLID
  5
662
  8
DRG
  6
CONTINUOUS
 62
     7
 10
56.135465782143832
 20
64.412037842036057
 30
0.0
 11
35.171300103430731
 21
62.919696387836943
 31
0.0
 12
54.317028682579519
 22
62.919689010637612
 32
0.0
 13
54.317028682579519
 23
62.919689010637612
 33
0.0
210
0.0
220
0.0
230
1.0
  0
SOLID
  5
663
  8
DRG
  6
CONTINUOUS
 62
     7
 10
112.14710561917801
 20
64.412037842036057
 30
0.0
 11
91.182939940464834
 21
62.919696387837
 31
0.0
 12
110.3286685196136
 22
62.919689010637612
 32
0.0
 13
110.3286685196136
 23
62.919689010637612
 33
0.0
210
0.0
220
0.0
230
1.0
  0
SOLID
  5
664
  8
DRG
  6
CONTINUOUS
 62
     7
 10
33.352861525427407
 20
64.412050361228864
 30
0.0
 11
35.171300103430731
 21
62.919696387836943
 31
0.0
 12
56.135465782143832
 22
64.412037842036057
 32
0.0
 13
56.135465782143832
 23
64.412037842036057
 33
0.0
210
0.0
220
0.0
230
1.0
  0
SOLID
  5
665
  8
DRG
  6
CONTINUOUS
 62
     7
 10
89.364501362461496
 20
64.412050361228964
 30
0.0
 11
91.182939940464834
 21
62.919696387837
 31
0.0
 12
112.14710561917801
 22
64.412037842036057
 32
0.0
 13
112.14710561917801
 23
64.412037842036057
 33
0.0
210
0.0
220
0.0
230
1.0
  0
SOLID
  5
666
  8
DRG
  6
CONTINUOUS
 62
     7
 10
68.123440266932349
 20
65.426261822527096
 30
0.0
 11
69.076539350407444
 21
63.909413320597693
 31
0.0
 12
84.501142256151084
 22
62.072518178885289
 32
0.0
 13
84.501142256151084
 23
62.072518178885289
 33
0.0
210
0.0
220
0.0
230
1.0
  0
SOLID
  5
667
  8
DRG
  6
CONTINUOUS
 62
     7
 10
113.63945981642181
 20
66.230470537963186
 30
0.0
 11
89.364501362461496
 21
64.412050361228964
 31
0.0
 12
112.14710561917801
 22
64.412037842036057
 32
0.0
 13
112.14710561917801
 23
64.412037842036057
 33
0.0
210
0.0
220
0.0
230
1.0
  0
SOLID
  5
668
  8
DRG
  6
CONTINUOUS
 62
     7
 10
57.627819979387709
 20
66.230470537963186
 30
0.0
 11
33.352861525427407
 21
64.412050361228864
 31
0.0
 12
56.135465782143832
 22
64.412037842036057
 32
0.0
 13
56.135465782143832
 23
64.412037842036057
 33
0.0
210
0.0
220
0.0
230
1.0
  0
SOLID
  5
669
  8
DRG
  6
CONTINUOUS
 62
     7
 10
31.860507552035429
 20
66.230488939232146
 30
0.0
 11
33.352861525427407
 21
64.412050361228864
 31
0.0
 12
57.627819979387709
 22
66.230470537963186
 32
0.0
 13
57.627819979387709
 23
66.230470537963186
 33
0.0
210
0.0
220
0.0
230
1.0
  0
SOLID
  5
66A
  8
DRG
  6
CONTINUOUS
 62
     7
 10
87.872147389069525
 20
66.230488939232288
 30
0.0
 11
89.364501362461496
 21
64.412050361228964
 31
0.0
 12
113.63945981642181
 22
66.230470537963186
 32
0.0
 13
113.63945981642181
 23
66.230470537963186
 33
0.0
  0
SOLID
  5
66B
  8
DRG
  6
CONTINUOUS
 62
     7
 10
67.531767912697106
 20
67.117164263817045
 30
0.0
 11
68.123440266932349
 21
65.426261822527096
 31
0.0
 12
84.501142256151084
 22
62.072518178885289
 32
0.0
 13
84.501142256151084
 23
62.072518178885289
 33
0.0
210
0.0
220
0.0
230
1.0
  0
SOLID
  5
66C
  8
DRG
  6
CONTINUOUS
 62
     7
 10
114.74838099124401
 20
68.305106011408881
 30
0.0
 11
87.872147389069525
 21
66.230488939232288
 31
0.0
 12
113.63945981642181
 22
66.230470537963186
 32
0.0
 13
113.63945981642181
 23
66.230470537963186
 33
0.0
210
0.0
220
0.0
230
1.0
  0
SOLID
  5
66D
  8
DRG
  6
CONTINUOUS
 62
     7
 10
58.736741154209867
 20
68.305106011408881
 30
0.0
 11
31.860507552035429
 21
66.230488939232146
 31
0.0
 12
57.627819979387709
 22
66.230470537963186
 32
0.0
 13
57.627819979387709
 23
66.230470537963186
 33
0.0
210
0.0
220
0.0
230
1.0
  0
SOLID
  5
66E
  8
DRG
  6
CONTINUOUS
 62
     7
 10
30.751588509530521
 20
68.305130547086236
 30
0.0
 11
31.860507552035429
 21
66.230488939232146
 31
0.0
 12
58.736741154209867
 22
68.305106011408881
 32
0.0
 13
58.736741154209867
 23
68.305106011408881
 33
0.0
210
0.0
220
0.0
230
1.0
  0
SOLID
  5
66F
  8
DRG
  6
CONTINUOUS
 62
     7
 10
86.763228346564617
 20
68.305130547086421
 30
0.0
 11
87.872147389069525
 21
66.230488939232288
 31
0.0
 12
114.74838099124401
 22
68.305106011408881
 32
0.0
 13
114.74838099124401
 23
68.305106011408881
 33
0.0
210
0.0
220
0.0
230
1.0
  0
SOLID
  5
670
  8
DRG
  6
CONTINUOUS
 62
     7
 10
44.744171147941039
 20
68.794444026784149
 30
0.0
 11
30.751588509530521
 21
68.305130547086236
 31
0.0
 12
58.736741154209867
 22
68.305106011408881
 32
0.0
 13
58.736741154209867
 23
68.305106011408881
 33
0.0
210
0.0
220
0.0
230
1.0
  0
SOLID
  5
671
  8
DRG
  6
CONTINUOUS
 62
     7
 10
100.7558109849752
 20
68.794444026784163
 30
0.0
 11
86.763228346564617
 21
68.305130547086421
 31
0.0
 12
114.74838099124401
 22
68.305106011408881
 32
0.0
 13
114.74838099124401
 23
68.305106011408881
 33
0.0
210
0.0
220
0.0
230
1.0
  0
SOLID
  5
672
  8
DRG
  6
CONTINUOUS
 62
     7
 10
67.331191210151701
 20
68.89733173546756
 30
0.0
 11
67.531767912697106
 21
67.117164263817045
 31
0.0
 12
84.501142256151084
 22
62.072518178885289
 32
0.0
 13
84.501142256151084
 23
62.072518178885289
 33
0.0
210
0.0
220
0.0
230
1.0
  0
SOLID
  5
673
  8
DRG
  6
CONTINUOUS
 62
     7
 10
45.937347357229378
 20
68.983424572900503
 30
0.0
 11
44.744171147941039
 21
68.794444026784149
 31
0.0
 12
58.736741154209867
 22
68.305106011408881
 32
0.0
 13
58.736741154209867
 23
68.305106011408881
 33
0.0
210
0.0
220
0.0
230
1.0
  0
SOLID
  5
674
  8
DRG
  6
CONTINUOUS
 62
     7
 10
101.94898719426349
 20
68.983424572900518
 30
0.0
 11
100.7558109849752
 21
68.794444026784163
 31
0.0
 12
114.74838099124401
 22
68.305106011408881
 32
0.0
 13
114.74838099124401
 23
68.305106011408881
 33
0.0
210
0.0
220
0.0
230
1.0
  0
SOLID
  5
675
  8
DRG
  6
CONTINUOUS
 62
     7
 10
43.550994938652813
 20
68.983424572901143
 30
0.0
 11
30.751588509530521
 21
68.305130547086236
 31
0.0
 12
44.744171147941039
 22
68.794444026784149
 32
0.0
 13
44.744171147941039
 23
68.794444026784149
 33
0.0
210
0.0
220
0.0
230
1.0
  0
SOLID
  5
676
  8
DRG
  6
CONTINUOUS
 62
     7
 10
99.562634775687002
 20
68.983424572901157
 30
0.0
 11
86.763228346564617
 21
68.305130547086421
 31
0.0
 12
100.7558109849752
 22
68.794444026784163
 32
0.0
 13
100.7558109849752
 23
68.794444026784163
 33
0.0
210
0.0
220
0.0
230
1.0
  0
SOLID
  5
677
  8
DRG
  6
CONTINUOUS
 62
     7
 10
47.013727165805179
 20
69.531867478691453
 30
0.0
 11
45.937347357229378
 21
68.983424572900503
 31
0.0
 12
58.736741154209867
 22
68.305106011408881
 32
0.0
 13
58.736741154209867
 23
68.305106011408881
 33
0.0
210
0.0
220
0.0
230
1.0
  0
SOLID
  5
678
  8
DRG
  6
CONTINUOUS
 62
     7
 10
103.0253670028393
 20
69.531867478691467
 30
0.0
 11
101.94898719426349
 21
68.983424572900518
 31
0.0
 12
114.74838099124401
 22
68.305106011408881
 32
0.0
 13
114.74838099124401
 23
68.305106011408881
 33
0.0
210
0.0
220
0.0
230
1.0
  0
SOLID
  5
679
  8
DRG
  6
CONTINUOUS
 62
     7
 10
42.474615130077296
 20
69.531867478692675
 30
0.0
 11
30.751588509530521
 21
68.305130547086236
 31
0.0
 12
43.550994938652813
 22
68.983424572901143
 32
0.0
 13
43.550994938652813
 23
68.983424572901143
 33
0.0
210
0.0
220
0.0
230
1.0
  0
SOLID
  5
67A
  8
DRG
  6
CONTINUOUS
 62
     7
 10
98.486254967111506
 20
69.531867478692689
 30
0.0
 11
86.763228346564617
 21
68.305130547086421
 31
0.0
 12
99.562634775687002
 22
68.983424572901157
 32
0.0
 13
99.562634775687002
 23
68.983424572901157
 33
0.0
210
0.0
220
0.0
230
1.0
  0
SOLID
  5
67B
  8
DRG
  6
CONTINUOUS
 62
     7
 10
80.482556033578916
 20
69.876055965300111
 30
0.0
 11
67.331191210151701
 21
68.89733173546756
 31
0.0
 12
84.501142256151084
 22
62.072518178885289
 32
0.0
 13
84.501142256151084
 23
62.072518178885289
 33
0.0
210
0.0
220
0.0
230
1.0
  0
SOLID
  5
67C
  8
DRG
  6
CONTINUOUS
 62
     7
 10
84.501142256151084
 20
62.072518178885289
 30
0.0
 11
83.501142256151255
 21
69.876055965300111
 31
0.0
 12
80.482556033578916
 22
69.876055965300111
 32
0.0
 13
80.482556033578916
 23
69.876055965300111
 33
0.0
210
0.0
220
0.0
230
1.0
  0
SOLID
  5
67D
  8
DRG
  6
CONTINUOUS
 62
     7
 10
84.015250681967487
 20
70.00375669518948
 30
0.0
 11
83.501142256151255
 21
69.876055965300111
 31
0.0
 12
84.501142256151084
 22
62.072518178885289
 32
0.0
 13
84.501142256151084
 23
62.072518178885289
 33
0.0
  0
SOLID
  5
67E
  8
DRG
  6
CONTINUOUS
 62
     7
 10
79.334505736483663
 20
70.104417367766246
 30
0.0
 11
67.331191210151701
 21
68.89733173546756
 31
0.0
 12
80.482556033578916
 22
69.876055965300111
 32
0.0
 13
80.482556033578916
 23
69.876055965300111
 33
0.0
210
0.0
220
0.0
230
1.0
  0
SOLID
  5
67F
  8
DRG
  6
CONTINUOUS
 62
     7
 10
84.501142256151084
 20
70.214764581409185
 30
0.0
 11
84.015250681967487
 21
70.00375669518948
 31
0.0
 12
84.501142256151084
 22
62.072518178885289
 32
0.0
 13
84.501142256151084
 23
62.072518178885289
 33
0.0
210
0.0
220
0.0
230
1.0
  0
SOLID
  5
680
  8
DRG
  6
CONTINUOUS
 62
     7
 10
47.867947018425959
 20
70.386087331311757
 30
0.0
 11
47.013727165805179
 21
69.531867478691453
 31
0.0
 12
58.736741154209867
 22
68.305106011408881
 32
0.0
 13
58.736741154209867
 23
68.305106011408881
 33
0.0
210
0.0
220
0.0
230
1.0
  0
SOLID
  5
681
  8
DRG
  6
CONTINUOUS
 62
     7
 10
103.8795868554601
 20
70.386087331311771
 30
0.0
 11
103.0253670028393
 21
69.531867478691467
 31
0.0
 12
114.74838099124401
 22
68.305106011408881
 32
0.0
 13
114.74838099124401
 23
68.305106011408881
 33
0.0
210
0.0
220
0.0
230
1.0
  0
SOLID
  5
682
  8
DRG
  6
CONTINUOUS
 62
     7
 10
41.620395277457
 20
70.386087331313433
 30
0.0
 11
30.751588509530521
 21
68.305130547086236
 31
0.0
 12
42.474615130077296
 22
69.531867478692675
 32
0.0
 13
42.474615130077296
 23
69.531867478692675
 33
0.0
  0
SOLID
  5
683
  8
DRG
  6
CONTINUOUS
 62
     7
 10
97.632035114491202
 20
70.386087331313462
 30
0.0
 11
86.763228346564617
 21
68.305130547086421
 31
0.0
 12
98.486254967111506
 22
69.531867478692689
 32
0.0
 13
98.486254967111506
 23
69.531867478692689
 33
0.0
210
0.0
220
0.0
230
1.0
  0
SOLID
  5
684
  8
DRG
  6
CONTINUOUS
 62
     7
 10
115.4312540843801
 20
70.556217483175402
 30
0.0
 11
103.8795868554601
 21
70.386087331311771
 31
0.0
 12
114.74838099124401
 22
68.305106011408881
 32
0.0
 13
114.74838099124401
 23
68.305106011408881
 33
0.0
210
0.0
220
0.0
230
1.0
  0
SOLID
  5
685
  8
DRG
  6
CONTINUOUS
 62
     7
 10
59.419614247346018
 20
70.556217483175402
 30
0.0
 11
47.867947018425959
 21
70.386087331311757
 31
0.0
 12
58.736741154209867
 22
68.305106011408881
 32
0.0
 13
58.736741154209867
 23
68.305106011408881
 33
0.0
210
0.0
220
0.0
230
1.0
  0
SOLID
  5
686
  8
DRG
  6
CONTINUOUS
 62
     7
 10
30.068719534827149
 20
70.556247871273712
 30
0.0
 11
30.751588509530521
 21
68.305130547086236
 31
0.0
 12
41.620395277457
 22
70.386087331313433
 32
0.0
 13
41.620395277457
 23
70.386087331313433
 33
0.0
210
0.0
220
0.0
230
1.0
  0
SOLID
  5
687
  8
DRG
  6
CONTINUOUS
 62
     7
 10
86.080359371861277
 20
70.556247871273953
 30
0.0
 11
86.763228346564617
 21
68.305130547086421
 31
0.0
 12
97.632035114491202
 22
70.386087331313462
 32
0.0
 13
97.632035114491202
 23
70.386087331313462
 33
0.0
  0
SOLID
  5
688
  8
DRG
  6
CONTINUOUS
 62
     7
 10
78.361235690019285
 20
70.754735621740465
 30
0.0
 11
67.331191210151701
 21
68.89733173546756
 31
0.0
 12
79.334505736483663
 22
70.104417367766246
 32
0.0
 13
79.334505736483663
 23
70.104417367766246
 33
0.0
210
0.0
220
0.0
230
1.0
  0
SOLID
  5
689
  8
DRG
  6
CONTINUOUS
 62
     7
 10
48.416389924217491
 20
71.462467139887266
 30
0.0
 11
47.867947018425959
 21
70.386087331311757
 31
0.0
 12
59.419614247346018
 22
70.556217483175402
 32
0.0
 13
59.419614247346018
 23
70.556217483175402
 33
0.0
  0
SOLID
  5
68A
  8
DRG
  6
CONTINUOUS
 62
     7
 10
104.42802976125159
 20
71.462467139887281
 30
0.0
 11
103.8795868554601
 21
70.386087331311771
 31
0.0
 12
115.4312540843801
 22
70.556217483175402
 32
0.0
 13
115.4312540843801
 23
70.556217483175402
 33
0.0
210
0.0
220
0.0
230
1.0
  0
SOLID
  5
68B
  8
DRG
  6
CONTINUOUS
 62
     7
 10
41.07195237166605
 20
71.462467139889256
 30
0.0
 11
30.068719534827149
 21
70.556247871273712
 31
0.0
 12
41.620395277457
 22
70.386087331313433
 32
0.0
 13
41.620395277457
 23
70.386087331313433
 33
0.0
210
0.0
220
0.0
230
1.0
  0
SOLID
  5
68C
  8
DRG
  6
CONTINUOUS
 62
     7
 10
97.083592208700239
 20
71.46246713988927
 30
0.0
 11
86.080359371861277
 21
70.556247871273953
 31
0.0
 12
97.632035114491202
 22
70.386087331313462
 32
0.0
 13
97.632035114491202
 23
70.386087331313462
 33
0.0
210
0.0
220
0.0
230
1.0
  0
SOLID
  5
68D
  8
DRG
  6
CONTINUOUS
 62
     7
 10
77.710917436045065
 20
71.728005668204844
 30
0.0
 11
67.331191210151701
 21
68.89733173546756
 31
0.0
 12
78.361235690019285
 22
70.754735621740465
 32
0.0
 13
78.361235690019285
 23
70.754735621740465
 33
0.0
  0
SOLID
  5
68E
  8
DRG
  6
CONTINUOUS
 62
     7
 10
48.605370470334492
 20
72.655643349175492
 30
0.0
 11
48.416389924217491
 21
71.462467139887266
 31
0.0
 12
59.419614247346018
 22
70.556217483175402
 32
0.0
 13
59.419614247346018
 23
70.556217483175402
 33
0.0
210
0.0
220
0.0
230
1.0
  0
SOLID
  5
68F
  8
DRG
  6
CONTINUOUS
 62
     7
 10
104.6170103073686
 20
72.655643349175506
 30
0.0
 11
104.42802976125159
 21
71.462467139887281
 31
0.0
 12
115.4312540843801
 22
70.556217483175402
 32
0.0
 13
115.4312540843801
 23
70.556217483175402
 33
0.0
210
0.0
220
0.0
230
1.0
  0
SOLID
  5
690
  8
DRG
  6
CONTINUOUS
 62
     7
 10
40.882971825549703
 20
72.655643349177566
 30
0.0
 11
30.068719534827149
 21
70.556247871273712
 31
0.0
 12
41.07195237166605
 22
71.462467139889256
 32
0.0
 13
41.07195237166605
 23
71.462467139889256
 33
0.0
210
0.0
220
0.0
230
1.0
  0
SOLID
  5
691
  8
DRG
  6
CONTINUOUS
 62
     7
 10
96.894611662583884
 20
72.655643349177595
 30
0.0
 11
86.080359371861277
 21
70.556247871273953
 31
0.0
 12
97.083592208700239
 22
71.46246713988927
 32
0.0
 13
97.083592208700239
 23
71.46246713988927
 33
0.0
  0
SOLID
  5
692
  8
DRG
  6
CONTINUOUS
 62
     7
 10
77.482556033578931
 20
72.876055965300111
 30
0.0
 11
67.331191210151701
 21
68.89733173546756
 31
0.0
 12
77.710917436045065
 22
71.728005668204844
 32
0.0
 13
77.710917436045065
 23
71.728005668204844
 33
0.0
210
0.0
220
0.0
230
1.0
  0
SOLID
  5
693
  8
DRG
  6
CONTINUOUS
 62
     7
 10
115.6618367640986
 20
72.897296325816527
 30
0.0
 11
104.6170103073686
 21
72.655643349175506
 31
0.0
 12
115.4312540843801
 22
70.556217483175402
 32
0.0
 13
115.4312540843801
 23
70.556217483175402
 33
0.0
210
0.0
220
0.0
230
1.0
  0
SOLID
  5
694
  8
DRG
  6
CONTINUOUS
 62
     7
 10
59.650196927064421
 20
72.897296325816555
 30
0.0
 11
48.605370470334492
 21
72.655643349175492
 31
0.0
 12
59.419614247346018
 22
70.556217483175402
 32
0.0
 13
59.419614247346018
 23
70.556217483175402
 33
0.0
  0
SOLID
  5
695
  8
DRG
  6
CONTINUOUS
 62
     7
 10
29.838142899665851
 20
72.897331735467191
 30
0.0
 11
30.068719534827149
 21
70.556247871273712
 31
0.0
 12
40.882971825549703
 22
72.655643349177566
 32
0.0
 13
40.882971825549703
 23
72.655643349177566
 33
0.0
210
0.0
220
0.0
230
1.0
  0
SOLID
  5
696
  8
DRG
  6
CONTINUOUS
 62
     7
 10
85.849782736700035
 20
72.897331735467475
 30
0.0
 11
86.080359371861277
 21
70.556247871273953
 31
0.0
 12
96.894611662583884
 22
72.655643349177595
 32
0.0
 13
96.894611662583884
 23
72.655643349177595
 33
0.0
  0
SOLID
  5
697
  8
DRG
  6
CONTINUOUS
 62
     7
 10
165.4162645291251
 20
78.311404477182364
 30
0.0
 11
161.3332883364622
 21
62.115696081838678
 31
0.0
 12
171.78072804963571
 22
62.115696081838678
 32
0.0
 13
171.78072804963571
 23
62.115696081838678
 33
0.0
210
0.0
220
0.0
230
1.0
  0
SOLID
  5
698
  8
DRG
  6
CONTINUOUS
 62
     7
 10
48.825355035771203
 20
81.496816718755184
 30
0.0
 11
48.605370470334492
 21
72.655643349175492
 31
0.0
 12
59.650196927064421
 22
72.897296325816555
 32
0.0
 13
59.650196927064421
 23
72.897296325816555
 33
0.0
210
0.0
220
0.0
230
1.0
  0
SOLID
  5
699
  8
DRG
  6
CONTINUOUS
 62
     7
 10
104.83699487280531
 20
81.496816718755184
 30
0.0
 11
104.6170103073686
 21
72.655643349175506
 31
0.0
 12
115.6618367640986
 22
72.897296325816527
 32
0.0
 13
115.6618367640986
 23
72.897296325816527
 33
0.0
210
0.0
220
0.0
230
1.0
  0
SOLID
  5
69A
  8
DRG
  6
CONTINUOUS
 62
     7
 10
115.9613008061006
 20
81.496816718755412
 30
0.0
 11
104.83699487280531
 21
81.496816718755184
 31
0.0
 12
115.6618367640986
 22
72.897296325816527
 32
0.0
 13
115.6618367640986
 23
72.897296325816527
 33
0.0
210
0.0
220
0.0
230
1.0
  0
SOLID
  5
69B
  8
DRG
  6
CONTINUOUS
 62
     7
 10
59.9496609690664
 20
81.49681671875544
 30
0.0
 11
48.825355035771203
 21
81.496816718755184
 31
0.0
 12
59.650196927064421
 22
72.897296325816555
 32
0.0
 13
59.650196927064421
 23
72.897296325816555
 33
0.0
210
0.0
220
0.0
230
1.0
  0
SOLID
  5
69C
  8
DRG
  6
CONTINUOUS
 62
     7
 10
29.538681326817759
 20
81.496816718755596
 30
0.0
 11
29.838142899665851
 21
72.897331735467191
 31
0.0
 12
40.882971825549703
 22
72.655643349177566
 32
0.0
 13
40.882971825549703
 23
72.655643349177566
 33
0.0
  0
SOLID
  5
69D
  8
DRG
  6
CONTINUOUS
 62
     7
 10
85.550321163851976
 20
81.496816718755767
 30
0.0
 11
85.849782736700035
 21
72.897331735467475
 31
0.0
 12
96.894611662583884
 22
72.655643349177595
 32
0.0
 13
96.894611662583884
 23
72.655643349177595
 33
0.0
210
0.0
220
0.0
230
1.0
  0
SOLID
  5
69E
  8
DRG
  6
CONTINUOUS
 62
     7
 10
40.662987260112992
 20
81.496816718755866
 30
0.0
 11
29.538681326817759
 21
81.496816718755596
 31
0.0
 12
40.882971825549703
 22
72.655643349177566
 32
0.0
 13
40.882971825549703
 23
72.655643349177566
 33
0.0
210
0.0
220
0.0
230
1.0
  0
SOLID
  5
69F
  8
DRG
  6
CONTINUOUS
 62
     7
 10
96.674627097147194
 20
81.496816718756293
 30
0.0
 11
85.550321163851976
 21
81.496816718755767
 31
0.0
 12
96.894611662583884
 22
72.655643349177595
 32
0.0
 13
96.894611662583884
 23
72.655643349177595
 33
0.0
210
0.0
220
0.0
230
1.0
  0
SOLID
  5
6A0
  8
DRG
  6
CONTINUOUS
 62
     7
 10
153.2899770207527
 20
82.583583780839575
 30
0.0
 11
161.3332883364622
 21
62.115696081838678
 31
0.0
 12
165.4162645291251
 22
78.311404477182364
 32
0.0
 13
165.4162645291251
 23
78.311404477182364
 33
0.0
210
0.0
220
0.0
230
1.0
  0
SOLID
  5
6A1
  8
DRG
  6
CONTINUOUS
 62
     7
 10
18.821661727211438
 20
85.569427875032716
 30
0.0
 11
7.7802673214059723
 21
62.115696081838671
 31
0.0
 12
18.821661727211438
 22
62.115696081838678
 32
0.0
 13
18.821661727211438
 23
62.115696081838678
 33
0.0
  0
SOLID
  5
6A2
  8
DRG
  6
CONTINUOUS
 62
     7
 10
130.05101171535759
 20
85.569427875032716
 30
0.0
 11
119.0096173095521
 21
62.115696081838678
 31
0.0
 12
130.05101171535759
 22
62.115696081838671
 32
0.0
 13
130.05101171535759
 23
62.115696081838671
 33
0.0
210
0.0
220
0.0
230
1.0
  0
SOLID
  5
6A3
  8
DRG
  6
CONTINUOUS
 62
     7
 10
176.9709164189357
 20
86.855763084496857
 30
0.0
 11
153.2899770207527
 21
82.583583780839575
 31
0.0
 12
165.4162645291251
 22
78.311404477182364
 32
0.0
 13
165.4162645291251
 23
78.311404477182364
 33
0.0
210
0.0
220
0.0
230
1.0
  0
SOLID
  5
6A4
  8
DRG
  6
CONTINUOUS
 62
     7
 10
176.9709164189357
 20
86.855763084496857
 30
0.0
 11
165.4162645291251
 21
78.311404477182364
 31
0.0
 12
176.9709164189357
 22
78.31140447718235
 32
0.0
 13
176.9709164189357
 23
78.31140447718235
 33
0.0
210
0.0
220
0.0
230
1.0
  0
SOLID
  5
6A5
  8
DRG
  6
CONTINUOUS
 62
     7
 10
165.4162645291251
 20
86.855763084496886
 30
0.0
 11
153.2899770207527
 21
82.583583780839575
 31
0.0
 12
176.9709164189357
 22
86.855763084496857
 32
0.0
 13
176.9709164189357
 23
86.855763084496857
 33
0.0
210
0.0
220
0.0
230
1.0
  0
SOLID
  5
6A6
  8
DRG
  6
CONTINUOUS
 62
     7
 10
19.022238429756861
 20
87.34959534668323
 30
0.0
 11
7.7802673214059723
 21
62.115696081838671
 31
0.0
 12
18.821661727211438
 22
85.569427875032716
 32
0.0
 13
18.821661727211438
 23
85.569427875032716
 33
0.0
  0
SOLID
  5
6A7
  8
DRG
  6
CONTINUOUS
 62
     7
 10
130.25158841790301
 20
87.349595346683245
 30
0.0
 11
119.0096173095521
 21
62.115696081838678
 31
0.0
 12
130.05101171535759
 22
85.569427875032716
 32
0.0
 13
130.05101171535759
 23
85.569427875032716
 33
0.0
210
0.0
220
0.0
230
1.0
  0
SOLID
  5
6A8
  8
DRG
  6
CONTINUOUS
 62
     7
 10
19.61391078399209
 20
89.04049778797318
 30
0.0
 11
7.7802673214059723
 21
62.115696081838671
 31
0.0
 12
19.022238429756861
 22
87.34959534668323
 32
0.0
 13
19.022238429756861
 23
87.34959534668323
 33
0.0
  0
SOLID
  5
6A9
  8
DRG
  6
CONTINUOUS
 62
     7
 10
130.84326077213819
 20
89.040497787973194
 30
0.0
 11
119.0096173095521
 21
62.115696081838678
 31
0.0
 12
130.25158841790301
 22
87.349595346683245
 32
0.0
 13
130.25158841790301
 23
87.349595346683245
 33
0.0
210
0.0
220
0.0
230
1.0
  0
SOLID
  5
6AA
  8
DRG
  6
CONTINUOUS
 62
     7
 10
29.83814289966584
 20
90.096301702044016
 30
0.0
 11
29.538681326817759
 21
81.496816718755596
 31
0.0
 12
40.662987260112992
 22
81.496816718755866
 32
0.0
 13
40.662987260112992
 23
81.496816718755866
 33
0.0
210
0.0
220
0.0
230
1.0
  0
SOLID
  5
6AB
  8
DRG
  6
CONTINUOUS
 62
     7
 10
85.849782736700035
 20
90.096301702044045
 30
0.0
 11
85.550321163851976
 21
81.496816718755767
 31
0.0
 12
96.674627097147194
 22
81.496816718756293
 32
0.0
 13
96.674627097147194
 23
81.496816718756293
 33
0.0
210
0.0
220
0.0
230
1.0
  0
SOLID
  5
6AC
  8
DRG
  6
CONTINUOUS
 62
     7
 10
115.6618367640986
 20
90.096337111694325
 30
0.0
 11
104.83699487280531
 21
81.496816718755184
 31
0.0
 12
115.9613008061006
 22
81.496816718755412
 32
0.0
 13
115.9613008061006
 23
81.496816718755412
 33
0.0
210
0.0
220
0.0
230
1.0
  0
SOLID
  5
6AD
  8
DRG
  6
CONTINUOUS
 62
     7
 10
59.650196927064421
 20
90.096337111694368
 30
0.0
 11
48.825355035771203
 21
81.496816718755184
 31
0.0
 12
59.9496609690664
 22
81.49681671875544
 32
0.0
 13
59.9496609690664
 23
81.49681671875544
 33
0.0
210
0.0
220
0.0
230
1.0
  0
SOLID
  5
6AE
  8
DRG
  6
CONTINUOUS
 62
     7
 10
40.882971825549703
 20
90.337990088334166
 30
0.0
 11
29.83814289966584
 21
90.096301702044016
 31
0.0
 12
40.662987260112992
 22
81.496816718755866
 32
0.0
 13
40.662987260112992
 23
81.496816718755866
 33
0.0
  0
SOLID
  5
6AF
  8
DRG
  6
CONTINUOUS
 62
     7
 10
48.605370470334456
 20
90.337990088334735
 30
0.0
 11
48.825355035771203
 21
81.496816718755184
 31
0.0
 12
59.650196927064421
 22
90.096337111694368
 32
0.0
 13
59.650196927064421
 23
90.096337111694368
 33
0.0
210
0.0
220
0.0
230
1.0
  0
SOLID
  5
6B0
  8
DRG
  6
CONTINUOUS
 62
     7
 10
104.6170103073686
 20
90.337990088334735
 30
0.0
 11
104.83699487280531
 21
81.496816718755184
 31
0.0
 12
115.6618367640986
 22
90.096337111694325
 32
0.0
 13
115.6618367640986
 23
90.096337111694325
 33
0.0
210
0.0
220
0.0
230
1.0
  0
SOLID
  5
6B1
  8
DRG
  6
CONTINUOUS
 62
     7
 10
96.894611662583884
 20
90.337990088335033
 30
0.0
 11
85.849782736700035
 21
90.096301702044045
 31
0.0
 12
96.674627097147194
 22
81.496816718756293
 32
0.0
 13
96.674627097147194
 23
81.496816718756293
 33
0.0
210
0.0
220
0.0
230
1.0
  0
SOLID
  5
6B2
  8
DRG
  6
CONTINUOUS
 62
     7
 10
41.071952371666292
 20
91.531166297622477
 30
0.0
 11
29.83814289966584
 21
90.096301702044016
 31
0.0
 12
40.882971825549703
 22
90.337990088334166
 32
0.0
 13
40.882971825549703
 23
90.337990088334166
 33
0.0
210
0.0
220
0.0
230
1.0
  0
SOLID
  5
6B3
  8
DRG
  6
CONTINUOUS
 62
     7
 10
48.416389924217718
 20
91.531166297623017
 30
0.0
 11
48.605370470334456
 21
90.337990088334735
 31
0.0
 12
59.650196927064421
 22
90.096337111694368
 32
0.0
 13
59.650196927064421
 23
90.096337111694368
 33
0.0
210
0.0
220
0.0
230
1.0
  0
SOLID
  5
6B4
  8
DRG
  6
CONTINUOUS
 62
     7
 10
104.42802976125201
 20
91.531166297623059
 30
0.0
 11
104.6170103073686
 21
90.337990088334735
 31
0.0
 12
115.6618367640986
 22
90.096337111694325
 32
0.0
 13
115.6618367640986
 23
90.096337111694325
 33
0.0
210
0.0
220
0.0
230
1.0
  0
SOLID
  5
6B5
  8
DRG
  6
CONTINUOUS
 62
     7
 10
97.083592208700608
 20
91.531166297623315
 30
0.0
 11
85.849782736700035
 21
90.096301702044045
 31
0.0
 12
96.894611662583884
 22
90.337990088335033
 32
0.0
 13
96.894611662583884
 23
90.337990088335033
 33
0.0
210
0.0
220
0.0
230
1.0
  0
SOLID
  5
6B6
  8
DRG
  6
CONTINUOUS
 62
     7
 10
30.068719534827121
 20
92.437385566237509
 30
0.0
 11
29.83814289966584
 21
90.096301702044016
 31
0.0
 12
41.071952371666292
 22
91.531166297622477
 32
0.0
 13
41.071952371666292
 23
91.531166297622477
 33
0.0
  0
SOLID
  5
6B7
  8
DRG
  6
CONTINUOUS
 62
     7
 10
86.080359371861306
 20
92.437385566237509
 30
0.0
 11
85.849782736700035
 21
90.096301702044045
 31
0.0
 12
97.083592208700608
 22
91.531166297623315
 32
0.0
 13
97.083592208700608
 23
91.531166297623315
 33
0.0
210
0.0
220
0.0
230
1.0
  0
SOLID
  5
6B8
  8
DRG
  6
CONTINUOUS
 62
     7
 10
115.4312540843802
 20
92.437415954335535
 30
0.0
 11
104.42802976125201
 21
91.531166297623059
 31
0.0
 12
115.6618367640986
 22
90.096337111694325
 32
0.0
 13
115.6618367640986
 23
90.096337111694325
 33
0.0
210
0.0
220
0.0
230
1.0
  0
SOLID
  5
6B9
  8
DRG
  6
CONTINUOUS
 62
     7
 10
59.419614247346082
 20
92.437415954335606
 30
0.0
 11
48.416389924217718
 21
91.531166297623017
 31
0.0
 12
59.650196927064421
 22
90.096337111694368
 32
0.0
 13
59.650196927064421
 23
90.096337111694368
 33
0.0
210
0.0
220
0.0
230
1.0
  0
SOLID
  5
6BA
  8
DRG
  6
CONTINUOUS
 62
     7
 10
41.620395277457447
 20
92.607546106198185
 30
0.0
 11
30.068719534827121
 21
92.437385566237509
 31
0.0
 12
41.071952371666292
 22
91.531166297622477
 32
0.0
 13
41.071952371666292
 23
91.531166297622477
 33
0.0
210
0.0
220
0.0
230
1.0
  0
SOLID
  5
6BB
  8
DRG
  6
CONTINUOUS
 62
     7
 10
47.867947018426399
 20
92.60754610619864
 30
0.0
 11
48.416389924217718
 21
91.531166297623017
 31
0.0
 12
59.419614247346082
 22
92.437415954335606
 32
0.0
 13
59.419614247346082
 23
92.437415954335606
 33
0.0
  0
SOLID
  5
6BC
  8
DRG
  6
CONTINUOUS
 62
     7
 10
103.8795868554608
 20
92.607546106198754
 30
0.0
 11
104.42802976125201
 21
91.531166297623059
 31
0.0
 12
115.4312540843802
 22
92.437415954335535
 32
0.0
 13
115.4312540843802
 23
92.437415954335535
 33
0.0
210
0.0
220
0.0
230
1.0
  0
SOLID
  5
6BD
  8
DRG
  6
CONTINUOUS
 62
     7
 10
97.632035114491885
 20
92.607546106198967
 30
0.0
 11
86.080359371861306
 21
92.437385566237509
 31
0.0
 12
97.083592208700608
 22
91.531166297623315
 32
0.0
 13
97.083592208700608
 23
91.531166297623315
 33
0.0
210
0.0
220
0.0
230
1.0
  0
SOLID
  5
6BE
  8
DRG
  6
CONTINUOUS
 62
     7
 10
42.474615130077929
 20
93.461765958818759
 30
0.0
 11
30.068719534827121
 21
92.437385566237509
 31
0.0
 12
41.620395277457447
 22
92.607546106198185
 32
0.0
 13
41.620395277457447
 23
92.607546106198185
 33
0.0
210
0.0
220
0.0
230
1.0
  0
SOLID
  5
6BF
  8
DRG
  6
CONTINUOUS
 62
     7
 10
47.013727165805797
 20
93.461765958819115
 30
0.0
 11
47.867947018426399
 21
92.60754610619864
 31
0.0
 12
59.419614247346082
 22
92.437415954335606
 32
0.0
 13
59.419614247346082
 23
92.437415954335606
 33
0.0
210
0.0
220
0.0
230
1.0
  0
SOLID
  5
6C0
  8
DRG
  6
CONTINUOUS
 62
     7
 10
103.0253670028403
 20
93.461765958819299
 30
0.0
 11
103.8795868554608
 21
92.607546106198754
 31
0.0
 12
115.4312540843802
 22
92.437415954335535
 32
0.0
 13
115.4312540843802
 23
92.437415954335535
 33
0.0
  0
SOLID
  5
6C1
  8
DRG
  6
CONTINUOUS
 62
     7
 10
98.486254967112458
 20
93.461765958819484
 30
0.0
 11
86.080359371861306
 21
92.437385566237509
 31
0.0
 12
97.632035114491885
 22
92.607546106198967
 32
0.0
 13
97.632035114491885
 23
92.607546106198967
 33
0.0
210
0.0
220
0.0
230
1.0
  0
SOLID
  5
6C2
  8
DRG
  6
CONTINUOUS
 62
     7
 10
43.550994938653538
 20
94.010208864610107
 30
0.0
 11
30.068719534827121
 21
92.437385566237509
 31
0.0
 12
42.474615130077929
 22
93.461765958818759
 32
0.0
 13
42.474615130077929
 23
93.461765958818759
 33
0.0
210
0.0
220
0.0
230
1.0
  0
SOLID
  5
6C3
  8
DRG
  6
CONTINUOUS
 62
     7
 10
45.937347357230102
 20
94.010208864610263
 30
0.0
 11
47.013727165805797
 21
93.461765958819115
 31
0.0
 12
59.419614247346082
 22
92.437415954335606
 32
0.0
 13
59.419614247346082
 23
92.437415954335606
 33
0.0
210
0.0
220
0.0
230
1.0
  0
SOLID
  5
6C4
  8
DRG
  6
CONTINUOUS
 62
     7
 10
101.9489871942646
 20
94.010208864610576
 30
0.0
 11
103.0253670028403
 21
93.461765958819299
 31
0.0
 12
115.4312540843802
 22
92.437415954335535
 32
0.0
 13
115.4312540843802
 23
92.437415954335535
 33
0.0
  0
SOLID
  5
6C5
  8
DRG
  6
CONTINUOUS
 62
     7
 10
99.562634775688124
 20
94.010208864610675
 30
0.0
 11
86.080359371861306
 21
92.437385566237509
 31
0.0
 12
98.486254967112458
 22
93.461765958819484
 32
0.0
 13
98.486254967112458
 23
93.461765958819484
 33
0.0
210
0.0
220
0.0
230
1.0
  0
SOLID
  5
6C6
  8
DRG
  6
CONTINUOUS
 62
     7
 10
44.744171147941813
 20
94.199189410726845
 30
0.0
 11
30.068719534827121
 21
92.437385566237509
 31
0.0
 12
43.550994938653538
 22
94.010208864610107
 32
0.0
 13
43.550994938653538
 23
94.010208864610107
 33
0.0
210
0.0
220
0.0
230
1.0
  0
SOLID
  5
6C7
  8
DRG
  6
CONTINUOUS
 62
     7
 10
44.744171147941813
 20
94.199189410726845
 30
0.0
 11
45.937347357230102
 21
94.010208864610263
 31
0.0
 12
59.419614247346082
 22
92.437415954335606
 32
0.0
 13
59.419614247346082
 23
92.437415954335606
 33
0.0
210
0.0
220
0.0
230
1.0
  0
SOLID
  5
6C8
  8
DRG
  6
CONTINUOUS
 62
     7
 10
100.75581098497641
 20
94.199189410727286
 30
0.0
 11
86.080359371861306
 21
92.437385566237509
 31
0.0
 12
99.562634775688124
 22
94.010208864610675
 32
0.0
 13
99.562634775688124
 23
94.010208864610675
 33
0.0
  0
SOLID
  5
6C9
  8
DRG
  6
CONTINUOUS
 62
     7
 10
100.75581098497641
 20
94.199189410727286
 30
0.0
 11
101.9489871942646
 21
94.010208864610576
 31
0.0
 12
115.4312540843802
 22
92.437415954335535
 32
0.0
 13
115.4312540843802
 23
92.437415954335535
 33
0.0
  0
SOLID
  5
6CA
  8
DRG
  6
CONTINUOUS
 62
     7
 10
77.482556033578931
 20
94.593352860836134
 30
0.0
 11
67.331191210151701
 21
68.89733173546756
 31
0.0
 12
77.482556033578931
 22
72.876055965300111
 32
0.0
 13
77.482556033578931
 23
72.876055965300111
 33
0.0
210
0.0
220
0.0
230
1.0
  0
SOLID
  5
6CB
  8
DRG
  6
CONTINUOUS
 62
     7
 10
67.331191210151687
 20
94.593352860836134
 30
0.0
 11
77.482556033578931
 21
94.593352860836134
 31
0.0
 12
84.553623006881026
 22
94.593352860836134
 32
0.0
 13
84.553623006881026
 23
94.593352860836134
 33
0.0
210
0.0
220
0.0
230
1.0
  0
SOLID
  5
6CC
  8
DRG
  6
CONTINUOUS
 62
     7
 10
67.331191210151687
 20
94.593352860836134
 30
0.0
 11
67.331191210151701
 21
68.89733173546756
 31
0.0
 12
77.482556033578931
 22
94.593352860836134
 32
0.0
 13
77.482556033578931
 23
94.593352860836134
 33
0.0
210
0.0
220
0.0
230
1.0
  0
SOLID
  5
6CD
  8
DRG
  6
CONTINUOUS
 62
     7
 10
30.751588509530482
 20
94.688502890425028
 30
0.0
 11
30.068719534827121
 21
92.437385566237509
 31
0.0
 12
44.744171147941813
 22
94.199189410726845
 32
0.0
 13
44.744171147941813
 23
94.199189410726845
 33
0.0
210
0.0
220
0.0
230
1.0
  0
SOLID
  5
6CE
  8
DRG
  6
CONTINUOUS
 62
     7
 10
86.763228346564645
 20
94.688502890425028
 30
0.0
 11
86.080359371861306
 21
92.437385566237509
 31
0.0
 12
100.75581098497641
 22
94.199189410727286
 32
0.0
 13
100.75581098497641
 23
94.199189410727286
 33
0.0
210
0.0
220
0.0
230
1.0
  0
SOLID
  5
6CF
  8
DRG
  6
CONTINUOUS
 62
     7
 10
114.7483809912442
 20
94.688527426102155
 30
0.0
 11
86.763228346564645
 21
94.688502890425028
 31
0.0
 12
100.75581098497641
 22
94.199189410727286
 32
0.0
 13
100.75581098497641
 23
94.199189410727286
 33
0.0
210
0.0
220
0.0
230
1.0
  0
SOLID
  5
6D0
  8
DRG
  6
CONTINUOUS
 62
     7
 10
114.7483809912442
 20
94.688527426102155
 30
0.0
 11
100.75581098497641
 21
94.199189410727286
 31
0.0
 12
115.4312540843802
 22
92.437415954335535
 32
0.0
 13
115.4312540843802
 23
92.437415954335535
 33
0.0
210
0.0
220
0.0
230
1.0
  0
SOLID
  5
6D1
  8
DRG
  6
CONTINUOUS
 62
     7
 10
58.73674115420998
 20
94.688527426102183
 30
0.0
 11
30.751588509530482
 21
94.688502890425028
 31
0.0
 12
44.744171147941813
 22
94.199189410726845
 32
0.0
 13
44.744171147941813
 23
94.199189410726845
 33
0.0
210
0.0
220
0.0
230
1.0
  0
SOLID
  5
6D2
  8
DRG
  6
CONTINUOUS
 62
     7
 10
58.73674115420998
 20
94.688527426102183
 30
0.0
 11
44.744171147941813
 21
94.199189410726845
 31
0.0
 12
59.419614247346082
 22
92.437415954335606
 32
0.0
 13
59.419614247346082
 23
92.437415954335606
 33
0.0
210
0.0
220
0.0
230
1.0
  0
SOLID
  5
6D3
  8
DRG
  6
CONTINUOUS
 62
     7
 10
87.872147389069568
 20
96.763144498279132
 30
0.0
 11
86.763228346564645
 21
94.688502890425028
 31
0.0
 12
114.7483809912442
 22
94.688527426102155
 32
0.0
 13
114.7483809912442
 23
94.688527426102155
 33
0.0
210
0.0
220
0.0
230
1.0
  0
SOLID
  5
6D4
  8
DRG
  6
CONTINUOUS
 62
     7
 10
31.86050755203539
 20
96.763144498279132
 30
0.0
 11
30.751588509530482
 21
94.688502890425028
 31
0.0
 12
58.73674115420998
 22
94.688527426102183
 32
0.0
 13
58.73674115420998
 23
94.688527426102183
 33
0.0
210
0.0
220
0.0
230
1.0
  0
SOLID
  5
6D5
  8
DRG
  6
CONTINUOUS
 62
     7
 10
113.639459816422
 20
96.763162899547922
 30
0.0
 11
87.872147389069568
 21
96.763144498279132
 31
0.0
 12
114.7483809912442
 22
94.688527426102155
 32
0.0
 13
114.7483809912442
 23
94.688527426102155
 33
0.0
210
0.0
220
0.0
230
1.0
  0
SOLID
  5
6D6
  8
DRG
  6
CONTINUOUS
 62
     7
 10
57.627819979387837
 20
96.763162899547964
 30
0.0
 11
31.86050755203539
 21
96.763144498279132
 31
0.0
 12
58.73674115420998
 22
94.688527426102183
 32
0.0
 13
58.73674115420998
 23
94.688527426102183
 33
0.0
210
0.0
220
0.0
230
1.0
  0
SOLID
  5
6D7
  8
DRG
  6
CONTINUOUS
 62
     7
 10
130.05101171535759
 20
97.915857504065855
 30
0.0
 11
138.05101171535759
 21
93.569427875032716
 31
0.0
 12
139.4206293992797
 22
93.56942787503273
 32
0.0
 13
139.4206293992797
 23
93.56942787503273
 33
0.0
210
0.0
220
0.0
230
1.0
  0
SOLID
  5
6D8
  8
DRG
  6
CONTINUOUS
 62
     7
 10
130.05101171535759
 20
97.915857504065855
 30
0.0
 11
136.2708442437071
 21
93.368851172487297
 31
0.0
 12
138.05101171535759
 22
93.569427875032716
 32
0.0
 13
138.05101171535759
 23
93.569427875032716
 33
0.0
210
0.0
220
0.0
230
1.0
  0
SOLID
  5
6D9
  8
DRG
  6
CONTINUOUS
 62
     7
 10
130.05101171535759
 20
97.915857504065855
 30
0.0
 11
134.5799418024171
 21
92.777178818252068
 31
0.0
 12
136.2708442437071
 22
93.368851172487297
 32
0.0
 13
136.2708442437071
 23
93.368851172487297
 33
0.0
210
0.0
220
0.0
230
1.0
  0
SOLID
  5
6DA
  8
DRG
  6
CONTINUOUS
 62
     7
 10
130.05101171535759
 20
97.915857504065855
 30
0.0
 11
133.06309330048771
 21
91.824079734776959
 31
0.0
 12
134.5799418024171
 22
92.777178818252068
 32
0.0
 13
134.5799418024171
 23
92.777178818252068
 33
0.0
210
0.0
220
0.0
230
1.0
  0
SOLID
  5
6DB
  8
DRG
  6
CONTINUOUS
 62
     7
 10
130.05101171535759
 20
97.915857504065855
 30
0.0
 11
131.7963598556133
 21
90.557346289902583
 31
0.0
 12
133.06309330048771
 22
91.824079734776959
 32
0.0
 13
133.06309330048771
 23
91.824079734776959
 33
0.0
210
0.0
220
0.0
230
1.0
  0
SOLID
  5
6DC
  8
DRG
  6
CONTINUOUS
 62
     7
 10
130.05101171535759
 20
97.915857504065855
 30
0.0
 11
130.84326077213819
 21
89.040497787973194
 31
0.0
 12
131.7963598556133
 22
90.557346289902583
 32
0.0
 13
131.7963598556133
 23
90.557346289902583
 33
0.0
210
0.0
220
0.0
230
1.0
  0
SOLID
  5
6DD
  8
DRG
  6
CONTINUOUS
 62
     7
 10
130.05101171535759
 20
97.915857504065855
 30
0.0
 11
119.0096173095521
 21
62.115696081838678
 31
0.0
 12
130.84326077213819
 22
89.040497787973194
 32
0.0
 13
130.84326077213819
 23
89.040497787973194
 33
0.0
  0
SOLID
  5
6DE
  8
DRG
  6
CONTINUOUS
 62
     7
 10
18.821661727211438
 20
97.915857504065912
 30
0.0
 11
26.821661727211438
 21
93.569427875032716
 31
0.0
 12
28.191279411133561
 22
93.56942787503273
 32
0.0
 13
28.191279411133561
 23
93.56942787503273
 33
0.0
  0
SOLID
  5
6DF
  8
DRG
  6
CONTINUOUS
 62
     7
 10
18.821661727211438
 20
97.915857504065912
 30
0.0
 11
25.041494255560931
 21
93.368851172487297
 31
0.0
 12
26.821661727211438
 22
93.569427875032716
 32
0.0
 13
26.821661727211438
 23
93.569427875032716
 33
0.0
210
0.0
220
0.0
230
1.0
  0
SOLID
  5
6E0
  8
DRG
  6
CONTINUOUS
 62
     7
 10
18.821661727211438
 20
97.915857504065912
 30
0.0
 11
23.350591814270981
 21
92.777178818252068
 31
0.0
 12
25.041494255560931
 22
93.368851172487297
 32
0.0
 13
25.041494255560931
 23
93.368851172487297
 33
0.0
210
0.0
220
0.0
230
1.0
  0
SOLID
  5
6E1
  8
DRG
  6
CONTINUOUS
 62
     7
 10
18.821661727211438
 20
97.915857504065912
 30
0.0
 11
21.833743312341579
 21
91.824079734776959
 31
0.0
 12
23.350591814270981
 22
92.777178818252068
 32
0.0
 13
23.350591814270981
 23
92.777178818252068
 33
0.0
210
0.0
220
0.0
230
1.0
  0
SOLID
  5
6E2
  8
DRG
  6
CONTINUOUS
 62
     7
 10
18.821661727211438
 20
97.915857504065912
 30
0.0
 11
20.567009867467199
 21
90.557346289902583
 31
0.0
 12
21.833743312341579
 22
91.824079734776959
 32
0.0
 13
21.833743312341579
 23
91.824079734776959
 33
0.0
210
0.0
220
0.0
230
1.0
  0
SOLID
  5
6E3
  8
DRG
  6
CONTINUOUS
 62
     7
 10
18.821661727211438
 20
97.915857504065912
 30
0.0
 11
19.61391078399209
 21
89.04049778797318
 31
0.0
 12
20.567009867467199
 22
90.557346289902583
 32
0.0
 13
20.567009867467199
 23
90.557346289902583
 33
0.0
210
0.0
220
0.0
230
1.0
  0
SOLID
  5
6E4
  8
DRG
  6
CONTINUOUS
 62
     7
 10
18.821661727211438
 20
97.915857504065912
 30
0.0
 11
7.7802673214059723
 21
62.115696081838671
 31
0.0
 12
19.61391078399209
 22
89.04049778797318
 32
0.0
 13
19.61391078399209
 23
89.04049778797318
 33
0.0
  0
SOLID
  5
6E5
  8
DRG
  6
CONTINUOUS
 62
     7
 10
89.364501362461553
 20
98.581583076282442
 30
0.0
 11
87.872147389069568
 21
96.763144498279132
 31
0.0
 12
113.639459816422
 22
96.763162899547922
 32
0.0
 13
113.639459816422
 23
96.763162899547922
 33
0.0
210
0.0
220
0.0
230
1.0
  0
SOLID
  5
6E6
  8
DRG
  6
CONTINUOUS
 62
     7
 10
33.352861525427372
 20
98.581583076282442
 30
0.0
 11
31.86050755203539
 21
96.763144498279132
 31
0.0
 12
57.627819979387837
 22
96.763162899547964
 32
0.0
 13
57.627819979387837
 23
96.763162899547964
 33
0.0
210
0.0
220
0.0
230
1.0
  0
SOLID
  5
6E7
  8
DRG
  6
CONTINUOUS
 62
     7
 10
112.14710561917811
 20
98.581595595475122
 30
0.0
 11
89.364501362461553
 21
98.581583076282442
 31
0.0
 12
113.639459816422
 22
96.763162899547922
 32
0.0
 13
113.639459816422
 23
96.763162899547922
 33
0.0
210
0.0
220
0.0
230
1.0
  0
SOLID
  5
6E8
  8
DRG
  6
CONTINUOUS
 62
     7
 10
56.13546578214396
 20
98.581595595475136
 30
0.0
 11
33.352861525427372
 21
98.581583076282442
 31
0.0
 12
57.627819979387837
 22
96.763162899547964
 32
0.0
 13
57.627819979387837
 23
96.763162899547964
 33
0.0
210
0.0
220
0.0
230
1.0
  0
SOLID
  5
6E9
  8
DRG
  6
CONTINUOUS
 62
     7
 10
131.49100261458079
 20
99.498269833332628
 30
0.0
 11
130.05101171535759
 21
97.915857504065855
 31
0.0
 12
139.4206293992797
 22
93.56942787503273
 32
0.0
 13
139.4206293992797
 23
93.56942787503273
 33
0.0
  0
SOLID
  5
6EA
  8
DRG
  6
CONTINUOUS
 62
     7
 10
20.261652626434682
 20
99.498269833332685
 30
0.0
 11
18.821661727211438
 21
97.915857504065912
 31
0.0
 12
28.191279411133561
 22
93.56942787503273
 32
0.0
 13
28.191279411133561
 23
93.56942787503273
 33
0.0
210
0.0
220
0.0
230
1.0
  0
SOLID
  5
6EB
  8
DRG
  6
CONTINUOUS
 62
     7
 10
91.182939940464877
 20
100.0739370496743
 30
0.0
 11
89.364501362461553
 21
98.581583076282442
 31
0.0
 12
112.14710561917811
 22
98.581595595475122
 32
0.0
 13
112.14710561917811
 23
98.581595595475122
 33
0.0
210
0.0
220
0.0
230
1.0
  0
SOLID
  5
6EC
  8
DRG
  6
CONTINUOUS
 62
     7
 10
35.171300103430703
 20
100.0739370496743
 30
0.0
 11
33.352861525427372
 21
98.581583076282442
 31
0.0
 12
56.13546578214396
 22
98.581595595475136
 32
0.0
 13
56.13546578214396
 23
98.581595595475136
 33
0.0
210
0.0
220
0.0
230
1.0
  0
SOLID
  5
6ED
  8
DRG
  6
CONTINUOUS
 62
     7
 10
110.3286685196138
 20
100.0739444268736
 30
0.0
 11
91.182939940464877
 21
100.0739370496743
 31
0.0
 12
112.14710561917811
 22
98.581595595475122
 32
0.0
 13
112.14710561917811
 23
98.581595595475122
 33
0.0
210
0.0
220
0.0
230
1.0
  0
SOLID
  5
6EE
  8
DRG
  6
CONTINUOUS
 62
     7
 10
54.31702868257964
 20
100.0739444268736
 30
0.0
 11
35.171300103430703
 21
100.0739370496743
 31
0.0
 12
56.13546578214396
 22
98.581595595475136
 32
0.0
 13
56.13546578214396
 23
98.581595595475136
 33
0.0
210
0.0
220
0.0
230
1.0
  0
SOLID
  5
6EF
  8
DRG
  6
CONTINUOUS
 62
     7
 10
133.2280506532519
 20
100.7473761862947
 30
0.0
 11
131.49100261458079
 21
99.498269833332628
 31
0.0
 12
139.4206293992797
 22
93.56942787503273
 32
0.0
 13
139.4206293992797
 23
93.56942787503273
 33
0.0
210
0.0
220
0.0
230
1.0
  0
SOLID
  5
6F0
  8
DRG
  6
CONTINUOUS
 62
     7
 10
21.998700665105741
 20
100.7473761862947
 30
0.0
 11
20.261652626434682
 21
99.498269833332685
 31
0.0
 12
28.191279411133561
 22
93.56942787503273
 32
0.0
 13
28.191279411133561
 23
93.56942787503273
 33
0.0
210
0.0
220
0.0
230
1.0
  0
SOLID
  5
6F1
  8
DRG
  6
CONTINUOUS
 62
     7
 10
37.245941711284829
 20
101.18285609217919
 30
0.0
 11
35.171300103430703
 21
100.0739370496743
 31
0.0
 12
54.31702868257964
 22
100.0739444268736
 32
0.0
 13
54.31702868257964
 23
100.0739444268736
 33
0.0
210
0.0
220
0.0
230
1.0
  0
SOLID
  5
6F2
  8
DRG
  6
CONTINUOUS
 62
     7
 10
93.257581548318996
 20
101.18285609217919
 30
0.0
 11
91.182939940464877
 21
100.0739370496743
 31
0.0
 12
110.3286685196138
 22
100.0739444268736
 32
0.0
 13
110.3286685196138
 23
100.0739444268736
 33
0.0
  0
SOLID
  5
6F3
  8
DRG
  6
CONTINUOUS
 62
     7
 10
52.242389936933627
 20
101.18285947984781
 30
0.0
 11
37.245941711284829
 21
101.18285609217919
 31
0.0
 12
54.31702868257964
 22
100.0739444268736
 32
0.0
 13
54.31702868257964
 23
100.0739444268736
 33
0.0
210
0.0
220
0.0
230
1.0
  0
SOLID
  5
6F4
  8
DRG
  6
CONTINUOUS
 62
     7
 10
108.2540297739678
 20
101.18285947984781
 30
0.0
 11
93.257581548318996
 21
101.18285609217919
 31
0.0
 12
110.3286685196138
 22
100.0739444268736
 32
0.0
 13
110.3286685196138
 23
100.0739444268736
 33
0.0
210
0.0
220
0.0
230
1.0
  0
SOLID
  5
6F5
  8
DRG
  6
CONTINUOUS
 62
     7
 10
135.18651451338479
 20
101.6087831041995
 30
0.0
 11
133.2280506532519
 21
100.7473761862947
 31
0.0
 12
139.4206293992797
 22
93.56942787503273
 32
0.0
 13
139.4206293992797
 23
93.56942787503273
 33
0.0
210
0.0
220
0.0
230
1.0
  0
SOLID
  5
6F6
  8
DRG
  6
CONTINUOUS
 62
     7
 10
23.957164525238699
 20
101.6087831041996
 30
0.0
 11
21.998700665105741
 21
100.7473761862947
 31
0.0
 12
28.191279411133561
 22
93.56942787503273
 32
0.0
 13
28.191279411133561
 23
93.56942787503273
 33
0.0
210
0.0
220
0.0
230
1.0
  0
SOLID
  5
6F7
  8
DRG
  6
CONTINUOUS
 62
     7
 10
39.497059035472347
 20
101.8657250668825
 30
0.0
 11
37.245941711284829
 21
101.18285609217919
 31
0.0
 12
52.242389936933627
 22
101.18285947984781
 32
0.0
 13
52.242389936933627
 23
101.18285947984781
 33
0.0
210
0.0
220
0.0
230
1.0
  0
SOLID
  5
6F8
  8
DRG
  6
CONTINUOUS
 62
     7
 10
95.508698872506528
 20
101.8657250668825
 30
0.0
 11
93.257581548318996
 21
101.18285609217919
 31
0.0
 12
108.2540297739678
 22
101.18285947984781
 32
0.0
 13
108.2540297739678
 23
101.18285947984781
 33
0.0
210
0.0
220
0.0
230
1.0
  0
SOLID
  5
6F9
  8
DRG
  6
CONTINUOUS
 62
     7
 10
49.991276450152029
 20
101.8657259303917
 30
0.0
 11
39.497059035472347
 21
101.8657250668825
 31
0.0
 12
52.242389936933627
 22
101.18285947984781
 32
0.0
 13
52.242389936933627
 23
101.18285947984781
 33
0.0
210
0.0
220
0.0
230
1.0
  0
SOLID
  5
6FA
  8
DRG
  6
CONTINUOUS
 62
     7
 10
106.0029162871862
 20
101.8657259303917
 30
0.0
 11
95.508698872506528
 21
101.8657250668825
 31
0.0
 12
108.2540297739678
 22
101.18285947984781
 32
0.0
 13
108.2540297739678
 23
101.18285947984781
 33
0.0
210
0.0
220
0.0
230
1.0
  0
SOLID
  5
6FB
  8
DRG
  6
CONTINUOUS
 62
     7
 10
77.482556033578931
 20
101.9948050433795
 30
0.0
 11
62.478989637268569
 21
94.593352860836134
 31
0.0
 12
67.331191210151687
 22
94.593352860836134
 32
0.0
 13
67.331191210151687
 23
94.593352860836134
 33
0.0
210
0.0
220
0.0
230
1.0
  0
SOLID
  5
6FC
  8
DRG
  6
CONTINUOUS
 62
     7
 10
77.482556033578931
 20
101.9948050433795
 30
0.0
 11
67.331191210151687
 21
94.593352860836134
 31
0.0
 12
84.553623006881026
 22
94.593352860836134
 32
0.0
 13
84.553623006881026
 23
94.593352860836134
 33
0.0
210
0.0
220
0.0
230
1.0
  0
SOLID
  5
6FD
  8
DRG
  6
CONTINUOUS
 62
     7
 10
62.478989637268562
 20
101.9948050433795
 30
0.0
 11
62.478989637268569
 21
94.593352860836134
 31
0.0
 12
77.482556033578931
 22
101.9948050433795
 32
0.0
 13
77.482556033578931
 23
101.9948050433795
 33
0.0
  0
SOLID
  5
6FE
  8
DRG
  6
CONTINUOUS
 62
     7
 10
84.553623006881026
 20
101.9948050433795
 30
0.0
 11
77.482556033578931
 21
101.9948050433795
 31
0.0
 12
84.553623006881026
 22
94.593352860836134
 32
0.0
 13
84.553623006881026
 23
94.593352860836134
 33
0.0
210
0.0
220
0.0
230
1.0
  0
SOLID
  5
6FF
  8
DRG
  6
CONTINUOUS
 62
     7
 10
67.331191210151701
 20
101.9948050433795
 30
0.0
 11
62.478989637268562
 21
101.9948050433795
 31
0.0
 12
77.482556033578931
 22
101.9948050433795
 32
0.0
 13
77.482556033578931
 23
101.9948050433795
 33
0.0
210
0.0
220
0.0
230
1.0
  0
SOLID
  5
700
  8
DRG
  6
CONTINUOUS
 62
     7
 10
139.4206293992797
 20
102.0369718403325
 30
0.0
 11
135.18651451338479
 21
101.6087831041995
 31
0.0
 12
139.4206293992797
 22
93.56942787503273
 32
0.0
 13
139.4206293992797
 23
93.56942787503273
 33
0.0
  0
SOLID
  5
701
  8
DRG
  6
CONTINUOUS
 62
     7
 10
7.7802673214059723
 20
102.0369718403326
 30
0.0
 11
7.7802673214059723
 21
62.115696081838671
 31
0.0
 12
18.821661727211438
 22
97.915857504065912
 32
0.0
 13
18.821661727211438
 23
97.915857504065912
 33
0.0
210
0.0
220
0.0
230
1.0
  0
SOLID
  5
702
  8
DRG
  6
CONTINUOUS
 62
     7
 10
18.821661727211438
 20
102.0369718403326
 30
0.0
 11
7.7802673214059723
 21
102.0369718403326
 31
0.0
 12
18.821661727211438
 22
97.915857504065912
 32
0.0
 13
18.821661727211438
 23
97.915857504065912
 33
0.0
  0
SOLID
  5
703
  8
DRG
  6
CONTINUOUS
 62
     7
 10
142.11987082690661
 20
62.115696081838678
 30
0.0
 11
153.2899770207527
 21
102.0369718403326
 31
0.0
 12
142.11987082690661
 22
102.0369718403326
 32
0.0
 13
142.11987082690661
 23
102.0369718403326
 33
0.0
  0
SOLID
  5
704
  8
DRG
  6
CONTINUOUS
 62
     7
 10
153.2899770207527
 20
102.0369718403326
 30
0.0
 11
142.11987082690661
 21
62.115696081838678
 31
0.0
 12
153.2899770207527
 22
62.115696081838678
 32
0.0
 13
153.2899770207527
 23
62.115696081838678
 33
0.0
210
0.0
220
0.0
230
1.0
  0
SOLID
  5
705
  8
DRG
  6
CONTINUOUS
 62
     7
 10
130.05101171535759
 20
102.0369718403326
 30
0.0
 11
119.0096173095521
 21
62.115696081838678
 31
0.0
 12
130.05101171535759
 22
97.915857504065855
 32
0.0
 13
130.05101171535759
 23
97.915857504065855
 33
0.0
210
0.0
220
0.0
230
1.0
  0
SOLID
  5
706
  8
DRG
  6
CONTINUOUS
 62
     7
 10
165.4162645291251
 20
86.855763084496886
 30
0.0
 11
171.38205787173379
 21
102.0369718403326
 31
0.0
 12
160.9346181585602
 22
102.0369718403326
 32
0.0
 13
160.9346181585602
 23
102.0369718403326
 33
0.0
210
0.0
220
0.0
230
1.0
  0
SOLID
  5
707
  8
DRG
  6
CONTINUOUS
 62
     7
 10
160.9346181585602
 20
102.0369718403326
 30
0.0
 11
153.2899770207527
 21
82.583583780839575
 31
0.0
 12
165.4162645291251
 22
86.855763084496886
 32
0.0
 13
165.4162645291251
 23
86.855763084496886
 33
0.0
  0
SOLID
  5
708
  8
DRG
  6
CONTINUOUS
 62
     7
 10
119.0096173095521
 20
102.0369718403326
 30
0.0
 11
119.0096173095521
 21
62.115696081838678
 31
0.0
 12
130.05101171535759
 22
102.0369718403326
 32
0.0
 13
130.05101171535759
 23
102.0369718403326
 33
0.0
210
0.0
220
0.0
230
1.0
  0
SOLID
  5
709
  8
DRG
  6
CONTINUOUS
 62
     7
 10
28.191279411133561
 20
102.0369718403326
 30
0.0
 11
23.957164525238699
 21
101.6087831041996
 31
0.0
 12
28.191279411133561
 22
93.56942787503273
 32
0.0
 13
28.191279411133561
 23
93.56942787503273
 33
0.0
210
0.0
220
0.0
230
1.0
  0
SOLID
  5
70A
  8
DRG
  6
CONTINUOUS
 62
     7
 10
137.2811111260545
 20
102.04497984863229
 30
0.0
 11
135.18651451338479
 21
101.6087831041995
 31
0.0
 12
139.4206293992797
 22
102.0369718403325
 32
0.0
 13
139.4206293992797
 23
102.0369718403325
 33
0.0
210
0.0
220
0.0
230
1.0
  0
SOLID
  5
70B
  8
DRG
  6
CONTINUOUS
 62
     7
 10
26.051761137908411
 20
102.04497984863239
 30
0.0
 11
23.957164525238699
 21
101.6087831041996
 31
0.0
 12
28.191279411133561
 22
102.0369718403326
 32
0.0
 13
28.191279411133561
 23
102.0369718403326
 33
0.0
  0
SOLID
  5
70C
  8
DRG
  6
CONTINUOUS
 62
     7
 10
49.991276450152029
 20
101.8657259303917
 30
0.0
 11
47.650196927116667
 21
102.0963017020437
 31
0.0
 12
41.838142899665847
 22
102.0963017020437
 32
0.0
 13
41.838142899665847
 23
102.0963017020437
 33
0.0
210
0.0
220
0.0
230
1.0
  0
SOLID
  5
70D
  8
DRG
  6
CONTINUOUS
 62
     7
 10
41.838142899665847
 20
102.0963017020437
 30
0.0
 11
39.497059035472347
 21
101.8657250668825
 31
0.0
 12
49.991276450152029
 22
101.8657259303917
 32
0.0
 13
49.991276450152029
 23
101.8657259303917
 33
0.0
  0
SOLID
  5
70E
  8
DRG
  6
CONTINUOUS
 62
     7
 10
106.0029162871862
 20
101.8657259303917
 30
0.0
 11
103.66183676415081
 21
102.0963017020437
 31
0.0
 12
97.849782736700035
 22
102.0963017020437
 32
0.0
 13
97.849782736700035
 23
102.0963017020437
 33
0.0
  0
SOLID
  5
70F
  8
DRG
  6
CONTINUOUS
 62
     7
 10
97.849782736700035
 20
102.0963017020437
 30
0.0
 11
95.508698872506528
 21
101.8657250668825
 31
0.0
 12
106.0029162871862
 22
101.8657259303917
 32
0.0
 13
106.0029162871862
 23
101.8657259303917
 33
0.0
  0
SOLID
  5
710
  8
DRG
  6
CONTINUOUS
 62
     7
 10
77.482556033578931
 20
107.1280725498991
 30
0.0
 11
67.331191210151701
 21
101.9948050433795
 31
0.0
 12
77.482556033578931
 22
101.9948050433795
 32
0.0
 13
77.482556033578931
 23
101.9948050433795
 33
0.0
  0
SOLID
  5
711
  8
DRG
  6
CONTINUOUS
 62
     7
 10
67.331191210151701
 20
107.1280725498991
 30
0.0
 11
67.331191210151701
 21
101.9948050433795
 31
0.0
 12
77.482556033578931
 22
107.1280725498991
 32
0.0
 13
77.482556033578931
 23
107.1280725498991
 33
0.0
210
0.0
220
0.0
230
1.0
  0
ENDBLK
  5
713
  8
0
  0
ENDSEC
  0
SECTION
  2
ENTITIES
  0
TEXT
  5
25
  8
TXT
 10
824.30722469268892
 20
212.48594638981629
 30
0.0
 40
7.0
  1
HOLE DETAILS (22.5%%d OFF CENTRES)
 72
     4
 11
920.64055802602218
 21
215.48594638981629
 31
0.0
  0
TEXT
  5
27
  8
TXT
 10
836.80722469268892
 20
190.08594638981631
 30
0.0
 40
7.0
  1
8 HOLES M20x25 (0.98") DEEP
 72
     4
 11
920.64055802602218
 21
193.08594638981631
 31
0.0
  0
TEXT
  5
28
  8
TXT
 10
823.80722469268903
 20
152.98594638981629
 30
0.0
 40
7.0
  1
8 HOLES 3/4"UNCx25 (0.98") DEEP
 72
     4
 11
920.64055802602218
 21
155.98594638981629
 31
0.0
  0
LINE
  5
29
  8
DRG2
 10
605.6405580260232
 20
226.68594638981631
 30
0.0
 11
1025.6405580260221
 21
226.68594638981631
 31
0.0
  0
LINE
  5
2B
  8
DRG2
 10
605.6405580260232
 20
204.2859463898163
 30
0.0
 11
1025.6405580260221
 21
204.2859463898163
 31
0.0
  0
LINE
  5
2C
  8
DRG2
 10
605.6405580260232
 20
167.18594638981631
 30
0.0
 11
1025.6405580260221
 21
167.18594638981631
 31
0.0
  0
LINE
  5
2D
  8
DRG2
 10
605.6405580260232
 20
130.08594638981631
 30
0.0
 11
1025.6405580260221
 21
130.08594638981631
 31
0.0
  0
LINE
  5
2E
  8
DRG2
 10
605.6405580260232
 20
249.08594638981631
 30
0.0
 11
1025.6405580260221
 21
249.08594638981631
 31
0.0
  0
LINE
  5
2F
  8
DRG2
 10
322.0
 20
1204.87078246997
 30
0.0
 11
1050.0
 21
1204.87078246997
 31
0.0
  0
LINE
  5
30
  8
DRG2
 10
322.0
 20
1241.9707824699699
 30
0.0
 11
1050.0
 21
1241.9707824699699
 31
0.0
  0
LINE
  5
31
  8
DRG2
 10
322.0
 20
1279.07078246997
 30
0.0
 11
1050.0
 21
1279.07078246997
 31
0.0
  0
LINE
  5
32
  8
DRG2
 10
322.0
 20
1279.07078246997
 30
0.0
 11
1050.0
 21
1279.07078246997
 31
0.0
  0
LINE
  5
33
  8
DRG2
 10
322.0
 20
1353.2707824699689
 30
0.0
 11
1050.0
 21
1353.2707824699701
 31
0.0
  0
LINE
  5
34
  8
DRG2
 10
322.0
 20
1316.1707824699699
 30
0.0
 11
1050.0
 21
1316.1707824699699
 31
0.0
  0
LINE
  5
35
  8
DRG2
 10
322.0
 20
1390.3707824699691
 30
0.0
 11
1050.0
 21
1390.37078246997
 31
0.0
  0
LINE
  5
36
  8
DRG2
 10
322.0
 20
1412.7707824699689
 30
0.0
 11
1050.0
 21
1412.7707824699701
 31
0.0
  0
LINE
  5
37
  8
DRG2
 10
322.0
 20
1167.7707824699701
 30
0.0
 11
1050.0
 21
1167.7707824699701
 31
0.0
  0
LINE
  5
38
  8
DRG2
 10
322.0
 20
1130.6707824699699
 30
0.0
 11
1050.0
 21
1130.6707824699699
 31
0.0
  0
TEXT
  5
39
  8
TXT
 10
966.33333333333326
 20
1227.2707824699701
 30
0.0
 40
7.0
  1
12x8x55
 72
     4
 11
987.0
 21
1230.7707824699701
 31
0.0
  0
TEXT
  5
3A
  8
TXT
 10
936.66666666666674
 20
1213.07078246997
 30
0.0
 40
7.0
  1
(0.47"x0.31"x2.17")
 72
     4
 11
987.0
 21
1216.07078246997
 31
0.0
  0
TEXT
  5
3B
  8
TXT
 10
966.33333333333326
 20
1190.1707824699699
 30
0.0
 40
7.0
  1
14x9x55
 72
     4
 11
987.0
 21
1193.6707824699699
 31
0.0
  0
TEXT
  5
3C
  8
TXT
 10
936.0
 20
1175.9707824699699
 30
0.0
 40
7.0
  1
(0.55"x0.35"x2.17")
 72
     4
 11
987.0
 21
1178.9707824699699
 31
0.0
  0
TEXT
  5
3D
  8
TXT
 10
936.0
 20
1138.87078246997
 30
0.0
 40
7.0
  1
(0.55"x0.35"x2.17")
 72
     4
 11
987.0
 21
1141.87078246997
 31
0.0
  0
TEXT
  5
3E
  8
TXT
 10
966.33333333333326
 20
1153.07078246997
 30
0.0
 40
7.0
  1
14x9x55
 72
     4
 11
987.0
 21
1156.57078246997
 31
0.0
  0
TEXT
  5
3F
  8
TXT
 10
969.0
 20
1338.57078246997
 30
0.0
 40
7.0
  1
8x7x55
 72
     4
 11
987.0
 21
1342.07078246997
 31
0.0
  0
TEXT
  5
40
  8
TXT
 10
936.66666666666674
 20
1250.1707824699699
 30
0.0
 40
7.0
  1
(0.47"x0.31"x2.17")
 72
     4
 11
987.0
 21
1253.1707824699699
 31
0.0
  0
TEXT
  5
41
  8
TXT
 10
936.66666666666674
 20
1287.2707824699701
 30
0.0
 40
7.0
  1
(0.31"x0.28"x2.17")
 72
     4
 11
987.0
 21
1290.2707824699701
 31
0.0
  0
TEXT
  5
42
  8
TXT
 10
936.66666666666674
 20
1324.37078246997
 30
0.0
 40
7.0
  1
(0.31"x0.28"x2.17")
 72
     4
 11
987.0
 21
1327.37078246997
 31
0.0
  0
TEXT
  5
43
  8
TXT
 10
966.33333333333326
 20
1264.37078246997
 30
0.0
 40
7.0
  1
12x8x55
 72
     4
 11
987.0
 21
1267.87078246997
 31
0.0
  0
TEXT
  5
44
  8
TXT
 10
969.0
 20
1301.4707824699699
 30
0.0
 40
7.0
  1
8x7x55
 72
     4
 11
987.0
 21
1304.9707824699699
 31
0.0
  0
TEXT
  5
45
  8
TXT
 10
967.16666666666663
 20
1360.970782469969
 30
0.0
 40
7.0
  1
DETAILS
 72
     4
 11
987.0
 21
1364.470782469969
 31
0.0
  0
LINE
  5
46
  8
DIM
 10
993.07350412213157
 20
527.07546769979615
 30
0.0
 11
1035.084134230588
 21
527.07546769979615
 31
0.0
  0
LINE
  5
47
  8
DIM
 10
958.40254435811983
 20
971.17546769979617
 30
0.0
 11
1035.084134230588
 21
971.17546769979617
 31
0.0
  0
LINE
  5
48
  8
DIM
 10
971.35636547151159
 20
883.17546769979606
 30
0.0
 11
1035.084134230588
 21
883.17546769979606
 31
0.0
  0
LINE
  5
49
  8
DIM
 10
758.40254435811983
 20
284.9082562993587
 30
0.0
 11
1015.784783125023
 21
284.9082562993587
 31
0.0
  0
SOLID
  5
4A
  8
DIM
 10
997.91329961209397
 20
516.36420862854595
 30
0.0
 11
997.16704336131249
 21
513.80408895960863
 31
0.0
 12
1005.220530493515
 22
512.84538004173214
 32
0.0
 13
1005.220530493515
 23
512.84538004173214
 33
0.0
  0
LINE
  5
4B
  8
DIM
 10
1005.220530493515
 20
512.84538004173214
 30
0.0
 11
728.67055420153395
 21
593.45768538255243
 31
0.0
  0
TEXT
  5
4C
  8
BORT
 10
825.45496239146394
 20
12.6
 30
0.0
 40
19.599999999999991
  1
PUB\IS11CD
 72
     4
 11
909.92162905813063
 21
21.0
 31
0.0
  0
LINE
  5
4E
  8
BORT
 39
2.52
 10
806.39999999999975
 20
86.799999999999983
 30
0.0
 11
1019.236156500049
 21
86.799999999999983
 31
0.0
  0
LINE
  5
4F
  8
BORT
 39
2.52
 10
1019.236156500049
 20
64.399999999999991
 30
0.0
 11
806.39999999999975
 21
64.399999999999991
 31
0.0
  0
LINE
  5
50
  8
BORT
 39
2.52
 10
1019.236156500049
 20
0.0
 30
0.0
 11
0.0
 21
0.0
 31
0.0
  0
LINE
  5
51
  8
BORT
 39
2.52
 10
1019.236156500049
 20
42.0
 30
0.0
 11
218.39999999999989
 21
42.0
 31
0.0
  0
LINE
  5
52
  8
DIM
 10
512.23070259582812
 20
698.53992845432629
 30
0.0
 11
512.23070259582812
 21
1068.2090600425461
 31
0.0
  0
LINE
  5
53
  8
DRG
 10
800.8501454378993
 20
662.1289800205227
 30
0.0
 11
871.82203833341794
 21
907.46822383419487
 31
0.0
  0
ARC
  5
55
  8
DRG
 10
956.40254435811994
 20
743.42546769979606
 30
0.0
 40
15.0
 50
90.0
 51
225.08552966872759
  0
ARC
  5
56
  8
DRG
 10
956.40254435811994
 20
743.42546769979606
 30
0.0
 40
25.0
 50
90.0
 51
179.99999999999969
  0
ARC
  5
57
  8
DRG
 10
956.40254435811994
 20
743.42546769979606
 30
0.0
 40
58.0
 50
90.0
 51
180.0
  0
LINE
  5
58
  8
CRS
 10
956.40254435811994
 20
990.38424499109885
 30
0.0
 11
956.40254435811994
 21
307.86276556743701
 31
0.0
  0
LINE
  5
5B
  8
DRG
 10
351.03070259582779
 20
954.17546769979617
 30
0.0
 11
351.03070259582779
 21
628.03276429291213
 31
0.0
  0
LINE
  5
5C
  8
DRG
 10
304.03070259582779
 20
954.17546769979617
 30
0.0
 11
304.03070259582779
 21
712.22546769979613
 31
0.0
  0
LINE
  5
5D
  8
DRG
 10
406.03070259582779
 20
789.42546769979606
 30
0.0
 11
406.03070259582779
 21
725.77546769979608
 31
0.0
  0
LINE
  5
5E
  8
DRG
 10
425.03070259582807
 20
768.22546769979613
 30
0.0
 11
425.0307025958279
 21
597.77660324256203
 31
0.0
  0
LINE
  5
5F
  8
DRG
 10
285.03070259582779
 20
762.22546769979635
 30
0.0
 11
285.03070259582779
 21
724.22546769979613
 31
0.0
  0
LINE
  5
60
  8
DIM
 10
890.57641935856873
 20
680.14274833511013
 30
0.0
 11
804.98287142738116
 21
829.34102023806997
 31
0.0
  0
LINE
  5
61
  8
DIM
 10
450.03070259582807
 20
730.98853880685795
 30
0.0
 11
450.03070259582807
 21
806.51437814222015
 31
0.0
  0
TEXT
  5
63
  8
DIM
 10
370.32927649294288
 20
226.04474919472409
 30
0.0
 40
7.0
  1
(9.72")
 72
     4
 11
387.99594315960962
 21
229.04474919472409
 31
0.0
  0
TEXT
  5
64
  8
TXT
 10
225.06666666666661
 20
50.200000000000017
 30
0.0
 40
7.0
  1
FACTOR (MECH. ADVANTAGE)
 72
     4
 11
302.39999999999998
 21
53.200000000000017
 31
0.0
  0
LINE
  5
65
  8
DRG2
 10
218.39999999999989
 20
42.0
 30
0.0
 11
806.39999999999998
 21
42.0
 31
0.0
  0
LINE
  5
66
  8
DRG2
 10
218.39999999999989
 20
64.400000000000006
 30
0.0
 11
806.39999999999998
 21
64.400000000000006
 31
0.0
  0
LINE
  5
67
  8
DRG2
 10
218.39999999999989
 20
86.799999999999969
 30
0.0
 11
806.39999999999998
 21
86.799999999999969
 31
0.0
  0
LINE
  5
68
  8
DRG2
 10
218.39999999999989
 20
109.2
 30
0.0
 11
806.39999999999998
 21
109.2
 31
0.0
  0
LINE
  5
69
  8
DRG
 10
351.03070259582802
 20
341.07546769979609
 30
0.0
 11
389.03070259582802
 21
341.07546769979592
 31
0.0
  0
LINE
  5
6A
  8
CRS
 10
257.96733021804312
 20
527.07546769979615
 30
0.0
 11
524.54742154863152
 21
527.07546769979615
 31
0.0
  0
LINE
  5
6B
  8
DIM
 10
375.93503805221269
 20
464.45546769979597
 30
0.0
 11
230.2275138451179
 21
464.45546769979597
 31
0.0
  0
LINE
  5
6C
  8
DIM
 10
375.815299913638
 20
589.69546769979615
 30
0.0
 11
230.2275138451179
 21
589.69546769979615
 31
0.0
  0
LINE
  5
6D
  8
DIM
 10
265.03070259582768
 20
237.01141586139099
 30
0.0
 11
512.33070259582746
 21
237.01141586139099
 31
0.0
  0
TEXT
  5
6E
  8
BORT
 10
262.97883821446749
 20
17.175828492243941
 30
0.0
 40
8.3999999999999986
  1
EXEECO LTD   C   1996
  0
LINE
  5
6F
  8
DIM
 10
265.03070259582768
 20
434.5255781053288
 30
0.0
 11
265.03070259582768
 21
235.01141586139099
 31
0.0
  0
TEXT
  5
70
  8
DIM
 10
247.5523947813617
 20
276.3241222160828
 30
0.0
 40
7.0
  1
VALVE SPINDLE LOCKNUT
 50
90.0
  0
TEXT
  5
71
  8
DIM
 10
235.5523947813617
 20
276.3241222160828
 30
0.0
 40
7.0
  1
MAX. PERMISSIBLE O/D OF
 50
90.0
  0
TEXT
  5
72
  8
DIM
 10
223.5523947813617
 20
276.3241222160828
 30
0.0
 40
7.0
  1
%%C125 (%%c4.92") ROOT OF SPLINE
 50
90.0
  0
TEXT
  5
73
  8
BORT
 10
57.466666666666683
 20
163.09999999999999
 30
0.0
 40
7.0
  1
CN1171   D.S.   12-4-00
 72
     4
 11
128.7999999999999
 21
166.59999999999991
 31
0.0
  0
LINE
  5
74
  8
BORT
 39
2.52
 10
218.39999999999989
 20
176.39999999999989
 30
0.0
 11
0.0
 21
176.39999999999989
 31
0.0
  0
LINE
  5
79
  8
BORT
 39
2.52
 10
218.39999999999989
 20
117.59999999999989
 30
0.0
 11
0.0
 21
117.59999999999989
 31
0.0
  0
LINE
  5
7A
  8
BORT
 39
2.52
 10
218.39999999999989
 20
117.59999999999989
 30
0.0
 11
0.0
 21
117.59999999999989
 31
0.0
  0
LINE
  5
7B
  8
BORT
 39
2.52
 10
218.39999999999989
 20
156.7999999999999
 30
0.0
 11
0.0
 21
156.7999999999999
 31
0.0
  0
LINE
  5
7C
  8
BORT
 39
2.52
 10
218.39999999999989
 20
137.1999999999999
 30
0.0
 11
0.0
 21
137.1999999999999
 31
0.0
  0
LINE
  5
7D
  8
BORT
 39
2.52
 10
0.0
 20
0.0
 30
0.0
 11
0.0
 21
176.39999999999989
 31
0.0
  0
LINE
  5
7F
  8
BORT
 39
2.52
 10
39.199999999999989
 20
117.59999999999989
 30
0.0
 11
39.200000000000003
 21
176.39999999999989
 31
0.0
  0
TEXT
  5
80
  8
BORT
 10
18.766666666666659
 20
163.09999999999999
 30
0.0
 40
7.0
  1
1
 72
     4
 11
19.599999999999991
 21
166.59999999999991
 31
0.0
  0
TEXT
  5
81
  8
BORT
 10
5.7666666666666622
 20
123.89999999999991
 30
0.0
 40
7.0
  1
ISSUE
 72
     4
 11
19.599999999999991
 21
127.40000000000001
 31
0.0
  0
TEXT
  5
82
  8
BORT
 10
16.93333333333333
 20
143.5
 30
0.0
 40
7.0
  1
A
 72
     4
 11
19.599999999999991
 21
147.0
 31
0.0
  0
LINE
  5
83
  8
DRG2
 10
218.39999999999989
 20
42.0
 30
0.0
 11
218.39999999999989
 21
109.2
 31
0.0
  0
LINE
  5
84
  8
BORT
 39
2.52
 10
218.39999999999989
 20
117.59999999999989
 30
0.0
 11
218.39999999999989
 21
0.0
 31
0.0
  0
CIRCLE
  5
85
  8
BORT
 10
367.01657855506693
 20
21.26780115646099
 30
0.0
 40
7.9167196450598274
  0
LINE
  5
86
  8
BORT
 39
2.52
 10
218.39999999999989
 20
176.39999999999989
 30
0.0
 11
218.39999999999989
 21
117.59999999999989
 31
0.0
  0
TEXT
  5
87
  8
BORT
 10
94.966666666666654
 20
123.89999999999991
 30
0.0
 40
7.0
  1
ALTERATIONS
 72
     4
 11
128.7999999999999
 21
127.40000000000001
 31
0.0
  0
TEXT
  5
88
  8
BORT
 10
88.299999999999983
 20
143.5
 30
0.0
 40
7.0
  1
ORIGINAL ISSUE
 72
     4
 11
128.7999999999999
 21
147.0
 31
0.0
  0
TEXT
  5
89
  8
TXT
 10
268.39999999999992
 20
72.099999999999994
 30
0.0
 40
7.0
  1
EXACT RATIO
 72
     4
 11
302.39999999999998
 21
75.599999999999994
 31
0.0
  0
TEXT
  5
8A
  8
TXT
 10
262.23333333333329
 20
94.500000000000014
 30
0.0
 40
7.0
  1
NOMINAL RATIO
 72
     4
 11
302.39999999999998
 21
98.000000000000043
 31
0.0
  0
SOLID
  5
8B
  8
DIM
 10
273.03070259582768
 20
238.3447491947243
 30
0.0
 11
273.03070259582768
 21
235.67808252805759
 31
0.0
 12
265.03070259582768
 22
237.01141586139099
 32
0.0
 13
265.03070259582768
 23
237.01141586139099
 33
0.0
  0
TEXT
  5
8C
  8
DIM
 10
194.37049501245161
 20
484.40880103312958
 30
0.0
 40
7.0
  1
B.S.P. OR N.P.T.
 50
90.0
 72
     4
 11
190.87049501245161
 21
527.07546769979615
 31
0.0
  0
LINE
  5
8D
  8
DRG
 10
304.03070259582779
 20
712.22546769979613
 30
0.0
 11
304.03070259582779
 21
457.68551894390612
 31
0.0
  0
LINE
  5
8E
  8
DRG
 10
339.03070259582779
 20
627.21203000639809
 30
0.0
 11
339.03070259582779
 21
353.07546769979621
 31
0.0
  0
LINE
  5
8F
  8
DRG
 10
265.03070259582802
 20
594.82546769979615
 30
0.0
 11
265.03070259582779
 21
459.32546769979581
 31
0.0
  0
LINE
  5
90
  8
DIM
 10
231.89418051178461
 20
438.00338617510852
 30
0.0
 11
231.89418051178461
 21
589.69546769979615
 31
0.0
  0
TEXT
  5
91
  8
DIM
 10
179.0371616791183
 20
495.07546769979621
 30
0.0
 40
7.0
  1
SCREWED 5"
 50
90.0
 72
     4
 11
174.87049501245161
 21
527.07546769979615
 31
0.0
  0
LINE
  5
92
  8
DIM
 10
182.87049501245161
 20
594.82546769979615
 30
0.0
 11
182.87049501245161
 21
459.32546769979581
 31
0.0
  0
LINE
  5
93
  8
DIM
 10
225.24801522159311
 20
459.32546769979581
 30
0.0
 11
180.87049501245161
 21
459.32546769979581
 31
0.0
  0
SOLID
  5
94
  8
DIM
 10
181.5371616791183
 20
467.32546769979592
 30
0.0
 11
184.20382834578501
 21
467.32546769979592
 31
0.0
 12
182.87049501245161
 22
459.32546769979581
 32
0.0
 13
182.87049501245161
 23
459.32546769979581
 33
0.0
  0
ARC
  5
95
  8
DRG
 10
351.03070259582802
 20
353.07546769979621
 30
0.0
 40
12.0
 50
180.0
 51
270.0
  0
LINE
  5
96
  8
DRG
 10
271.03070259582779
 20
441.07546769979609
 30
0.0
 11
333.03070259582779
 21
441.07546769979621
 31
0.0
  0
LINE
  5
97
  8
DRG
 10
265.03070259582779
 20
459.32546769979581
 30
0.0
 11
265.03070259582779
 21
447.07546769979621
 31
0.0
  0
ARC
  5
98
  8
DRG
 10
271.03070259582779
 20
447.07546769979621
 30
0.0
 40
6.0
 50
179.99999999999989
 51
270.0
  0
LINE
  5
99
  8
DIM
 10
259.76909457785041
 20
459.32546769979581
 30
0.0
 11
237.75005565305631
 21
459.32546769979581
 31
0.0
  0
SOLID
  5
9A
  8
DIM
 10
230.56084717845121
 20
472.45546769979597
 30
0.0
 11
233.2275138451179
 21
472.45546769979597
 31
0.0
 12
231.89418051178461
 22
464.45546769979597
 32
0.0
 13
231.89418051178461
 23
464.45546769979597
 33
0.0
  0
LINE
  5
9B
  8
HID
 10
265.03070259582779
 20
459.32546769979581
 30
0.0
 11
290.03070259582779
 21
459.32546769979581
 31
0.0
  0
LINE
  5
9E
  8
HID
 10
265.03070259582802
 20
463.57546769979598
 30
0.0
 11
290.03070259582802
 21
463.57546769979598
 31
0.0
  0
ARC
  5
9F
  8
DRG
 10
310.03070259582779
 20
457.68551894390612
 30
0.0
 40
6.0
 50
180.0
 51
269.9999999999996
  0
ARC
  5
A0
  8
DRG
 10
298.03070259582779
 20
457.68551894390612
 30
0.0
 40
6.0
 50
270.00000000000028
 51
0.0
  0
ARC
  5
A1
  8
DRG
 10
333.03070259582779
 20
435.07546769979609
 30
0.0
 40
6.0
 50
0.0
 51
90.000000000000099
  0
LINE
  5
A2
  8
DIM
 10
259.76909457785069
 20
594.82546769979615
 30
0.0
 11
180.8704950124517
 21
594.82546769979615
 31
0.0
  0
SOLID
  5
A3
  8
DIM
 10
181.53716167911841
 20
586.82546769979615
 30
0.0
 11
184.20382834578501
 21
586.82546769979615
 31
0.0
 12
182.8704950124517
 22
594.82546769979615
 32
0.0
 13
182.8704950124517
 23
594.82546769979615
 33
0.0
  0
ARC
  5
A4
  8
DRG
 10
333.03070259582779
 20
627.21203000639809
 30
0.0
 40
6.0
 50
0.0
 51
90.0
  0
LINE
  5
A5
  8
DRG
 10
288.03070259582779
 20
716.34623579473714
 30
0.0
 11
288.03070259582779
 21
619.07546769979615
 31
0.0
  0
LINE
  5
A6
  8
DRG
 10
271.03070259582802
 20
613.07546769979626
 30
0.0
 11
298.03070259582779
 21
613.07546769979626
 31
0.0
  0
SOLID
  5
A7
  8
DIM
 10
230.56084717845121
 20
581.69546769979615
 30
0.0
 11
233.2275138451179
 21
581.69546769979615
 31
0.0
 12
231.89418051178461
 22
589.69546769979615
 32
0.0
 13
231.89418051178461
 23
589.69546769979615
 33
0.0
  0
LINE
  5
A8
  8
DRG
 10
265.03070259582802
 20
607.07546769979615
 30
0.0
 11
265.03070259582802
 21
594.82546769979615
 31
0.0
  0
LINE
  5
A9
  8
HID
 10
265.03070259582802
 20
590.57546769979615
 30
0.0
 11
290.03070259582802
 21
590.57546769979615
 31
0.0
  0
LINE
  5
AA
  8
HID
 10
265.03070259582802
 20
594.82546769979615
 30
0.0
 11
290.03070259582779
 21
594.82546769979604
 31
0.0
  0
ARC
  5
AB
  8
DRG
 10
271.03070259582802
 20
607.07546769979615
 30
0.0
 40
6.0
 50
90.0
 51
179.99999999999989
  0
ARC
  5
AC
  8
DRG
 10
282.03070259582779
 20
619.07546769979615
 30
0.0
 40
6.0
 50
270.0
 51
0.0000000000000127
  0
ARC
  5
AD
  8
DRG
 10
298.03070259582779
 20
619.07546769979615
 30
0.0
 40
6.0
 50
270.0
 51
0.0
  0
ARC
  5
AE
  8
DRG
 10
357.03070259582779
 20
628.03276429291213
 30
0.0
 40
6.0
 50
180.0
 51
269.9999999999996
  0
LINE
  5
AF
  8
CRS
 10
273.39081403778118
 20
743.22546769979613
 30
0.0
 11
322.31410893664162
 21
743.22546769979613
 31
0.0
  0
LINE
  5
B0
  8
DRG
 10
291.03070259582779
 20
718.22546769979613
 30
0.0
 11
298.03070259582779
 21
718.22546769979613
 31
0.0
  0
ARC
  5
B1
  8
DRG
 10
291.03070259582779
 20
724.22546769979613
 30
0.0
 40
6.0
 50
180.0
 51
270.0
  0
ARC
  5
B2
  8
DRG
 10
282.03070259582802
 20
716.34623579473714
 30
0.0
 40
6.0
 50
0.0
 51
36.622343048176432
  0
ARC
  5
B3
  8
DRG
 10
298.03070259582779
 20
712.22546769979613
 30
0.0
 40
6.0
 50
0.0
 51
90.0
  0
TEXT
  5
B4
  8
DIM
 10
528.59295115728537
 20
273.9082562993587
 30
0.0
 40
7.0
  1
(0.20")
 72
     4
 11
546.25961782395211
 21
276.9082562993587
 31
0.0
  0
TEXT
  5
B5
  8
DIM
 10
429.17548883035442
 20
273.9082562993587
 30
0.0
 40
7.0
  1
(5.18")
 72
     4
 11
446.17548883035442
 21
276.9082562993587
 31
0.0
  0
TEXT
  5
B6
  8
DIM
 10
871.50272731267864
 20
273.9082562993587
 30
0.0
 40
7.0
  1
(%%c16.22")
 72
     4
 11
895.00272731267853
 21
276.9082562993587
 31
0.0
  0
LINE
  5
B7
  8
DIM
 10
512.23070259582801
 20
361.04934272221283
 30
0.0
 11
512.23070259582801
 21
235.01141586139099
 31
0.0
  0
TEXT
  5
B8
  8
TXT
 10
684.73333333333335
 20
49.700000000000017
 30
0.0
 40
7.0
  1
10.900
 72
     4
 11
701.39999999999998
 21
53.200000000000017
 31
0.0
  0
TEXT
  5
B9
  8
TXT
 10
685.06666666666661
 20
72.099999999999994
 30
0.0
 40
7.0
  1
12.11:1
 72
     4
 11
701.39999999999998
 21
75.599999999999994
 31
0.0
  0
TEXT
  5
BA
  8
BORT
 10
528.99285845082932
 20
6.2596870681826502
 30
0.0
 40
14.0
  1
ISO & USA STANDARD
 72
     4
 11
647.99285845082932
 21
13.25968706818265
 31
0.0
  0
TEXT
  5
BB
  8
BORT
 10
514.99285845082932
 20
24.06240952207002
 30
0.0
 40
14.0
  1
OUTLINE DETAILS OF IS11
 72
     4
 11
647.99285845082932
 21
31.06240952207003
 31
0.0
  0
LINE
  5
BC
  8
DRG2
 10
666.39999999999986
 20
42.0
 30
0.0
 11
666.39999999999986
 21
109.2
 31
0.0
  0
LINE
  5
BD
  8
DRG2
 10
596.39999999999986
 20
42.0
 30
0.0
 11
596.39999999999986
 21
109.2
 31
0.0
  0
LINE
  5
BE
  8
DRG2
 10
526.39999999999998
 20
42.0
 30
0.0
 11
526.39999999999998
 21
109.2
 31
0.0
  0
LINE
  5
BF
  8
DRG2
 10
456.39999999999998
 20
42.0
 30
0.0
 11
456.39999999999998
 21
109.2
 31
0.0
  0
LINE
  5
C0
  8
DRG2
 10
386.39999999999992
 20
42.0
 30
0.0
 11
386.39999999999992
 21
109.2
 31
0.0
  0
LINE
  5
C1
  8
BORT
 39
2.52
 10
489.99999999999989
 20
42.0
 30
0.0
 11
489.99999999999989
 21
0.0
 31
0.0
  0
TEXT
  5
C2
  8
TXT
 10
407.39999999999992
 20
49.700000000000017
 30
0.0
 40
7.0
  1
3.633
 72
     4
 11
421.39999999999992
 21
53.200000000000017
 31
0.0
  0
TEXT
  5
C3
  8
TXT
 10
406.39999999999998
 20
72.099999999999994
 30
0.0
 40
7.0
  1
4.04:1
 72
     4
 11
421.39999999999992
 21
75.599999999999994
 31
0.0
  0
TEXT
  5
C4
  8
TXT
 10
414.73333333333329
 20
94.500000000000014
 30
0.0
 40
7.0
  1
4:1
 72
     4
 11
421.39999999999992
 21
98.000000000000043
 31
0.0
  0
TEXT
  5
C5
  8
TXT
 10
477.39999999999998
 20
49.700000000000017
 30
0.0
 40
7.0
  1
5.500
 72
     4
 11
491.39999999999992
 21
53.200000000000017
 31
0.0
  0
TEXT
  5
C6
  8
TXT
 10
477.73333333333318
 20
72.099999999999994
 30
0.0
 40
7.0
  1
6.11:1
 72
     4
 11
491.39999999999992
 21
75.599999999999994
 31
0.0
  0
TEXT
  5
C7
  8
TXT
 10
484.73333333333329
 20
94.500000000000014
 30
0.0
 40
7.0
  1
6:1
 72
     4
 11
491.39999999999992
 21
98.000000000000043
 31
0.0
  0
TEXT
  5
C8
  8
DIM
 10
378.99594315960962
 20
241.5114158613909
 30
0.0
 40
7.0
  1
247
 72
     4
 11
387.99594315960962
 21
245.01141586139099
 31
0.0
  0
SOLID
  5
C9
  8
DIM
 10
504.33070259582752
 20
238.3447491947243
 30
0.0
 11
504.33070259582752
 21
235.67808252805759
 31
0.0
 12
512.33070259582746
 22
237.01141586139099
 32
0.0
 13
512.33070259582746
 23
237.01141586139099
 33
0.0
  0
LINE
  5
CA
  8
DRG2
 10
605.6405580260232
 20
130.08594638981631
 30
0.0
 11
605.6405580260232
 21
249.08594638981631
 31
0.0
  0
LINE
  5
CB
  8
DRG2
 10
675.64055802602309
 20
130.0859463898164
 30
0.0
 11
675.64055802602309
 21
226.68594638981631
 31
0.0
  0
TEXT
  5
CC
  8
TXT
 10
547.39999999999998
 20
49.700000000000017
 30
0.0
 40
7.0
  1
7.025
 72
     4
 11
561.39999999999986
 21
53.200000000000017
 31
0.0
  0
TEXT
  5
CD
  8
TXT
 10
547.06666666666661
 20
72.099999999999994
 30
0.0
 40
7.0
  1
7.81:1
 72
     4
 11
561.39999999999986
 21
75.599999999999994
 31
0.0
  0
TEXT
  5
CE
  8
TXT
 10
554.73333333333335
 20
94.500000000000014
 30
0.0
 40
7.0
  1
8:1
 72
     4
 11
561.39999999999986
 21
98.000000000000043
 31
0.0
  0
TEXT
  5
CF
  8
TXT
 10
614.39999999999998
 20
72.099999999999994
 30
0.0
 40
7.0
  1
10.17:1
 72
     4
 11
631.39999999999998
 21
75.599999999999994
 31
0.0
  0
TEXT
  5
D0
  8
TXT
 10
618.23333333333335
 20
49.700000000000017
 30
0.0
 40
7.0
  1
9.156
 72
     4
 11
631.39999999999998
 21
53.200000000000017
 31
0.0
  0
TEXT
  5
D1
  8
TXT
 10
622.06666666666661
 20
94.500000000000014
 30
0.0
 40
7.0
  1
10:1
 72
     4
 11
631.39999999999998
 21
98.000000000000043
 31
0.0
  0
TEXT
  5
D2
  8
TXT
 10
628.30722469268983
 20
145.1359463898163
 30
0.0
 40
7.0
  1
FA30
 72
     4
 11
640.6405580260232
 21
148.6359463898163
 31
0.0
  0
TEXT
  5
D3
  8
TXT
 10
620.47389135935646
 20
182.23594638981629
 30
0.0
 40
7.0
  1
ISO F30
 72
     4
 11
640.6405580260232
 21
185.73594638981629
 31
0.0
  0
LINE
  5
D4
  8
DRG2
 10
806.39999999999998
 20
42.0
 30
0.0
 11
806.39999999999998
 21
109.2
 31
0.0
  0
LINE
  5
D5
  8
DRG2
 10
736.39999999999986
 20
42.0
 30
0.0
 11
736.39999999999986
 21
109.2
 31
0.0
  0
LINE
  5
D7
  8
BORT
 39
2.52
 10
806.39999999999998
 20
86.799999999999983
 30
0.0
 11
806.39999999999998
 21
42.0
 31
0.0
  0
LINE
  5
D8
  8
BORT
 39
2.52
 10
798.0
 20
42.0
 30
0.0
 11
798.0
 21
0.0
 31
0.0
  0
TEXT
  5
D9
  8
TXT
 10
762.80722469268892
 20
234.3859463898163
 30
0.0
 40
7.0
  1
BASEPLATE DETAILS
 72
     4
 11
815.64055802602229
 21
237.8859463898163
 31
0.0
  0
TEXT
  5
DA
  8
BORT
 10
822.71020558899329
 20
71.399999999999991
 30
0.0
 40
7.0
  1
DRAWN:-
  0
TEXT
  5
DB
  8
BORT
 10
822.30563002678377
 20
49.454182846030378
 30
0.0
 40
7.0
  1
CHECKED:-
  0
LINE
  5
DC
  8
DRG2
 10
815.6405580260232
 20
130.08594638981651
 30
0.0
 11
815.6405580260232
 21
226.68594638981631
 31
0.0
  0
TEXT
  5
DD
  8
TXT
 10
706.6405580260232
 20
152.48594638981629
 30
0.0
 40
7.0
  1
%%c177.70 -0.05
 72
     4
 11
745.6405580260232
 21
155.98594638981629
 31
0.0
  0
TEXT
  5
DE
  8
TXT
 10
692.14055802602309
 20
138.2859463898163
 30
0.0
 40
7.0
  1
(%%c6.996" -0.002") 
 72
     4
 11
745.6405580260232
 21
141.2859463898163
 31
0.0
  0
TEXT
  5
DF
  8
TXT
 10
755.23333333333335
 20
49.700000000000017
 30
0.0
 40
7.0
  1
13.194
 72
     4
 11
771.39999999999986
 21
53.200000000000017
 31
0.0
  0
TEXT
  5
E0
  8
TXT
 10
753.73333333333335
 20
72.099999999999994
 30
0.0
 40
7.0
  1
14.66:1
 72
     4
 11
771.39999999999986
 21
75.599999999999994
 31
0.0
  0
TEXT
  5
E1
  8
TXT
 10
762.06666666666649
 20
94.500000000000014
 30
0.0
 40
7.0
  1
15:1
 72
     4
 11
771.39999999999986
 21
98.000000000000043
 31
0.0
  0
TEXT
  5
E2
  8
TXT
 10
692.06666666666661
 20
94.500000000000014
 30
0.0
 40
7.0
  1
12:1
 72
     4
 11
701.39999999999998
 21
98.000000000000043
 31
0.0
  0
TEXT
  5
E3
  8
TXT
 10
715.30722469268983
 20
211.98594638981629
 30
0.0
 40
7.0
  1
SPIGOT DIA.
 72
     4
 11
745.6405580260232
 21
215.48594638981629
 31
0.0
  0
TEXT
  5
E4
  8
TXT
 10
705.97389135935646
 20
189.58594638981631
 30
0.0
 40
7.0
  1
%%c229.95 -0.05
 72
     4
 11
745.6405580260232
 21
193.08594638981631
 31
0.0
  0
TEXT
  5
E5
  8
TXT
 10
692.14055802602309
 20
175.3859463898163
 30
0.0
 40
7.0
  1
(%%c9.053" -0.002") 
 72
     4
 11
745.6405580260232
 21
178.3859463898163
 31
0.0
  0
TEXT
  5
E6
  8
TXT
 10
852.64055802602218
 20
138.2859463898163
 30
0.0
 40
7.0
  1
ON %%c298.5 (%%c11.75") P.C.
 72
     4
 11
920.64055802602218
 21
141.2859463898163
 31
0.0
  0
TEXT
  5
E7
  8
BORT
 10
901.623171744101
 20
72.099999999999994
 30
0.0
 40
7.0
  1
S.W.   10.9.96
 72
     4
 11
939.95650507743426
 21
75.599999999999994
 31
0.0
  0
TEXT
  5
E8
  8
TXT
 10
852.64055802602218
 20
175.3859463898163
 30
0.0
 40
7.0
  1
ON %%c298.0 (%%c11.73") P.C.
 72
     4
 11
920.64055802602218
 21
178.3859463898163
 31
0.0
  0
LINE
  5
E9
  8
DIM
 10
728.67055420153395
 20
593.45768538255243
 30
0.0
 11
673.41682920757387
 21
593.45768538255243
 31
0.0
  0
TEXT
  5
EA
  8
DIM
 10
686.32703593834674
 20
597.80125358509304
 30
0.0
 40
7.0
  1
%%C350
 72
     4
 11
698.49370260501337
 21
601.30125358509304
 31
0.0
  0
TEXT
  5
EB
  8
DIM
 10
674.99370260501325
 20
582.61411718001159
 30
0.0
 40
7.0
  1
(%%c13.78")
 50
359.99999999999977
 72
     4
 11
698.49370260501325
 21
585.61411718001159
 31
0.0
  0
TEXT
  5
EC
  8
DIM
 10
562.54111829731664
 20
710.5784986227095
 30
0.0
 40
7.0
  1
CENTRES ON %%C385 (%%c15.16") P.C.
  0
TEXT
  5
ED
  8
DIM
 10
562.54111829731664
 20
722.5784986227095
 30
0.0
 40
7.0
  1
SCREWS EQUALLY SPACED ON
  0
TEXT
  5
EE
  8
DIM
 10
562.54111829731664
 20
734.57849862270939
 30
0.0
 40
7.0
  1
8 OFF M10 BASEPLATE SECURING
  0
LINE
  5
EF
  8
DRG
 10
517.23070259582812
 20
615.97546769979613
 30
0.0
 11
517.23070259582789
 21
438.17546769979612
 31
0.0
  0
LINE
  5
F0
  8
HID
 10
494.03070259582819
 20
591.92546769979617
 30
0.0
 11
494.03070259582819
 21
462.22546769979601
 31
0.0
  0
LINE
  5
F1
  8
DRG
 10
512.23070259582812
 20
689.73546769979635
 30
0.0
 11
512.23070259582801
 21
364.41546769979578
 31
0.0
  0
LINE
  5
F2
  8
HID
 10
380.78070259582819
 20
590.99546769979611
 30
0.0
 11
380.78070259582819
 21
463.15546769979608
 31
0.0
  0
TEXT
  5
F3
  8
DIM
 10
586.81667872110233
 20
501.48995687885628
 30
0.0
 40
7.0
  1
SPIGOT DIA.
 50
90.0
 72
     4
 11
583.31667872110233
 21
531.8232902121897
 31
0.0
  0
TEXT
  5
F4
  8
DIM
 10
571.27828686507996
 20
489.07546769979632
 30
0.0
 40
7.0
  1
SEE TABLE FOR
 50
90.0
 72
     4
 11
567.77828686507996
 21
530.24213436646289
 31
0.0
  0
LINE
  5
F5
  8
DIM
 10
575.77828686507985
 20
615.97546769979613
 30
0.0
 11
575.77828686507996
 21
438.17546769979612
 31
0.0
  0
LINE
  5
F6
  8
DIM
 10
520.43793034539146
 20
438.17546769979612
 30
0.0
 11
577.77828686508008
 21
438.17546769979612
 31
0.0
  0
LINE
  5
F7
  8
DIM
 10
525.23070259582801
 20
284.90825629935858
 30
0.0
 11
563.48711873599041
 21
284.90825629935858
 31
0.0
  0
LINE
  5
F8
  8
DRG
 10
425.0307025958279
 20
454.86325181209781
 30
0.0
 11
425.03070259582779
 21
321.07546769979621
 31
0.0
  0
LINE
  5
F9
  8
DRG
 10
395.03070259582921
 20
455.64206444799811
 30
0.0
 11
395.03070259582779
 21
327.07546769979621
 31
0.0
  0
LINE
  5
FA
  8
DRG
 10
440.0307025958279
 20
453.88937475510681
 30
0.0
 11
440.03070259582779
 21
321.07546769979632
 31
0.0
  0
LINE
  5
FB
  8
DIM
 10
380.78070259582819
 20
449.5259747552625
 30
0.0
 11
380.78070259582819
 21
282.9082562993587
 31
0.0
  0
LINE
  5
FC
  8
DRG2
 10
449.03070259582802
 20
382.82741232138579
 30
0.0
 11
449.03070259582802
 21
399.08741232138578
 31
0.0
  0
LINE
  5
FD
  8
DRG2
 10
450.03070259582807
 20
398.0874123213859
 30
0.0
 11
449.03070259582802
 21
399.08741232138578
 31
0.0
  0
LINE
  5
FE
  8
DIM
 10
517.23070259582789
 20
432.06023688223843
 30
0.0
 11
517.23070259582789
 21
282.9082562993587
 31
0.0
  0
LINE
  5
FF
  8
DRG
 10
512.23070259582812
 20
364.41546769979578
 30
0.0
 11
448.0307025958279
 21
364.41546769979578
 31
0.0
  0
LINE
  5
100
  8
CRS
 10
420.68426395488689
 20
334.57546769979592
 30
0.0
 11
453.51807720560538
 21
334.57546769979592
 31
0.0
  0
LINE
  5
101
  8
CRS
 10
420.11483848098402
 20
390.9574123213859
 30
0.0
 11
454.23664183300599
 21
390.9574123213859
 31
0.0
  0
LINE
  5
102
  8
DIM
 10
380.78070259582819
 20
284.90825629935858
 30
0.0
 11
512.23070259582801
 21
284.90825629935858
 31
0.0
  0
LINE
  5
103
  8
DRG2
 10
449.03070259582802
 20
326.24546769979611
 30
0.0
 11
449.03070259582802
 21
342.50546769979621
 31
0.0
  0
LINE
  5
104
  8
DRG2
 10
450.03070259582807
 20
341.50546769979621
 30
0.0
 11
450.03070259582807
 21
327.24546769979611
 31
0.0
  0
ARC
  5
105
  8
DRG
 10
389.03070259582802
 20
335.07546769979592
 30
0.0
 40
6.0
 50
0.0
 51
89.999999999999943
  0
LINE
  5
106
  8
DRG
 10
401.03070259582779
 20
321.07546769979621
 30
0.0
 11
425.03070259582779
 21
321.07546769979621
 31
0.0
  0
SOLID
  5
107
  8
DIM
 10
388.78070259582807
 20
286.24158963269201
 30
0.0
 11
388.78070259582807
 21
283.57492296602533
 31
0.0
 12
380.78070259582819
 22
284.90825629935858
 32
0.0
 13
380.78070259582819
 23
284.90825629935858
 33
0.0
  0
ARC
  5
108
  8
DRG
 10
401.03070259582779
 20
327.07546769979621
 30
0.0
 40
6.0
 50
180.0
 51
270.0
  0
TEXT
  5
109
  8
DIM
 10
439.34215549702111
 20
289.40825629935858
 30
0.0
 40
7.0
  1
131
 72
     4
 11
446.17548883035442
 21
292.9082562993587
 31
0.0
  0
LINE
  5
10A
  8
DRG
 10
440.03070259582779
 20
321.07546769979632
 30
0.0
 11
425.03070259582779
 21
321.07546769979632
 31
0.0
  0
LINE
  5
10B
  8
DRG2
 10
440.03070259582802
 20
326.24546769979622
 30
0.0
 11
449.03070259582802
 21
326.24546769979611
 31
0.0
  0
LINE
  5
10C
  8
DRG2
 10
449.03070259582802
 20
326.24546769979611
 30
0.0
 11
450.03070259582807
 21
327.24546769979611
 31
0.0
  0
ARC
  5
10D
  8
DRG
 10
448.0307025958279
 20
356.41546769979578
 30
0.0
 40
8.0
 50
90.0
 51
180.0
  0
LINE
  5
10E
  8
DRG2
 10
440.03070259582802
 20
342.50546769979621
 30
0.0
 11
449.03070259582802
 21
342.50546769979621
 31
0.0
  0
LINE
  5
10F
  8
DRG2
 10
450.03070259582807
 20
341.50546769979621
 30
0.0
 11
449.03070259582802
 21
342.50546769979621
 31
0.0
  0
LINE
  5
110
  8
DRG2
 10
450.03070259582807
 20
398.0874123213859
 30
0.0
 11
450.03070259582807
 21
383.82741232138568
 31
0.0
  0
LINE
  5
111
  8
DRG
 10
449.03070259582802
 20
382.82741232138579
 30
0.0
 11
450.03070259582807
 21
383.82741232138568
 31
0.0
  0
LINE
  5
112
  8
DRG2
 10
440.03070259582802
 20
382.82741232138591
 30
0.0
 11
449.03070259582802
 21
382.82741232138579
 31
0.0
  0
SOLID
  5
113
  8
DIM
 10
504.23070259582801
 20
286.24158963269201
 30
0.0
 11
504.23070259582801
 21
283.57492296602533
 31
0.0
 12
512.23070259582801
 22
284.90825629935858
 32
0.0
 13
512.23070259582801
 23
284.90825629935858
 33
0.0
  0
SOLID
  5
114
  8
DIM
 10
525.23070259582801
 20
286.24158963269201
 30
0.0
 11
525.23070259582801
 21
283.57492296602533
 31
0.0
 12
517.23070259582789
 22
284.90825629935858
 32
0.0
 13
517.23070259582789
 23
284.90825629935858
 33
0.0
  0
LINE
  5
115
  8
DRG
 10
512.23070259582812
 20
415.2331026706928
 30
0.0
 11
448.0307025958279
 21
415.2331026706928
 31
0.0
  0
LINE
  5
116
  8
HID
 10
404.23070259582818
 20
462.365467699796
 30
0.0
 11
457.93070259582811
 21
462.365467699796
 31
0.0
  0
ARC
  5
117
  8
DRG
 10
448.0307025958279
 20
407.2331026706928
 30
0.0
 40
8.0
 50
90.0
 51
180.0
  0
LINE
  5
118
  8
DRG2
 10
440.03070259582802
 20
399.08741232138578
 30
0.0
 11
449.03070259582802
 21
399.08741232138578
 31
0.0
  0
LINE
  5
119
  8
HID
 10
400.23070259582818
 20
464.45546769979597
 30
0.0
 11
380.78070259582819
 21
464.45546769979597
 31
0.0
  0
LINE
  5
11A
  8
HID
 10
400.23070259582818
 20
463.15546769979608
 30
0.0
 11
380.78070259582819
 21
463.15546769979608
 31
0.0
  0
LINE
  5
11B
  8
HID
 10
404.23070259582801
 20
464.63546769979598
 30
0.0
 11
400.23070259582818
 21
464.63546769979598
 31
0.0
  0
LINE
  5
11C
  8
HID
 10
400.23070259582818
 20
464.63546769979598
 30
0.0
 11
400.23070259582818
 21
463.15546769979608
 31
0.0
  0
LINE
  5
11D
  8
HID
 10
404.23070259582818
 20
464.63546769979598
 30
0.0
 11
404.23070259582818
 21
462.365467699796
 31
0.0
  0
LINE
  5
11E
  8
HID
 10
478.8807025958281
 20
462.22546769979601
 30
0.0
 11
478.8807025958281
 21
442.19546769979598
 31
0.0
  0
LINE
  5
11F
  8
HID
 10
457.93070259582811
 20
462.365467699796
 30
0.0
 11
457.93070259582811
 21
442.19546769979598
 31
0.0
  0
LINE
  5
120
  8
HID
 10
457.93070259582811
 20
442.19546769979598
 30
0.0
 11
478.8807025958281
 21
442.19546769979598
 31
0.0
  0
LINE
  5
121
  8
DRG
 10
512.23070259582801
 20
438.17546769979612
 30
0.0
 11
517.23070259582789
 21
438.17546769979612
 31
0.0
  0
LINE
  5
122
  8
HID
 10
478.8807025958281
 20
462.22546769979601
 30
0.0
 11
494.03070259582819
 21
462.22546769979601
 31
0.0
  0
TEXT
  5
123
  8
DIM
 10
543.92628449061874
 20
289.40825629935858
 30
0.0
 40
7.0
  1
5
 72
     4
 11
546.25961782395211
 21
292.9082562993587
 31
0.0
  0
SOLID
  5
124
  8
DIM
 10
574.44495353174671
 20
446.17546769979612
 30
0.0
 11
577.11162019841345
 21
446.17546769979612
 31
0.0
 12
575.77828686507996
 22
438.17546769979612
 32
0.0
 13
575.77828686507996
 23
438.17546769979612
 33
0.0
  0
LINE
  5
125
  8
DIM
 10
519.79931634309708
 20
615.97546769979613
 30
0.0
 11
577.77828686508008
 21
615.97546769979613
 31
0.0
  0
LINE
  5
126
  8
DRG
 10
440.03070259582802
 20
733.07546769979615
 30
0.0
 11
440.03070259582768
 21
597.77660324256203
 31
0.0
  0
LINE
  5
127
  8
DRG
 10
395.03070259583188
 20
713.79241371822923
 30
0.0
 11
395.03070259583069
 21
597.77660324256203
 31
0.0
  0
TEXT
  5
128
  8
DIM
 10
421.30244898577519
 20
539.00202849932248
 30
0.0
 40
7.0
  1
(4.45")
 72
     4
 11
438.96911565244187
 21
542.00202849932236
 31
0.0
  0
LINE
  5
129
  8
HID
 10
404.23070259582818
 20
591.78546769979596
 30
0.0
 11
457.93070259582811
 21
591.78546769979596
 31
0.0
  0
LINE
  5
12A
  8
DIM
 10
386.88070259582793
 20
549.73362788119744
 30
0.0
 11
488.03070259582807
 21
549.73362788119744
 31
0.0
  0
SOLID
  5
12B
  8
DIM
 10
388.88050259582792
 20
551.06692788119744
 30
0.0
 11
388.88050259582792
 21
548.40032788119743
 31
0.0
 12
380.88070259582781
 22
549.73362788119744
 32
0.0
 13
380.88070259582781
 23
549.73362788119744
 33
0.0
  0
TEXT
  5
12C
  8
DIM
 10
431.30244898577519
 20
553.96522726307205
 30
0.0
 40
7.0
  1
113
 72
     4
 11
438.96911565244187
 21
557.46522726307205
 31
0.0
  0
LINE
  5
12D
  8
HID
 10
400.23070259582818
 20
589.69546769979615
 30
0.0
 11
380.78070259582819
 21
589.69546769979615
 31
0.0
  0
LINE
  5
12E
  8
HID
 10
400.23070259582801
 20
590.99546769979611
 30
0.0
 11
380.78070259582819
 21
590.99546769979611
 31
0.0
  0
LINE
  5
12F
  8
HID
 10
404.23070259582818
 20
589.51546769979598
 30
0.0
 11
400.23070259582801
 21
589.51546769979598
 31
0.0
  0
LINE
  5
130
  8
HID
 10
400.23070259582801
 20
590.99546769979611
 30
0.0
 11
400.23070259582801
 21
589.51546769979598
 31
0.0
  0
LINE
  5
131
  8
HID
 10
404.23070259582818
 20
591.78546769979596
 30
0.0
 11
404.23070259582801
 21
589.51546769979598
 31
0.0
  0
SOLID
  5
132
  8
DIM
 10
486.03090259582808
 20
551.06692788119744
 30
0.0
 11
486.03090259582808
 21
548.40032788119743
 31
0.0
 12
494.03070259582819
 22
549.73362788119744
 32
0.0
 13
494.03070259582819
 23
549.73362788119744
 33
0.0
  0
LINE
  5
133
  8
HID
 10
478.8807025958281
 20
591.92546769979595
 30
0.0
 11
494.03070259582819
 21
591.92546769979617
 31
0.0
  0
LINE
  5
134
  8
HID
 10
478.8807025958281
 20
611.95546769979615
 30
0.0
 11
478.8807025958281
 21
591.92546769979595
 31
0.0
  0
LINE
  5
135
  8
HID
 10
457.93070259582811
 20
611.95546769979615
 30
0.0
 11
457.93070259582811
 21
591.78546769979596
 31
0.0
  0
LINE
  5
136
  8
HID
 10
457.93070259582811
 20
611.95546769979615
 30
0.0
 11
478.8807025958281
 21
611.95546769979615
 31
0.0
  0
LINE
  5
137
  8
DRG
 10
512.23070259582812
 20
615.97546769979613
 30
0.0
 11
517.23070259582812
 21
615.97546769979613
 31
0.0
  0
LINE
  5
138
  8
DRG
 10
512.23070259582812
 20
638.91783272889938
 30
0.0
 11
448.0307025958279
 21
638.91783272889938
 31
0.0
  0
LINE
  5
139
  8
DRG
 10
512.23070259582812
 20
689.73546769979635
 30
0.0
 11
448.0307025958279
 21
689.73546769979635
 31
0.0
  0
LINE
  5
13A
  8
CRS
 10
420.11483848098402
 20
663.19352307820645
 30
0.0
 11
454.23664183300599
 21
663.19352307820645
 31
0.0
  0
LINE
  5
13B
  8
CRS
 10
420.11483848098402
 20
719.77546769979597
 30
0.0
 11
454.23664183300599
 21
719.77546769979597
 31
0.0
  0
ARC
  5
13C
  8
DRG
 10
448.0307025958279
 20
697.73546769979635
 30
0.0
 40
8.0
 50
179.99999999999989
 51
270.0
  0
LINE
  5
13D
  8
DRG2
 10
449.03070259582802
 20
671.32352307820645
 30
0.0
 11
449.03070259582802
 21
655.06352307820634
 31
0.0
  0
LINE
  5
13E
  8
DRG2
 10
450.03070259582807
 20
656.06352307820634
 30
0.0
 11
450.03070259582807
 21
670.32352307820645
 31
0.0
  0
ARC
  5
13F
  8
DRG
 10
448.0307025958279
 20
646.91783272889927
 30
0.0
 40
8.0
 50
179.99999999999989
 51
270.0
  0
LINE
  5
140
  8
DRG2
 10
440.03070259582802
 20
655.06352307820634
 30
0.0
 11
449.03070259582802
 21
655.06352307820634
 31
0.0
  0
LINE
  5
141
  8
DRG2
 10
450.03070259582807
 20
656.06352307820634
 30
0.0
 11
449.03070259582802
 21
655.06352307820634
 31
0.0
  0
LINE
  5
142
  8
DRG2
 10
440.03070259582802
 20
671.32352307820634
 30
0.0
 11
449.03070259582802
 21
671.32352307820645
 31
0.0
  0
LINE
  5
143
  8
DRG2
 10
449.03070259582802
 20
671.32352307820645
 30
0.0
 11
450.03070259582807
 21
670.32352307820645
 31
0.0
  0
LINE
  5
144
  8
CRS
 10
392.87492098066792
 20
743.22546769979613
 30
0.0
 11
432.1974108402452
 21
743.22546769979613
 31
0.0
  0
ARC
  5
145
  8
DRG
 10
401.03070259583188
 20
713.79241371822923
 30
0.0
 40
6.0
 50
90.0
 51
180.0
  0
ARC
  5
146
  8
DRG
 10
412.03070259582779
 20
725.77546769979608
 30
0.0
 40
6.0
 50
180.0
 51
269.9999999999996
  0
LINE
  5
147
  8
DRG2
 10
449.03070259582802
 20
727.90546769979619
 30
0.0
 11
449.03070259582802
 21
711.64546769979586
 31
0.0
  0
LINE
  5
148
  8
DRG2
 10
450.03070259582807
 20
712.64546769979586
 30
0.0
 11
450.03070259582807
 21
726.90546769979619
 31
0.0
  0
LINE
  5
149
  8
DRG2
 10
440.03070259582802
 20
711.64546769979586
 30
0.0
 11
449.03070259582802
 21
711.64546769979586
 31
0.0
  0
LINE
  5
14A
  8
DRG2
 10
450.03070259582807
 20
712.64546769979586
 30
0.0
 11
449.03070259582802
 21
711.64546769979586
 31
0.0
  0
LINE
  5
14B
  8
DRG
 10
440.03070259582802
 20
733.07546769979615
 30
0.0
 11
425.03070259582807
 21
733.07546769979615
 31
0.0
  0
LINE
  5
14C
  8
DRG2
 10
440.03070259582802
 20
727.90546769979585
 30
0.0
 11
449.03070259582802
 21
727.90546769979619
 31
0.0
  0
LINE
  5
14D
  8
DRG2
 10
449.03070259582802
 20
727.90546769979619
 30
0.0
 11
450.03070259582807
 21
726.90546769979619
 31
0.0
  0
SOLID
  5
14E
  8
DIM
 10
574.44495353174671
 20
607.97546769979613
 30
0.0
 11
577.11162019841345
 21
607.97546769979613
 31
0.0
 12
575.77828686507996
 22
615.97546769979613
 32
0.0
 13
575.77828686507996
 23
615.97546769979613
 33
0.0
  0
ARC
  5
14F
  8
DRG
 10
956.40254435811994
 20
527.07546769979615
 30
0.0
 40
88.899999999999864
 50
90.000000000000071
 51
269.99999999999977
  0
ARC
  5
150
  8
DRG
 10
956.40254435811994
 20
527.07546769979615
 30
0.0
 40
120.0
 50
90.0
 51
270.0
  0
ARC
  5
151
  8
DRG
 10
956.40254435811994
 20
527.07546769979615
 30
0.0
 40
65.084999999999994
 50
90.0
 51
270.0
  0
ARC
  5
152
  8
DRG
 10
956.40254435811994
 20
527.07546769979615
 30
0.0
 40
130.0
 50
171.977285176132
 51
188.02226080427221
  0
ARC
  5
153
  8
DRG
 10
956.40254435811994
 20
527.07546769979615
 30
0.0
 40
175.0
 50
171.80800531019921
 51
188.1915406702052
  0
LINE
  5
154
  8
CRS
  6
BYBLOCK
 10
763.90254435811937
 20
521.07546769979638
 30
0.0
 11
763.90254435811937
 21
515.5754676997966
 31
0.0
  0
ARC
  5
155
  8
DRG
 10
956.40254435811994
 20
527.07546769979615
 30
0.0
 40
206.0
 50
90.0
 51
270.0
  0
SOLID
  5
156
  8
DIM
 10
990.23294060528087
 20
518.60297738089139
 30
0.0
 11
989.48668435449918
 21
516.04285771195396
 31
0.0
 12
997.54017148670255
 22
515.08414879407735
 32
0.0
 13
997.54017148670255
 23
515.08414879407735
 33
0.0
  0
ARC
  5
157
  8
DRG
 10
844.56017932901671
 20
442.8656975736593
 30
0.0
 40
10.0
 50
36.977285176132177
 51
112.49977299020181
  0
ARC
  5
158
  8
DRG
 10
956.40254435811994
 20
527.07546769979615
 30
0.0
 40
175.0
 50
216.80800531019921
 51
233.191540670205
  0
CIRCLE
  5
159
  8
DRG2
 10
820.28448897970975
 20
390.95741232138562
 30
0.0
 40
8.1349999999999998
  0
LINE
  5
15A
  8
CRS
  6
BYBLOCK
 10
820.28448897970975
 20
396.95741232138562
 30
0.0
 11
820.28448897970975
 21
402.4574123213855
 31
0.0
  0
LINE
  5
15B
  8
DIM
 10
750.40254435811983
 20
498.9991462477692
 30
0.0
 11
750.40254435811983
 21
282.9082562993587
 31
0.0
  0
SOLID
  5
15C
  8
DIM
 10
758.40254435811983
 20
286.24158963269213
 30
0.0
 11
758.40254435811983
 21
283.57492296602533
 31
0.0
 12
750.40254435811983
 22
284.9082562993587
 32
0.0
 13
750.40254435811983
 23
284.9082562993587
 33
0.0
  0
POLYLINE
  5
15D
  8
DRG2
 66
     1
 10
0.0
 20
0.0
 30
0.0
 70
     1
  0
VERTEX
  5
4D7
  8
DRG2
 10
817.97508790295115
 20
394.95741232138568
 30
0.0
  0
VERTEX
  5
4D8
  8
DRG2
 10
815.66568682619265
 20
390.95741232138562
 30
0.0
  0
VERTEX
  5
4D9
  8
DRG2
 10
817.97508790295115
 20
386.95741232138562
 30
0.0
  0
VERTEX
  5
4DA
  8
DRG2
 10
822.5938900564679
 20
386.95741232138562
 30
0.0
  0
VERTEX
  5
4DB
  8
DRG2
 10
824.90329113322662
 20
390.95741232138562
 30
0.0
  0
VERTEX
  5
4DC
  8
DRG2
 10
822.5938900564679
 20
394.95741232138568
 30
0.0
  0
SEQEND
  5
4DD
  8
DRG2
  0
CIRCLE
  5
15E
  8
DRG2
 10
820.28448897970975
 20
390.95741232138562
 30
0.0
 40
7.1349999999999989
  0
LINE
  5
15F
  8
CRS
  6
BYBLOCK
 10
814.28448897970964
 20
390.95741232138562
 30
0.0
 11
808.78448897970964
 21
390.95741232138562
 31
0.0
  0
LINE
  5
160
  8
CRS
  6
BYBLOCK
 10
820.28448897970975
 20
387.95741232138562
 30
0.0
 11
820.28448897970975
 21
393.95741232138562
 31
0.0
  0
LINE
  5
161
  8
CRS
  6
BYBLOCK
 10
820.28448897970975
 20
384.95741232138568
 30
0.0
 11
820.28448897970975
 21
379.45741232138579
 31
0.0
  0
LINE
  5
162
  8
CRS
  6
BYBLOCK
 10
823.28448897970964
 20
390.95741232138562
 30
0.0
 11
817.28448897970964
 21
390.95741232138562
 31
0.0
  0
LINE
  5
163
  8
CRS
  6
BYBLOCK
 10
826.28448897970952
 20
390.95741232138562
 30
0.0
 11
831.78448897970975
 21
390.95741232138562
 31
0.0
  0
LINE
  5
164
  8
CRS
 10
818.5368473778268
 20
455.44398627134268
 30
0.0
 11
818.5368473778268
 21
484.49398627134809
 31
0.0
  0
ARC
  5
165
  8
DRG
 10
818.74254435811986
 20
470.05546769979622
 30
0.0
 40
25.0
 50
112.49977299020181
 51
292.49977299020179
  0
ARC
  5
166
  8
DRG
 10
828.29891745527311
 20
431.21379248839469
 30
0.0
 40
15.0
 50
103.8221769335222
 51
216.80800531019921
  0
LINE
  5
167
  8
DRG
 10
828.30953865532433
 20
446.95844148174677
 30
0.0
 11
840.7333816101351
 21
452.1045080608788
 31
0.0
  0
LINE
  5
168
  8
CRS
 10
804.0118473778241
 20
469.96898627134527
 30
0.0
 11
833.06184737782962
 21
469.96898627134527
 31
0.0
  0
ARC
  5
169
  8
DRG
 10
798.03497982915883
 20
504.27821994561822
 30
0.0
 40
15.0
 50
188.191540670205
 51
301.17736904688189
  0
CIRCLE
  5
16A
  8
DRG2
 10
818.5368473778268
 20
469.96898627134527
 30
0.0
 40
8.2867499999999996
  0
ARC
  5
16B
  8
DRG2
 10
818.5368473778268
 20
469.96898627134527
 30
0.0
 40
9.5250000000000004
 50
64.449307424901917
 51
23.332267879566491
  0
ARC
  5
16C
  8
DRG
 10
817.7725952968442
 20
507.53737098419708
 30
0.0
 40
10.0
 50
292.49977299020208
 51
8.0222608042725341
  0
LINE
  5
16D
  8
DRG
 10
809.17555006091527
 20
493.1524939178455
 30
0.0
 11
821.59939301572615
 21
498.29856049697742
 31
0.0
  0
ARC
  5
16E
  8
DRG2
 10
899.29715539810616
 20
389.20931820426
 30
0.0
 40
9.5250000000000004
 50
64.449307424901917
 51
23.332267879566491
  0
LINE
  5
16F
  8
CRS
 10
899.29715539810616
 20
403.73431820426271
 30
0.0
 11
899.29715539810616
 21
374.68431820425741
 31
0.0
  0
ARC
  5
170
  8
DRG
 10
936.86334912045118
 20
388.44567346542459
 30
0.0
 40
10.0
 50
81.977285176132185
 51
157.49977299020179
  0
ARC
  5
171
  8
DRG
 10
899.38145352323613
 20
389.41591953839918
 30
0.0
 40
25.0
 50
157.49977299020239
 51
337.49977299020202
  0
ARC
  5
172
  8
DRG
 10
933.60404167840943
 20
368.7080838243175
 30
0.0
 40
15.0
 50
148.8221769335224
 51
261.80800531019901
  0
TEXT
  5
173
  8
DIM
 10
883.50272731267853
 20
289.4082562993587
 30
0.0
 40
7.0
  1
%%C412
 72
     4
 11
895.00272731267853
 21
292.9082562993587
 31
0.0
  0
ARC
  5
174
  8
DRG
 10
860.53985403906199
 20
398.97260042200099
 30
0.0
 40
15.0
 50
233.1915406702052
 51
346.17736904688161
  0
CIRCLE
  5
175
  8
DRG2
 10
899.29715539810616
 20
389.20931820426
 30
0.0
 40
8.2867499999999996
  0
LINE
  5
176
  8
CRS
 10
884.77215539810345
 20
389.20931820426
 30
0.0
 11
913.82215539810875
 21
389.20931820426
 31
0.0
  0
ARC
  5
177
  8
DRG2
 10
956.40254435811994
 20
334.57546769979632
 30
0.0
 40
7.1349999999999989
 50
90.000000000000895
 51
269.99999999999898
  0
ARC
  5
178
  8
DRG2
 10
956.40254435811994
 20
334.57546769979632
 30
0.0
 40
8.1349999999999998
 50
90.000000000000796
 51
269.9999999999992
  0
POLYLINE
  5
179
  8
DRG2
 66
     1
 10
0.0
 20
0.0
 30
0.0
  0
VERTEX
  5
4DE
  8
DRG2
 10
956.40254435811971
 20
338.57546769979632
 30
0.0
  0
VERTEX
  5
4DF
  8
DRG2
 10
954.09314328136145
 20
338.57546769979632
 30
0.0
  0
SEQEND
  5
4E0
  8
DRG2
  0
POLYLINE
  5
17A
  8
DRG2
 66
     1
 10
0.0
 20
0.0
 30
0.0
  0
VERTEX
  5
4E1
  8
DRG2
 10
954.09314328136145
 20
338.57546769979632
 30
0.0
  0
VERTEX
  5
4E2
  8
DRG2
 10
951.78374220460285
 20
334.57546769979632
 30
0.0
  0
VERTEX
  5
4E3
  8
DRG2
 10
954.09314328136145
 20
330.57546769979632
 30
0.0
  0
VERTEX
  5
4E4
  8
DRG2
 10
956.40254435811971
 20
330.57546769979632
 30
0.0
  0
SEQEND
  5
4E5
  8
DRG2
  0
LINE
  5
17B
  8
CRS
  6
BYBLOCK
 10
950.40254435812017
 20
334.57546769979638
 30
0.0
 11
944.90254435812017
 21
334.57546769979638
 31
0.0
  0
LINE
  5
17C
  8
CRS
  6
BYBLOCK
 10
953.40254435812028
 20
334.57546769979638
 30
0.0
 11
959.40254435812017
 21
334.57546769979638
 31
0.0
  0
ARC
  5
17D
  8
DRG
 10
956.40254435811994
 20
527.07546769979615
 30
0.0
 40
175.0
 50
261.80800531019901
 51
270.0
  0
ARC
  5
17E
  8
DRG
 10
956.40254435811994
 20
527.07546769979615
 30
0.0
 40
130.0
 50
261.97728517613189
 51
270.0
  0
LINE
  5
17F
  8
DRG
 10
922.47840393038894
 20
379.84874221749931
 30
0.0
 11
927.62456895759078
 21
392.2725443937843
 31
0.0
  0
ARC
  5
180
  8
DRG
 10
872.19188798042444
 20
415.23376996394393
 30
0.0
 40
10.0
 50
337.49977299020219
 51
53.022260804272527
  0
ARC
  5
181
  8
DRG
 10
956.40254435811994
 20
527.07546769979615
 30
0.0
 40
130.0
 50
216.97728517613211
 51
233.02226080427209
  0
LINE
  5
182
  8
DRG
 10
876.2845031160839
 20
398.983096859299
 30
0.0
 11
881.43066814328574
 21
411.40689903558399
 31
0.0
  0
ARC
  5
183
  8
DRG
 10
844.56084662226738
 20
611.28612407749108
 30
0.0
 40
10.0
 50
247.49977299020219
 51
323.02226080427249
  0
ARC
  5
184
  8
DRG
 10
956.40254435811994
 20
527.07546769979615
 30
0.0
 40
175.0
 50
126.80800531019921
 51
143.1915406702052
  0
LINE
  5
185
  8
CRS
 10
972.85053428200831
 20
527.07546769979615
 30
0.0
 11
739.55204571012575
 21
527.07546769979615
 31
0.0
  0
POLYLINE
  5
186
  8
DRG2
 66
     1
 10
0.0
 20
0.0
 30
0.0
 70
     1
  0
VERTEX
  5
4E6
  8
DRG2
 10
761.59314328136099
 20
531.07546769979604
 30
0.0
  0
VERTEX
  5
4E7
  8
DRG2
 10
759.28374220460239
 20
527.07546769979604
 30
0.0
  0
VERTEX
  5
4E8
  8
DRG2
 10
761.59314328136099
 20
523.07546769979604
 30
0.0
  0
VERTEX
  5
4E9
  8
DRG2
 10
766.21194543487775
 20
523.07546769979604
 30
0.0
  0
VERTEX
  5
4EA
  8
DRG2
 10
768.52134651163635
 20
527.07546769979604
 30
0.0
  0
VERTEX
  5
4EB
  8
DRG2
 10
766.21194543487775
 20
531.07546769979604
 30
0.0
  0
SEQEND
  5
4EC
  8
DRG2
  0
CIRCLE
  5
187
  8
DRG2
 10
763.90254435811937
 20
527.07546769979604
 30
0.0
 40
7.1349999999999989
  0
CIRCLE
  5
188
  8
DRG2
 10
763.90254435811937
 20
527.07546769979604
 30
0.0
 40
8.1349999999999998
  0
LINE
  5
189
  8
CRS
  6
BYBLOCK
 10
763.90254435811937
 20
524.07546769979649
 30
0.0
 11
763.90254435811937
 21
530.07546769979638
 31
0.0
  0
LINE
  5
18A
  8
CRS
  6
BYBLOCK
 10
763.90254435811937
 20
533.07546769979649
 30
0.0
 11
763.90254435811937
 21
538.57546769979638
 31
0.0
  0
LINE
  5
18B
  8
CRS
 10
818.5368473778268
 20
598.7069491282499
 30
0.0
 11
818.5368473778268
 21
569.65694912824461
 31
0.0
  0
ARC
  5
18C
  8
DIM
 10
956.40254435811994
 20
527.07546769979592
 30
0.0
 40
175.0
 50
162.02056876816101
 51
168.81170887158089
  0
ARC
  5
18D
  8
DRG
 10
818.74299619672274
 20
584.09655853467962
 30
0.0
 40
25.0
 50
67.499772990202075
 51
247.49977299020139
  0
SOLID
  5
18E
  8
DIM
 10
795.70192196552057
 20
572.52970557053231
 30
0.0
 11
796.44817821630215
 21
575.08982523946997
 31
0.0
 12
788.39469108409901
 22
576.04853415734635
 32
0.0
 13
788.39469108409901
 23
576.04853415734635
 33
0.0
  0
ARC
  5
18F
  8
DRG
 10
798.035160482641
 20
549.87397037950632
 30
0.0
 40
15.0
 50
58.822176933522343
 51
171.80800531019921
  0
ARC
  5
190
  8
DRG
 10
817.77275012374798
 20
546.61466293746446
 30
0.0
 40
10.0
 50
351.97728517613223
 51
67.499772990201834
  0
LINE
  5
191
  8
DRG
 10
809.17581887582298
 20
560.99960812752681
 30
0.0
 11
821.59962105210798
 21
555.85344310032508
 31
0.0
  0
LINE
  5
192
  8
CRS
 10
804.0118473778241
 20
584.18194912824708
 30
0.0
 11
833.06184737782962
 21
584.18194912824708
 31
0.0
  0
LINE
  5
193
  8
DRG
 10
828.3101735176225
 20
607.19350894183185
 30
0.0
 11
840.73397569390772
 21
602.04734391463012
 31
0.0
  0
CIRCLE
  5
194
  8
DRG2
 10
818.5368473778268
 20
584.18194912824708
 30
0.0
 40
8.2867499999999996
  0
ARC
  5
195
  8
DRG2
 10
818.5368473778268
 20
584.18194912824708
 30
0.0
 40
9.5250000000000004
 50
64.449307424901917
 51
23.332267879566491
  0
ARC
  5
196
  8
DRG
 10
828.29967708032439
 20
622.93815801885376
 30
0.0
 40
15.0
 50
143.1915406702054
 51
256.17736904688189
  0
LINE
  5
197
  8
DIM
 10
748.11012377412681
 20
726.3093044545285
 30
0.0
 11
769.0599791682082
 21
726.3093044545285
 31
0.0
  0
LINE
  5
198
  8
DIM
 10
809.62309233296151
 20
675.27645804752183
 30
0.0
 11
769.05997916820809
 21
726.3093044545285
 31
0.0
  0
POLYLINE
  5
199
  8
DRG2
 66
     1
 10
0.0
 20
0.0
 30
0.0
 70
     1
  0
VERTEX
  5
4ED
  8
DRG2
 10
817.97508790295035
 20
667.19352307820645
 30
0.0
  0
VERTEX
  5
4EE
  8
DRG2
 10
815.66568682619186
 20
663.19352307820645
 30
0.0
  0
VERTEX
  5
4EF
  8
DRG2
 10
817.97508790295035
 20
659.19352307820645
 30
0.0
  0
VERTEX
  5
4F0
  8
DRG2
 10
822.59389005646756
 20
659.19352307820645
 30
0.0
  0
VERTEX
  5
4F1
  8
DRG2
 10
824.90329113322593
 20
663.19352307820645
 30
0.0
  0
VERTEX
  5
4F2
  8
DRG2
 10
822.59389005646756
 20
667.19352307820645
 30
0.0
  0
SEQEND
  5
4F3
  8
DRG2
  0
CIRCLE
  5
19A
  8
DRG2
 10
820.28448897970895
 20
663.19352307820645
 30
0.0
 40
7.1349999999999989
  0
CIRCLE
  5
19B
  8
DRG2
 10
820.28448897970895
 20
663.19352307820645
 30
0.0
 40
8.1349999999999998
  0
LINE
  5
19C
  8
CRS
  6
BYBLOCK
 10
820.28448897970895
 20
660.19352307820645
 30
0.0
 11
820.28448897970895
 21
666.19352307820645
 31
0.0
  0
LINE
  5
19D
  8
CRS
  6
BYBLOCK
 10
820.28448897970895
 20
657.19352307820645
 30
0.0
 11
820.28448897970895
 21
651.69352307820668
 31
0.0
  0
LINE
  5
19E
  8
CRS
  6
BYBLOCK
 10
814.28448897970895
 20
663.19352307820645
 30
0.0
 11
808.78448897970895
 21
663.19352307820645
 31
0.0
  0
LINE
  5
19F
  8
CRS
  6
BYBLOCK
 10
823.28448897970895
 20
663.19352307820645
 30
0.0
 11
817.28448897970884
 21
663.19352307820645
 31
0.0
  0
LINE
  5
1A0
  8
CRS
  6
BYBLOCK
 10
820.28448897970895
 20
669.19352307820645
 30
0.0
 11
820.28448897970895
 21
674.69352307820645
 31
0.0
  0
SOLID
  5
1A1
  8
DIM
 10
810.66687118889683
 20
676.10609861890225
 30
0.0
 11
808.57931347702629
 21
674.4468174761414
 31
0.0
 12
814.60093576124382
 22
669.01378491191053
 32
0.0
 13
814.60093576124382
 23
669.01378491191053
 33
0.0
  0
LINE
  5
1A2
  8
CRS
  6
BYBLOCK
 10
826.28448897970895
 20
663.19352307820645
 30
0.0
 11
831.78448897970895
 21
663.19352307820645
 31
0.0
  0
ARC
  5
1A3
  8
DRG
 10
872.19277423198287
 20
638.91783272889916
 30
0.0
 40
10.0
 50
306.97728517613223
 51
22.499772990201851
  0
ARC
  5
1A4
  8
DRG
 10
956.40254435811994
 20
527.07546769979615
 30
0.0
 40
130.0
 50
126.977285176132
 51
143.02226080427221
  0
ARC
  5
1A5
  8
DRG
 10
933.60529660394172
 20
685.44303222875737
 30
0.0
 40
15.0
 50
98.191540670204887
 51
211.17736904688221
  0
ARC
  5
1A6
  8
DRG
 10
899.38254435811984
 20
664.73546769979612
 30
0.0
 40
25.0
 50
22.49977299020156
 51
202.49977299020151
  0
LINE
  5
1A7
  8
CRS
 10
963.96123837650259
 20
743.22546769979635
 30
0.0
 11
885.54439283874115
 21
743.22546769979635
 31
0.0
  0
ARC
  5
1A8
  8
DRG
 10
860.54086914671825
 20
655.17909460264298
 30
0.0
 40
15.0
 50
13.82217693352222
 51
126.80800531019921
  0
LINE
  5
1A9
  8
DRG
 10
876.28551814007062
 20
655.16847340259164
 30
0.0
 11
881.43158471920231
 21
642.74463044778088
 31
0.0
  0
CIRCLE
  5
1AA
  8
DRG2
 10
899.29715539810616
 20
664.94161719533247
 30
0.0
 40
8.2867499999999996
  0
ARC
  5
1AB
  8
DRG2
 10
899.29715539810616
 20
664.94161719533247
 30
0.0
 40
9.5250000000000004
 50
64.449307424901917
 51
23.332267879566491
  0
LINE
  5
1AC
  8
CRS
 10
899.29715539810616
 20
650.41661719532965
 30
0.0
 11
899.29715539810616
 21
679.46661719533517
 31
0.0
  0
LINE
  5
1AD
  8
CRS
 10
884.77215539810345
 20
664.94161719533247
 30
0.0
 11
913.82215539810875
 21
664.94161719533247
 31
0.0
  0
SOLID
  5
1AE
  8
DIM
 10
889.41989012301735
 20
679.47925914522625
 30
0.0
 11
891.73294859411999
 21
680.806237524994
 31
0.0
 12
894.55735449787255
 22
673.20357292180199
 32
0.0
 13
894.55735449787255
 23
673.20357292180199
 33
0.0
  0
LINE
  5
1AF
  8
DRG
 10
898.40254435811994
 20
743.42546769979606
 30
0.0
 11
898.40254435811994
 21
724.7418533094899
 31
0.0
  0
LINE
  5
1B0
  8
DRG
 10
922.47957057616907
 20
674.30246199700059
 30
0.0
 11
927.62563715530098
 21
661.87861904218994
 31
0.0
  0
ARC
  5
1B1
  8
DRG
 10
956.40254435811994
 20
527.07546769979615
 30
0.0
 40
130.0
 50
90.0
 51
98.022260804272307
  0
ARC
  5
1B2
  8
DRG
 10
936.86444764252076
 20
665.70541676107166
 30
0.0
 40
10.0
 50
202.49977299020219
 51
278.02226080427249
  0
POLYLINE
  5
1B3
  8
DRG2
 66
     1
 10
0.0
 20
0.0
 30
0.0
  0
VERTEX
  5
4F4
  8
DRG2
 10
954.09314328136145
 20
723.57546769979649
 30
0.0
  0
VERTEX
  5
4F5
  8
DRG2
 10
951.78374220460285
 20
719.57546769979649
 30
0.0
  0
VERTEX
  5
4F6
  8
DRG2
 10
954.09314328136145
 20
715.57546769979649
 30
0.0
  0
VERTEX
  5
4F7
  8
DRG2
 10
956.40254435811971
 20
715.57546769979649
 30
0.0
  0
SEQEND
  5
4F8
  8
DRG2
  0
ARC
  5
1B4
  8
DRG2
 10
956.40254435811994
 20
719.57546769979649
 30
0.0
 40
7.1349999999999989
 50
90.000000000000895
 51
269.99999999999898
  0
ARC
  5
1B5
  8
DRG2
 10
956.40254435811994
 20
719.57546769979649
 30
0.0
 40
8.1349999999999998
 50
90.000000000000796
 51
269.9999999999992
  0
ARC
  5
1B6
  8
DRG
 10
956.40254435811994
 20
527.07546769979615
 30
0.0
 40
175.0
 50
90.0
 51
98.191540670205185
  0
LINE
  5
1B7
  8
CRS
  6
BYBLOCK
 10
953.40254435812028
 20
719.57546769979649
 30
0.0
 11
958.78902620784856
 21
719.57546769979649
 31
0.0
  0
LINE
  5
1B8
  8
CRS
  6
BYBLOCK
 10
950.40254435812017
 20
719.57546769979649
 30
0.0
 11
944.90254435812017
 21
719.57546769979649
 31
0.0
  0
ARC
  5
1B9
  8
DRG
 10
925.40254435811983
 20
736.79671125895516
 30
0.0
 40
6.0
 50
278.40830462026918
 51
0.0
  0
LINE
  5
1BA
  8
DRG
 10
931.40254435811994
 20
743.42546769979606
 30
0.0
 11
931.40254435811994
 21
736.79671125895516
 31
0.0
  0
POLYLINE
  5
1BB
  8
DRG2
 66
     1
 10
0.0
 20
0.0
 30
0.0
  0
VERTEX
  5
4F9
  8
DRG2
 10
956.40254435811971
 20
723.57546769979649
 30
0.0
  0
VERTEX
  5
4FA
  8
DRG2
 10
954.09314328136145
 20
723.57546769979649
 30
0.0
  0
SEQEND
  5
4FB
  8
DRG2
  0
TEXT
  5
1BC
  8
TXT
 10
336.83333333333331
 20
1182.82078246997
 30
0.0
 40
7.0
  1
ISO F25
 72
     4
 11
357.0
 21
1186.32078246997
 31
0.0
  0
TEXT
  5
1BD
  8
TXT
 10
337.66666666666657
 20
1257.0207824699701
 30
0.0
 40
7.0
  1
ISO F16
 72
     4
 11
357.0
 21
1260.5207824699701
 31
0.0
  0
TEXT
  5
1BE
  8
TXT
 10
337.33333333333331
 20
1331.2207824699699
 30
0.0
 40
7.0
  1
ISO F14
 72
     4
 11
357.0
 21
1334.7207824699699
 31
0.0
  0
LINE
  5
1BF
  8
DRG
 10
357.03070259582779
 20
801.42546769979606
 30
0.0
 11
394.03070259582779
 21
801.42546769979606
 31
0.0
  0
LINE
  5
1C0
  8
CRS
 10
109.8411397329002
 20
883.17546769979606
 30
0.0
 11
404.2971280359551
 21
883.17546769979606
 31
0.0
  0
LINE
  5
1C1
  8
DIM
 10
377.0307025958279
 20
978.01377497417354
 30
0.0
 11
369.0307025958279
 21
978.01377497417354
 31
0.0
  0
LINE
  5
1C2
  8
DIM
 10
293.03070259582739
 20
1066.2090600425461
 30
0.0
 11
512.23070259582812
 21
1066.2090600425461
 31
0.0
  0
LINE
  5
1C3
  8
DRG
 10
370.0307025958291
 20
823.17546769979617
 30
0.0
 11
385.03070259582921
 21
823.17546769979617
 31
0.0
  0
LINE
  5
1C4
  8
DRG
 10
370.03070259582643
 20
943.17546769979606
 30
0.0
 11
385.03070259582643
 21
943.17546769979606
 31
0.0
  0
LINE
  5
1C5
  8
DRG2
 10
322.0
 20
1130.6707824699699
 30
0.0
 11
322.0
 21
1412.7707824699689
 31
0.0
  0
LINE
  5
1C6
  8
DRG
 10
287.80992001627777
 20
1310.4127778224531
 30
0.0
 11
287.80992001627777
 21
1190.412777822452
 31
0.0
  0
LINE
  5
1C7
  8
HID
 10
182.83492001627801
 20
1325.5977778224519
 30
0.0
 11
182.83492001627801
 21
1175.227777822452
 31
0.0
  0
LINE
  5
1C8
  8
DRG
 10
197.83492001627801
 20
1400.412777822452
 30
0.0
 11
197.83492001627801
 21
1100.412777822452
 31
0.0
  0
LINE
  5
1C9
  8
DRG
 10
177.83492001627801
 20
1400.412777822452
 30
0.0
 11
177.83492001627801
 21
1100.412777822452
 31
0.0
  0
LINE
  5
1CA
  8
DRG
 10
271.55992001627823
 20
1310.4127778224531
 30
0.0
 11
271.55992001627823
 21
1190.412777822452
 31
0.0
  0
TEXT
  5
1CB
  8
DIM
 10
74.334920016278488
 20
1196.829648246513
 30
0.0
 40
7.0
  1
FOR INPUT OPTIONS
 50
90.0
 72
     4
 11
70.834920016278488
 21
1249.662981579846
 31
0.0
  0
LINE
  5
1CC
  8
DIM
 10
77.834920016278033
 20
1100.412777822452
 30
0.0
 11
77.834920016278474
 21
1400.4127778224531
 31
0.0
  0
TEXT
  5
1CD
  8
DIM
 10
65.430808254635849
 20
777.22722798303414
 30
0.0
 40
7.0
  1
%%c30.00 -0.05
 50
90.0
 72
     4
 11
61.930808254635849
 21
813.5605613163674
 31
0.0
  0
LINE
  5
1CE
  8
DIM
 10
270.03070259582751
 20
945.79664198333353
 30
0.0
 11
270.03070259582751
 21
1015.841040300147
 31
0.0
  0
LINE
  5
1CF
  8
DIM
 10
285.03070259582739
 20
950.79664198333353
 30
0.0
 11
285.03070259582739
 21
1068.2090600425461
 31
0.0
  0
LINE
  5
1D0
  8
DIM
 10
115.03070259582771
 20
899.29664198333353
 30
0.0
 11
115.03070259582771
 21
1068.2090600425461
 31
0.0
  0
LINE
  5
1D1
  8
DIM
 10
120.03070259582751
 20
903.79664198333364
 30
0.0
 11
120.03070259582751
 21
1017.931751312714
 31
0.0
  0
TEXT
  5
1D2
  8
DIM
 10
200.6650979611278
 20
939.17709009831287
 30
0.0
 40
7.0
  1
KEY
 72
     4
 11
209.99843129446111
 21
942.67709009831287
 31
0.0
  0
TEXT
  5
1D3
  8
DIM
 10
159.6650979611278
 20
951.67709009831287
 30
0.0
 40
7.0
  1
(0.31"x0.28"x2.17")
 72
     4
 11
209.99843129446111
 21
954.67709009831276
 31
0.0
  0
TEXT
  5
1D4
  8
DIM
 10
191.99843129446111
 20
963.17709009831287
 30
0.0
 40
7.0
  1
8x7x55
 72
     4
 11
209.99843129446111
 21
966.67709009831287
 31
0.0
  0
LINE
  5
1D5
  8
DRG
 10
180.03070259582759
 20
908.17546769979606
 30
0.0
 11
264.03070259582762
 21
908.17546769979606
 31
0.0
  0
LINE
  5
1D6
  8
DRG
 10
180.03070259582759
 20
858.17546769979606
 30
0.0
 11
264.03070259582779
 21
858.17546769979629
 31
0.0
  0
LINE
  5
1D7
  8
DIM
 10
115.03070259582751
 20
868.29664198333342
 30
0.0
 11
115.03070259582751
 21
771.22316462637275
 31
0.0
  0
LINE
  5
1D8
  8
DIM
 10
69.930808254635849
 20
898.79664198333376
 30
0.0
 11
69.930808254635849
 21
766.10648310895203
 31
0.0
  0
LINE
  5
1D9
  8
DRG
 10
180.03070259582759
 20
908.17546769979606
 30
0.0
 11
180.03070259582759
 21
858.17546769979606
 31
0.0
  0
TEXT
  5
1DA
  8
DIM
 10
129.86403592916091
 20
762.22316462637275
 30
0.0
 40
7.0
  1
(2.56")
 72
     4
 11
147.53070259582759
 21
765.22316462637286
 31
0.0
  0
LINE
  5
1DB
  8
DIM
 10
123.03070259582751
 20
773.22316462637275
 30
0.0
 11
172.03070259582759
 21
773.22316462637275
 31
0.0
  0
TEXT
  5
1DC
  8
DIM
 10
80.469200110657994
 20
765.38649239732126
 30
0.0
 40
7.0
  1
(%%c1.181" -0.002")
 50
90.0
 72
     4
 11
77.469200110657994
 21
812.55315906398801
 31
0.0
  0
SOLID
  5
1DD
  8
DIM
 10
123.03070259582751
 20
774.55649795970635
 30
0.0
 11
123.03070259582751
 21
771.88983129303961
 31
0.0
 12
115.03070259582751
 22
773.22316462637275
 32
0.0
 13
115.03070259582751
 23
773.22316462637275
 33
0.0
  0
LINE
  5
1DE
  8
DIM
 10
180.03070259582759
 20
856.79664198333364
 30
0.0
 11
180.03070259582759
 21
771.22316462637275
 31
0.0
  0
SOLID
  5
1DF
  8
DIM
 10
172.03070259582759
 20
774.55649795970635
 30
0.0
 11
172.03070259582759
 21
771.88983129303961
 31
0.0
 12
180.03070259582759
 22
773.22316462637275
 32
0.0
 13
180.03070259582759
 23
773.22316462637275
 33
0.0
  0
TEXT
  5
1E0
  8
DIM
 10
141.86403592916091
 20
777.72316462637286
 30
0.0
 40
7.0
  1
65
 72
     1
 11
147.53070259582759
 21
781.22316462637275
 31
0.0
 73
     2
  0
LINE
  5
1E1
  8
DIM
 10
156.36800493718459
 20
954.67709009831276
 30
0.0
 11
138.27812105590689
 21
954.67709009831276
 31
0.0
  0
LINE
  5
1E2
  8
DIM
 10
148.4427834542937
 20
908.98457419974943
 30
0.0
 11
138.27812105590689
 21
954.67709009831276
 31
0.0
  0
LINE
  5
1E3
  8
DRG
 10
120.03070259582751
 20
901.17546769979651
 30
0.0
 11
175.28070259582779
 21
901.17546769979651
 31
0.0
  0
LINE
  5
1E4
  8
DRG
 10
116.5307025958279
 20
898.17546769979617
 30
0.0
 11
180.03070259582779
 21
898.17546769979617
 31
0.0
  0
LINE
  5
1E5
  8
DRG
 10
116.53070259582751
 20
868.17546769979606
 30
0.0
 11
180.03070259582759
 21
868.17546769979606
 31
0.0
  0
LINE
  5
1E6
  8
DIM
 10
114.53070259582751
 20
898.79664198333376
 30
0.0
 11
67.930808254635849
 21
898.79664198333376
 31
0.0
  0
LINE
  5
1E7
  8
DIM
 10
114.53070259582751
 20
868.79664198333353
 30
0.0
 11
67.930808254635849
 21
868.79664198333353
 31
0.0
  0
SOLID
  5
1E8
  8
DIM
 10
68.597474921302592
 20
890.79664198333376
 30
0.0
 11
71.264141587969107
 21
890.79664198333376
 31
0.0
 12
69.930808254635849
 22
898.79664198333376
 32
0.0
 13
69.930808254635849
 23
898.79664198333376
 33
0.0
  0
SOLID
  5
1E9
  8
DIM
 10
68.597474921302592
 20
876.79664198333353
 30
0.0
 11
71.264141587969107
 21
876.79664198333353
 31
0.0
 12
69.930808254635849
 22
868.79664198333353
 32
0.0
 13
69.930808254635849
 23
868.79664198333353
 33
0.0
  0
LINE
  5
1EA
  8
DRG
 10
115.0307025958279
 20
896.67546769979606
 30
0.0
 11
115.03070259582751
 21
869.67546769979617
 31
0.0
  0
LINE
  5
1EB
  8
DRG2
 10
116.5307025958279
 20
898.17546769979617
 30
0.0
 11
116.53070259582751
 21
868.17546769979606
 31
0.0
  0
LINE
  5
1EC
  8
DRG
 10
116.53070259582751
 20
868.17546769979606
 30
0.0
 11
115.03070259582751
 21
869.67546769979617
 31
0.0
  0
LINE
  5
1ED
  8
DRG
 10
120.03070259582751
 20
901.17546769979651
 30
0.0
 11
120.03070259582751
 21
898.17546769979629
 31
0.0
  0
LINE
  5
1EE
  8
DRG
 10
115.0307025958279
 20
896.67546769979606
 30
0.0
 11
116.5307025958279
 21
898.17546769979617
 31
0.0
  0
SOLID
  5
1EF
  8
DIM
 10
147.1412657043015
 20
908.69504125821595
 30
0.0
 11
149.74430120428579
 21
909.27410714128291
 31
0.0
 12
150.1799811034949
 22
901.17546769979651
 32
0.0
 13
150.1799811034949
 23
901.17546769979651
 33
0.0
  0
LINE
  5
1F0
  8
DRG
 10
175.28070259582759
 20
898.17546769979617
 30
0.0
 11
175.28070259582779
 21
901.17546769979651
 31
0.0
  0
LINE
  5
1F1
  8
DRG
 10
370.03070259582779
 20
948.17546769979617
 30
0.0
 11
370.03070259582779
 21
818.17546769979595
 31
0.0
  0
LINE
  5
1F2
  8
DRG
 10
285.03070259582779
 20
936.67546769979606
 30
0.0
 11
285.03070259582802
 21
829.67546769979629
 31
0.0
  0
LINE
  5
1F3
  8
DRG
 10
264.03070259582762
 20
923.17546769979617
 30
0.0
 11
264.03070259582779
 21
843.17546769979606
 31
0.0
  0
LINE
  5
1F4
  8
DRG
 10
270.03070259582762
 20
943.17546769979606
 30
0.0
 11
270.03070259582779
 21
823.17546769979617
 31
0.0
  0
LINE
  5
1F5
  8
DRG
 10
285.03070259582802
 20
818.1754676997964
 30
0.0
 11
298.03070259582779
 21
818.1754676997964
 31
0.0
  0
LINE
  5
1F6
  8
DRG
 10
291.03070259582779
 20
768.22546769979635
 30
0.0
 11
298.03070259582779
 21
768.22546769979635
 31
0.0
  0
LINE
  5
1F7
  8
DRG
 10
288.03070259582779
 20
812.97931527709056
 30
0.0
 11
288.03070259582779
 21
770.10469960485511
 31
0.0
  0
ARC
  5
1F8
  8
DRG
 10
291.03070259582779
 20
762.22546769979635
 30
0.0
 40
6.0
 50
90.000000000000483
 51
180.0
  0
ARC
  5
1F9
  8
DRG
 10
282.03070259582802
 20
770.10469960485511
 30
0.0
 40
6.0
 50
323.3776569518235
 51
0.0
  0
LINE
  5
1FA
  8
CRS
 10
275.08330508447
 20
833.67799301673745
 30
0.0
 11
250.46253286164369
 21
833.67799301673745
 31
0.0
  0
LINE
  5
1FB
  8
DRG2
 10
259.03070259582779
 20
824.54799301673734
 30
0.0
 11
259.03070259582779
 21
842.80799301673756
 31
0.0
  0
LINE
  5
1FC
  8
DRG2
 10
258.03070259582779
 20
825.54799301673734
 30
0.0
 11
258.03070259582779
 21
841.80799301673756
 31
0.0
  0
LINE
  5
1FD
  8
DRG
 10
270.03070259582779
 20
823.17546769979617
 30
0.0
 11
285.03070259582779
 21
823.17546769979617
 31
0.0
  0
LINE
  5
1FE
  8
DRG2
 10
259.03070259582779
 20
824.54799301673734
 30
0.0
 11
258.03070259582779
 21
825.54799301673734
 31
0.0
  0
LINE
  5
1FF
  8
DRG2
 10
270.03070259582779
 20
824.54799301673745
 30
0.0
 11
259.03070259582779
 21
824.54799301673734
 31
0.0
  0
ARC
  5
200
  8
DRG
 10
282.03070259582802
 20
812.97931527709056
 30
0.0
 40
6.0
 50
0.0
 51
59.999999999999069
  0
LINE
  5
201
  8
DRG
 10
285.0307025958283
 20
829.67546769979629
 30
0.0
 11
285.03070259582802
 21
818.1754676997964
 31
0.0
  0
LINE
  5
202
  8
DRG2
 10
258.03070259582779
 20
841.80799301673756
 30
0.0
 11
259.03070259582779
 21
842.80799301673756
 31
0.0
  0
LINE
  5
203
  8
DRG2
 10
270.03070259582779
 20
842.80799301673756
 30
0.0
 11
259.03070259582779
 21
842.80799301673756
 31
0.0
  0
LINE
  5
204
  8
DRG
 10
264.03070259582779
 20
843.17546769979606
 30
0.0
 11
270.03070259582779
 21
843.17546769979606
 31
0.0
  0
LINE
  5
205
  8
DRG
 10
367.03070259582779
 20
812.97931527708931
 30
0.0
 11
367.03070259582779
 21
807.42546769979606
 31
0.0
  0
ARC
  5
206
  8
DRG
 10
298.03070259582779
 20
774.22546769979635
 30
0.0
 40
6.0
 50
270.00000000000023
 51
0.0
  0
ARC
  5
207
  8
DRG
 10
357.03070259582779
 20
807.42546769979606
 30
0.0
 40
6.0
 50
180.0
 51
269.99999999999977
  0
LINE
  5
208
  8
DRG
 10
357.03070259582779
 20
801.42546769979606
 30
0.0
 11
370.03070259582802
 21
801.42546769979606
 31
0.0
  0
ARC
  5
209
  8
DRG
 10
373.03070259582779
 20
807.42546769979606
 30
0.0
 40
6.0
 50
180.0
 51
270.0
  0
ARC
  5
20A
  8
DRG
 10
298.03070259582779
 20
812.17546769979617
 30
0.0
 40
6.0
 50
0.0
 51
90.0
  0
ARC
  5
20B
  8
DRG
 10
357.03070259582779
 20
812.17546769979617
 30
0.0
 40
6.0
 50
89.999999999999915
 51
180.0
  0
LINE
  5
20C
  8
DRG
 10
357.03070259582779
 20
818.17546769979606
 30
0.0
 11
370.03070259582779
 21
818.17546769979595
 31
0.0
  0
ARC
  5
20D
  8
DRG
 10
373.03070259582779
 20
812.97931527708931
 30
0.0
 40
6.0
 50
119.9999999999999
 51
180.0
  0
LINE
  5
20E
  8
DRG
 10
285.03070259582779
 20
948.17546769979617
 30
0.0
 11
298.03070259582802
 21
948.17546769979617
 31
0.0
  0
LINE
  5
20F
  8
DRG2
 10
258.03070259582779
 20
924.54294238285433
 30
0.0
 11
258.03070259582779
 21
940.80294238285455
 31
0.0
  0
LINE
  5
210
  8
DRG2
 10
259.03070259582779
 20
923.54294238285433
 30
0.0
 11
259.03070259582779
 21
941.80294238285455
 31
0.0
  0
LINE
  5
211
  8
DRG2
 10
259.03070259582779
 20
923.54294238285433
 30
0.0
 11
258.03070259582779
 21
924.54294238285433
 31
0.0
  0
LINE
  5
212
  8
DRG2
 10
270.03070259582779
 20
923.54294238285445
 30
0.0
 11
259.03070259582779
 21
923.54294238285433
 31
0.0
  0
LINE
  5
213
  8
DRG
 10
264.03070259582762
 20
923.17546769979617
 30
0.0
 11
270.03070259582762
 21
923.17546769979629
 31
0.0
  0
LINE
  5
214
  8
CRS
 10
275.08330508447
 20
932.67294238285444
 30
0.0
 11
250.46253286164369
 21
932.67294238285444
 31
0.0
  0
LINE
  5
215
  8
DRG
 10
270.03070259582762
 20
943.17546769979606
 30
0.0
 11
285.03070259582779
 21
943.17546769979606
 31
0.0
  0
LINE
  5
216
  8
DRG2
 10
258.03070259582779
 20
940.80294238285455
 30
0.0
 11
259.03070259582779
 21
941.80294238285455
 31
0.0
  0
LINE
  5
217
  8
DRG2
 10
270.03070259582779
 20
941.80294238285455
 30
0.0
 11
259.03070259582779
 21
941.80294238285455
 31
0.0
  0
LINE
  5
218
  8
DRG
 10
285.03070259582779
 20
948.17546769979617
 30
0.0
 11
285.03070259582779
 21
936.67546769979606
 31
0.0
  0
LINE
  5
219
  8
DRG
 10
316.03070259582779
 20
971.17546769979617
 30
0.0
 11
339.03070259582779
 21
971.17546769979617
 31
0.0
  0
LINE
  5
21A
  8
DRG
 10
304.03070259582779
 20
959.17546769979595
 30
0.0
 11
304.03070259582802
 21
954.17546769979617
 31
0.0
  0
ARC
  5
21B
  8
DRG
 10
298.03070259582802
 20
954.17546769979617
 30
0.0
 40
6.0
 50
270.0
 51
0.0
  0
ARC
  5
21C
  8
DRG
 10
316.03070259582779
 20
959.17546769979606
 30
0.0
 40
12.0
 50
90.0
 51
180.0
  0
LINE
  5
21D
  8
DRG
 10
351.03070259582779
 20
959.17546769979606
 30
0.0
 11
351.03070259582779
 21
954.17546769979617
 31
0.0
  0
ARC
  5
21E
  8
DRG
 10
357.03070259582779
 20
954.17546769979617
 30
0.0
 40
6.0
 50
180.0
 51
269.99999999999977
  0
LINE
  5
21F
  8
DRG
 10
357.03070259582779
 20
948.17546769979617
 30
0.0
 11
370.03070259582802
 21
948.17546769979617
 31
0.0
  0
ARC
  5
220
  8
DRG
 10
339.03070259582779
 20
959.17546769979606
 30
0.0
 40
12.0
 50
0.0
 51
90.000000000000099
  0
LINE
  5
221
  8
DRG
 10
197.83492001627801
 20
1100.412777822452
 30
0.0
 11
271.55992001627823
 21
1190.412777822452
 31
0.0
  0
LINE
  5
222
  8
DRG
 10
266.55992001627732
 20
1195.4127778224531
 30
0.0
 11
202.8349200162771
 21
1195.4127778224531
 31
0.0
  0
LINE
  5
223
  8
DIM
 10
123.03070259582771
 20
1066.2090600425461
 30
0.0
 11
277.03070259582739
 21
1066.2090600425461
 31
0.0
  0
SOLID
  5
224
  8
DIM
 10
76.501594301992213
 20
1108.4127321081669
 30
0.0
 11
79.168245730563854
 21
1108.4127321081669
 31
0.0
 12
77.834920016278033
 22
1100.412777822452
 32
0.0
 13
77.834920016278033
 23
1100.412777822452
 33
0.0
  0
LINE
  5
225
  8
DIM
 10
173.7429221973369
 20
1100.412777822452
 30
0.0
 11
76.06012907599154
 21
1100.412777822452
 31
0.0
  0
TEXT
  5
226
  8
DIM
 10
68.126681914775943
 20
1002.841040300147
 30
0.0
 40
7.0
  1
(0.20")
 72
     4
 11
85.793348581442615
 21
1005.841040300147
 31
0.0
  0
LINE
  5
227
  8
DIM
 10
107.03070259582741
 20
1013.841040300147
 30
0.0
 11
68.684880051138407
 21
1013.841040300147
 31
0.0
  0
TEXT
  5
228
  8
DIM
 10
83.460015248109286
 20
1018.341040300147
 30
0.0
 40
7.0
  1
5
 72
     4
 11
85.793348581442615
 21
1021.841040300147
 31
0.0
  0
SOLID
  5
229
  8
DIM
 10
107.03070259582741
 20
1015.1743736334799
 30
0.0
 11
107.03070259582741
 21
1012.507706966814
 31
0.0
 12
115.03070259582751
 22
1013.841040300147
 32
0.0
 13
115.03070259582751
 23
1013.841040300147
 33
0.0
  0
SOLID
  5
22A
  8
DIM
 10
128.03070259582751
 20
1015.1743736334799
 30
0.0
 11
128.03070259582751
 21
1012.507706966814
 31
0.0
 12
120.03070259582751
 22
1013.841040300147
 32
0.0
 13
120.03070259582751
 23
1013.841040300147
 33
0.0
  0
LINE
  5
22B
  8
DIM
 10
128.03070259582751
 20
1013.841040300147
 30
0.0
 11
136.03070259582751
 21
1013.841040300147
 31
0.0
  0
SOLID
  5
22C
  8
DIM
 10
123.03070259582771
 20
1067.54239337588
 30
0.0
 11
123.03070259582771
 21
1064.875726709213
 31
0.0
 12
115.03070259582771
 22
1066.2090600425461
 32
0.0
 13
115.03070259582771
 23
1066.2090600425461
 33
0.0
  0
LINE
  5
22D
  8
DRG
 10
197.83492001627801
 20
1100.412777822452
 30
0.0
 11
177.83492001627801
 21
1100.412777822452
 31
0.0
  0
TEXT
  5
22E
  8
DIM
 10
191.69736926249411
 20
1070.7090600425461
 30
0.0
 40
7.0
  1
170
 72
     4
 11
200.03070259582739
 21
1074.2090600425461
 31
0.0
  0
TEXT
  5
22F
  8
DIM
 10
182.36403592916079
 20
1055.209060042547
 30
0.0
 40
7.0
  1
(6.69")
 72
     4
 11
200.03070259582739
 21
1058.209060042547
 31
0.0
  0
TEXT
  5
230
  8
DIM
 10
129.69599104915039
 20
1154.0493508149309
 30
0.0
 40
7.0
  1
(0.20")
 72
     4
 11
147.36265771581711
 21
1157.0493508149309
 31
0.0
  0
LINE
  5
231
  8
DIM
 10
170.97777715913529
 20
1165.2237631213741
 30
0.0
 11
129.68871118850291
 21
1165.2237631213741
 31
0.0
  0
LINE
  5
232
  8
CRS
 10
201.63501896882511
 20
1133.082777822453
 30
0.0
 11
173.22577051070729
 21
1133.082777822453
 31
0.0
  0
LINE
  5
233
  8
HID
 10
197.83492001627801
 20
1143.332777822452
 30
0.0
 11
177.83492001627801
 21
1143.332777822452
 31
0.0
  0
LINE
  5
234
  8
HID
 10
197.83492001627801
 20
1122.832777822452
 30
0.0
 11
177.83492001627801
 21
1122.832777822452
 31
0.0
  0
LINE
  5
235
  8
HID
 10
197.83492001627801
 20
1191.5627778224521
 30
0.0
 11
177.83492001627801
 21
1191.5627778224521
 31
0.0
  0
LINE
  5
236
  8
HID
 10
197.83492001627801
 20
1212.0627778224521
 30
0.0
 11
177.83492001627801
 21
1212.0627778224521
 31
0.0
  0
LINE
  5
237
  8
CRS
 10
201.63501896882511
 20
1201.8127778224521
 30
0.0
 11
173.22577051070729
 21
1201.8127778224521
 31
0.0
  0
LINE
  5
238
  8
HID
 10
181.83492001627801
 20
1174.2277778224529
 30
0.0
 11
177.83492001627749
 21
1174.2277778224529
 31
0.0
  0
TEXT
  5
239
  8
DIM
 10
145.02932438248371
 20
1167.5493508149309
 30
0.0
 40
7.0
  1
5
 72
     1
 11
147.36265771581711
 21
1171.0493508149309
 31
0.0
 73
     2
  0
SOLID
  5
23A
  8
DIM
 10
169.83496573056399
 20
1166.5570888356599
 30
0.0
 11
169.83496573056399
 21
1163.8904374070889
 31
0.0
 12
177.83492001627801
 22
1165.2237631213741
 32
0.0
 13
177.83492001627801
 23
1165.2237631213741
 33
0.0
  0
LINE
  5
23B
  8
DIM
 10
182.83492001627801
 20
1172.683311858216
 30
0.0
 11
182.83492001627801
 21
1161.002799781779
 31
0.0
  0
ARC
  5
23C
  8
HID
 10
181.83492001627801
 20
1175.227777822452
 30
0.0
 40
1.0
 50
270.00000000000063
 51
0.0
  0
SOLID
  5
23D
  8
DIM
 10
190.8348743019925
 20
1166.5570888356599
 30
0.0
 11
190.8348743019925
 21
1163.8904374070889
 31
0.0
 12
182.83492001627801
 22
1165.2237631213741
 32
0.0
 13
182.83492001627801
 23
1165.2237631213741
 33
0.0
  0
LINE
  5
23E
  8
DIM
 10
189.83492001627801
 20
1165.2237631213741
 30
0.0
 11
199.1821968060288
 21
1165.2237631213741
 31
0.0
  0
ARC
  5
23F
  8
DRG
 10
202.8349200162771
 20
1190.412777822452
 30
0.0
 40
5.0
 50
90.0
 51
180.0
  0
LINE
  5
240
  8
DIM
 10
293.03070259582762
 20
1013.841040300147
 30
0.0
 11
301.03070259582762
 21
1013.841040300147
 31
0.0
  0
LINE
  5
241
  8
DIM
 10
262.03070259582751
 20
1013.841040300147
 30
0.0
 11
222.15643976724601
 21
1013.841040300147
 31
0.0
  0
TEXT
  5
242
  8
DIM
 10
222.4713434136502
 20
1002.841040300147
 30
0.0
 40
7.0
  1
(0.59")
 72
     4
 11
240.13801008031689
 21
1005.841040300147
 31
0.0
  0
TEXT
  5
243
  8
DIM
 10
235.13801008031689
 20
1018.341040300147
 30
0.0
 40
7.0
  1
15
 72
     4
 11
240.13801008031689
 21
1021.841040300147
 31
0.0
  0
SOLID
  5
244
  8
DIM
 10
293.03070259582762
 20
1015.174373633481
 30
0.0
 11
293.03070259582762
 21
1012.507706966814
 31
0.0
 12
285.03070259582762
 22
1013.841040300147
 32
0.0
 13
285.03070259582762
 23
1013.841040300147
 33
0.0
  0
SOLID
  5
245
  8
DIM
 10
262.03070259582751
 20
1015.174373633481
 30
0.0
 11
262.03070259582751
 21
1012.507706966814
 31
0.0
 12
270.03070259582751
 22
1013.841040300147
 32
0.0
 13
270.03070259582751
 23
1013.841040300147
 33
0.0
  0
SOLID
  5
246
  8
DIM
 10
277.03070259582739
 20
1067.54239337588
 30
0.0
 11
277.03070259582739
 21
1064.875726709213
 31
0.0
 12
285.03070259582739
 22
1066.2090600425461
 32
0.0
 13
285.03070259582739
 23
1066.2090600425461
 33
0.0
  0
SOLID
  5
247
  8
DIM
 10
293.03070259582739
 20
1067.54239337588
 30
0.0
 11
293.03070259582739
 21
1064.875726709213
 31
0.0
 12
285.03070259582739
 22
1066.2090600425461
 32
0.0
 13
285.03070259582739
 23
1066.2090600425461
 33
0.0
  0
LINE
  5
248
  8
DRG
 10
287.80992001627777
 20
1190.412777822452
 30
0.0
 11
271.55992001627823
 21
1190.412777822452
 31
0.0
  0
ARC
  5
249
  8
DRG
 10
266.55992001627732
 20
1190.412777822452
 30
0.0
 40
5.0
 50
0.0
 51
90.0
  0
TEXT
  5
24A
  8
TXT
 10
344.66666666666657
 20
1145.7207824699699
 30
0.0
 40
7.0
  1
FA25
 72
     4
 11
357.0
 21
1149.2207824699699
 31
0.0
  0
TEXT
  5
24B
  8
DIM
 10
215.1557533496109
 20
1430.4104490880841
 30
0.0
 40
7.0
  1
(4.33")
 72
     4
 11
232.82242001627759
 21
1433.4104490880841
 31
0.0
  0
LINE
  5
24C
  8
DIM
 10
287.80992001627777
 20
1440.412777822452
 30
0.0
 11
177.83492001627801
 21
1440.412777822452
 31
0.0
  0
LINE
  5
24D
  8
DRG
 10
271.55992001627823
 20
1310.4127778224531
 30
0.0
 11
197.83492001627801
 21
1400.412777822452
 31
0.0
  0
LINE
  5
24E
  8
DRG
 10
266.55992001627828
 20
1305.4127778224531
 30
0.0
 11
202.83492001627801
 21
1305.4127778224531
 31
0.0
  0
LINE
  5
24F
  8
DRG
 10
266.55992001627828
 20
1244.412777822452
 30
0.0
 11
202.83492001627801
 21
1244.412777822452
 31
0.0
  0
LINE
  5
250
  8
DRG
 10
266.55992001627828
 20
1256.412777822452
 30
0.0
 11
202.83492001627801
 21
1256.412777822452
 31
0.0
  0
LINE
  5
251
  8
CRS
 10
296.63676740861359
 20
1250.412777822452
 30
0.0
 11
104.18644969852051
 21
1250.412777822452
 31
0.0
  0
LINE
  5
252
  8
DIM
 10
117.83492001627801
 20
1277.0025657450469
 30
0.0
 11
117.83492001627801
 21
1393.3358336159599
 31
0.0
  0
TEXT
  5
253
  8
DIM
 10
132.39038541094001
 20
1309.0041728959161
 30
0.0
 40
7.0
  1
(0.20")
 72
     4
 11
150.0570520776067
 21
1312.0041728959161
 31
0.0
  0
LINE
  5
254
  8
DIM
 10
128.87301359359711
 20
1319.9209407318781
 30
0.0
 11
166.61350520105449
 21
1319.9209407318781
 31
0.0
  0
LINE
  5
255
  8
DRG
 10
177.83492001627801
 20
1279.9127778224531
 30
0.0
 11
122.83492001627801
 21
1279.9127778224531
 31
0.0
  0
LINE
  5
256
  8
DRG
 10
177.7968264389593
 20
1225.4127778224531
 30
0.0
 11
119.33492001627801
 21
1225.4127778224531
 31
0.0
  0
LINE
  5
257
  8
DRG
 10
177.83492001627801
 20
1275.412777822452
 30
0.0
 11
119.33492001627801
 21
1275.412777822452
 31
0.0
  0
TEXT
  5
258
  8
DIM
 10
88.334920016278488
 20
1221.662981579846
 30
0.0
 40
7.0
  1
SEE TABLE
 50
90.0
 72
     4
 11
84.834920016278488
 21
1249.662981579846
 31
0.0
  0
LINE
  5
259
  8
DRG
 10
122.83492001627801
 20
1279.9127778224531
 30
0.0
 11
122.83492001627801
 21
1275.412777822452
 31
0.0
  0
LINE
  5
25A
  8
DRG2
 10
119.33492001627801
 20
1275.412777822452
 30
0.0
 11
119.33492001627801
 21
1225.4127778224531
 31
0.0
  0
LINE
  5
25B
  8
DRG
 10
117.83492001627801
 20
1273.912777822452
 30
0.0
 11
117.83492001627801
 21
1226.9127778224531
 31
0.0
  0
LINE
  5
25C
  8
DRG
 10
117.83492001627801
 20
1226.9127778224531
 30
0.0
 11
119.33492001627801
 21
1225.4127778224531
 31
0.0
  0
LINE
  5
25D
  8
DRG
 10
119.33492001627801
 20
1275.412777822452
 30
0.0
 11
117.83492001627801
 21
1273.912777822452
 31
0.0
  0
LINE
  5
25E
  8
DIM
 10
122.8349200162784
 20
1281.7889996022541
 30
0.0
 11
122.8349200162784
 21
1322.6286126385951
 31
0.0
  0
SOLID
  5
25F
  8
DIM
 10
109.8785012475001
 20
1321.2533594562269
 30
0.0
 11
109.8785012475001
 21
1318.586708027656
 31
0.0
 12
117.87845553321409
 22
1319.920033741942
 32
0.0
 13
117.87845553321409
 23
1319.920033741942
 33
0.0
  0
LINE
  5
260
  8
DIM
 10
110.87210660366109
 20
1319.921091896867
 30
0.0
 11
102.9133606171136
 21
1319.921091896867
 31
0.0
  0
SOLID
  5
261
  8
DIM
 10
130.8729678793116
 20
1321.2542664461639
 30
0.0
 11
130.8729678793116
 21
1318.587615017592
 31
0.0
 12
122.87301359359709
 22
1319.9209407318781
 32
0.0
 13
122.87301359359709
 23
1319.9209407318781
 33
0.0
  0
ARC
  5
262
  8
DRG
 10
202.83492001627801
 20
1239.412777822452
 30
0.0
 40
5.0
 50
90.0
 51
180.0
  0
ARC
  5
263
  8
DRG
 10
202.83492001627801
 20
1261.412777822452
 30
0.0
 40
5.0
 50
180.0
 51
270.0
  0
LINE
  5
264
  8
HID
 10
197.83492001627801
 20
1288.762777822453
 30
0.0
 11
177.83492001627801
 21
1288.762777822453
 31
0.0
  0
LINE
  5
265
  8
HID
 10
197.83492001627801
 20
1309.262777822453
 30
0.0
 11
177.83492001627801
 21
1309.262777822453
 31
0.0
  0
LINE
  5
266
  8
CRS
 10
201.63501896882511
 20
1299.0127778224521
 30
0.0
 11
173.22577051070729
 21
1299.0127778224521
 31
0.0
  0
LINE
  5
267
  8
HID
 10
181.83492001627801
 20
1326.5977778224519
 30
0.0
 11
177.83492001627801
 21
1326.5977778224519
 31
0.0
  0
TEXT
  5
268
  8
DIM
 10
147.7237187442733
 20
1322.5041728959161
 30
0.0
 40
7.0
  1
5
 72
     1
 11
150.0570520776067
 21
1326.0041728959161
 31
0.0
 73
     2
  0
ARC
  5
269
  8
DRG
 10
202.83492001627801
 20
1310.4127778224531
 30
0.0
 40
5.0
 50
180.0
 51
270.0
  0
ARC
  5
26A
  8
HID
 10
181.83492001627801
 20
1325.5977778224519
 30
0.0
 40
1.0
 50
0.0
 51
90.0
  0
TEXT
  5
26B
  8
DIM
 10
130.16825334961129
 20
1430.4127778224531
 30
0.0
 40
7.0
  1
(2.36")
 72
     4
 11
147.83492001627801
 21
1433.4127778224531
 31
0.0
  0
LINE
  5
26C
  8
DIM
 10
173.6572474295165
 20
1400.412777822452
 30
0.0
 11
75.053031636084711
 21
1400.412777822452
 31
0.0
  0
LINE
  5
26D
  8
DIM
 10
117.83492001627801
 20
1440.412777822452
 30
0.0
 11
177.83492001627801
 21
1440.412777822452
 31
0.0
  0
SOLID
  5
26E
  8
DIM
 10
76.501594301992654
 20
1392.4128235367391
 30
0.0
 11
79.168245730563854
 21
1392.4128235367391
 31
0.0
 12
77.834920016278474
 22
1400.4127778224531
 32
0.0
 13
77.834920016278474
 23
1400.4127778224531
 33
0.0
  0
LINE
  5
26F
  8
DIM
 10
117.83492001627801
 20
1406.88017884443
 30
0.0
 11
117.83492001627801
 21
1442.412777822452
 31
0.0
  0
SOLID
  5
270
  8
DIM
 10
125.8348743019924
 20
1441.746103536738
 30
0.0
 11
125.8348743019924
 21
1439.0794521081671
 31
0.0
 12
117.83492001627801
 22
1440.412777822452
 32
0.0
 13
117.83492001627801
 23
1440.412777822452
 33
0.0
  0
LINE
  5
271
  8
HID
 10
197.83492001627801
 20
1377.9927778224519
 30
0.0
 11
177.83492001627801
 21
1377.9927778224519
 31
0.0
  0
LINE
  5
272
  8
CRS
 10
201.63501896882511
 20
1367.7427778224519
 30
0.0
 11
173.22577051070729
 21
1367.7427778224519
 31
0.0
  0
LINE
  5
273
  8
HID
 10
197.83492001627801
 20
1357.492777822453
 30
0.0
 11
177.83492001627801
 21
1357.492777822453
 31
0.0
  0
SOLID
  5
274
  8
DIM
 10
185.83487430199199
 20
1441.746103536738
 30
0.0
 11
185.83487430199199
 21
1439.0794521081671
 31
0.0
 12
177.83492001627801
 22
1440.412777822452
 32
0.0
 13
177.83492001627801
 23
1440.412777822452
 33
0.0
  0
LINE
  5
275
  8
DRG
 10
197.83492001627801
 20
1400.412777822452
 30
0.0
 11
177.83492001627801
 21
1400.412777822452
 31
0.0
  0
LINE
  5
276
  8
DIM
 10
177.83492001627801
 20
1402.295100173151
 30
0.0
 11
177.83492001627801
 21
1442.412777822452
 31
0.0
  0
TEXT
  5
277
  8
DIM
 10
142.16825334961129
 20
1443.912777822452
 30
0.0
 40
7.0
  1
60
 72
     4
 11
147.83492001627801
 21
1447.4127778224531
 31
0.0
  0
SOLID
  5
278
  8
DIM
 10
169.83496573056399
 20
1441.746103536738
 30
0.0
 11
169.83496573056399
 21
1439.0794521081671
 31
0.0
 12
177.83492001627801
 22
1440.412777822452
 32
0.0
 13
177.83492001627801
 23
1440.412777822452
 33
0.0
  0
LINE
  5
279
  8
DIM
 10
287.80992001627777
 20
1316.2118992685
 30
0.0
 11
287.80992001627777
 21
1443.042911513558
 31
0.0
  0
ARC
  5
27A
  8
DRG
 10
266.55992001627828
 20
1239.412777822452
 30
0.0
 40
5.0
 50
0.0
 51
90.0
  0
ARC
  5
27B
  8
DRG
 10
266.55992001627828
 20
1261.412777822452
 30
0.0
 40
5.0
 50
270.0
 51
0.0
  0
ARC
  5
27C
  8
DRG
 10
266.55992001627828
 20
1310.4127778224531
 30
0.0
 40
5.0
 50
270.0
 51
0.0
  0
LINE
  5
27D
  8
DRG
 10
287.80992001627777
 20
1310.4127778224531
 30
0.0
 11
271.55992001627823
 21
1310.4127778224531
 31
0.0
  0
TEXT
  5
27E
  8
TXT
 10
345.5
 20
1219.9207824699699
 30
0.0
 40
7.0
  1
FA16
 72
     4
 11
357.0
 21
1223.4207824699699
 31
0.0
  0
TEXT
  5
27F
  8
TXT
 10
345.16666666666669
 20
1294.12078246997
 30
0.0
 40
7.0
  1
FA14
 72
     4
 11
357.0
 21
1297.62078246997
 31
0.0
  0
TEXT
  5
280
  8
DIM
 10
225.2058751587968
 20
1443.912777822452
 30
0.0
 40
7.0
  1
110
 72
     4
 11
232.8725418254634
 21
1447.4127778224531
 31
0.0
  0
SOLID
  5
281
  8
DIM
 10
279.80996573056331
 20
1441.746103536738
 30
0.0
 11
279.80996573056331
 21
1439.0794521081671
 31
0.0
 12
287.80992001627777
 22
1440.412777822452
 32
0.0
 13
287.80992001627777
 23
1440.412777822452
 33
0.0
  0
TEXT
  5
282
  8
TXT
 10
774.66666666666697
 20
1213.07078246997
 30
0.0
 40
7.0
  1
ON %%c165.0 (%%c6.50") P.C.
 72
     4
 11
840.00000000000034
 21
1216.07078246997
 31
0.0
  0
TEXT
  5
283
  8
TXT
 10
414.5
 20
1213.07078246997
 30
0.0
 40
7.0
  1
x 20 (0.79")
 72
     4
 11
448.0
 21
1216.07078246997
 31
0.0
  0
TEXT
  5
284
  8
TXT
 10
518.5
 20
1213.07078246997
 30
0.0
 40
7.0
  1
(%%c1.575" -0.002")
 72
     4
 11
567.0
 21
1216.07078246997
 31
0.0
  0
TEXT
  5
285
  8
TXT
 10
639.5
 20
1213.07078246997
 30
0.0
 40
7.0
  1
(%%c4.997" +0.002") 
 72
     4
 11
693.0
 21
1216.07078246997
 31
0.0
  0
LINE
  5
286
  8
DRG2
 10
392.0
 20
1130.6707824699699
 30
0.0
 11
392.0
 21
1390.3707824699691
 31
0.0
  0
LINE
  5
287
  8
DRG2
 10
924.00000000000045
 20
1130.6707824699699
 30
0.0
 11
924.00000000000045
 21
1390.3707824699691
 31
0.0
  0
LINE
  5
288
  8
DRG2
 10
756.00000000000057
 20
1130.6707824699699
 30
0.0
 11
756.0
 21
1390.3707824699691
 31
0.0
  0
LINE
  5
289
  8
DRG2
 10
630.0
 20
1130.6707824699699
 30
0.0
 11
630.0
 21
1390.37078246997
 31
0.0
  0
LINE
  5
28A
  8
DRG2
 10
504.0
 20
1130.6707824699699
 30
0.0
 11
504.0
 21
1390.3707824699691
 31
0.0
  0
TEXT
  5
28B
  8
TXT
 10
654.66666666666663
 20
1190.1707824699699
 30
0.0
 40
7.0
  1
%%c200.10 +0.10
 72
     4
 11
693.0
 21
1193.6707824699699
 31
0.0
  0
TEXT
  5
28C
  8
TXT
 10
639.5
 20
1175.9707824699699
 30
0.0
 40
7.0
  1
(%%c7.878" +0.004") 
 72
     4
 11
693.0
 21
1178.9707824699699
 31
0.0
  0
TEXT
  5
28D
  8
TXT
 10
654.66666666666663
 20
1153.07078246997
 30
0.0
 40
7.0
  1
%%c152.37 +0.10
 72
     4
 11
693.0
 21
1156.57078246997
 31
0.0
  0
TEXT
  5
28E
  8
TXT
 10
639.5
 20
1138.87078246997
 30
0.0
 40
7.0
  1
(%%c5.999" +0.004") 
 72
     4
 11
693.0
 21
1141.87078246997
 31
0.0
  0
TEXT
  5
28F
  8
DIM
 10
662.13152337128531
 20
988.75924273817429
 30
0.0
 40
7.0
  1
ON %%C140 (%%c5.51") P.C.
  0
TEXT
  5
290
  8
DIM
 10
662.13152337128531
 20
1000.759242738174
 30
0.0
 40
7.0
  1
4 OFF M12 SCREWS (EACH SIDE)
  0
TEXT
  5
291
  8
DIM
 10
420.91627876812981
 20
982.51377497417354
 30
0.0
 40
7.0
  1
12
 72
     4
 11
425.9162787681297
 21
986.01377497417366
 31
0.0
  0
LINE
  5
292
  8
DIM
 10
385.0307025958279
 20
945.79664198333353
 30
0.0
 11
385.0307025958279
 21
1015.841040300147
 31
0.0
  0
LINE
  5
293
  8
DRG
 10
391.03070259582688
 20
923.17546769979617
 30
0.0
 11
391.0307025958287
 21
843.17546769979606
 31
0.0
  0
LINE
  5
294
  8
DRG
 10
385.03070259582643
 20
943.17546769979606
 30
0.0
 11
385.03070259582921
 21
823.17546769979617
 31
0.0
  0
SOLID
  5
295
  8
DIM
 10
458.03070259582807
 20
805.84771147555375
 30
0.0
 11
458.03070259582807
 21
803.18104480888712
 31
0.0
 12
450.03070259582807
 22
804.51437814222015
 32
0.0
 13
450.03070259582807
 23
804.51437814222015
 33
0.0
  0
LINE
  5
296
  8
DIM
 10
512.23070259582823
 20
804.51437814222015
 30
0.0
 11
450.0307025958279
 21
804.51437814222015
 31
0.0
  0
LINE
  5
297
  8
DRG
 10
412.03070259582779
 20
768.22546769979613
 30
0.0
 11
425.03070259582807
 21
768.22546769979613
 31
0.0
  0
ARC
  5
298
  8
DRG
 10
412.03070259582779
 20
774.22546769979613
 30
0.0
 40
6.0
 50
180.0
 51
269.99999999999989
  0
ARC
  5
299
  8
DRG
 10
394.03070259582779
 20
789.42546769979606
 30
0.0
 40
12.0
 50
0.0
 51
90.0
  0
LINE
  5
29A
  8
DRG2
 10
396.03070259582671
 20
842.80799301673687
 30
0.0
 11
396.03070259582671
 21
824.54799301673665
 31
0.0
  0
LINE
  5
29B
  8
DRG2
 10
397.03070259582671
 20
841.80799301673687
 30
0.0
 11
397.03070259582671
 21
825.54799301673665
 31
0.0
  0
LINE
  5
29C
  8
CRS
 10
379.9781001071845
 20
833.67799301673665
 30
0.0
 11
404.59887233001069
 21
833.67799301673665
 31
0.0
  0
LINE
  5
29D
  8
DRG2
 10
385.03070259582671
 20
824.54799301673665
 30
0.0
 11
396.03070259582671
 21
824.54799301673665
 31
0.0
  0
LINE
  5
29E
  8
DRG2
 10
397.03070259582671
 20
825.54799301673665
 30
0.0
 11
396.03070259582671
 21
824.54799301673665
 31
0.0
  0
LINE
  5
29F
  8
DRG2
 10
385.03070259582671
 20
842.80799301673665
 30
0.0
 11
396.03070259582671
 21
842.80799301673687
 31
0.0
  0
LINE
  5
2A0
  8
DRG
 10
385.0307025958287
 20
843.17546769979595
 30
0.0
 11
391.0307025958287
 21
843.17546769979606
 31
0.0
  0
LINE
  5
2A1
  8
DRG2
 10
396.03070259582671
 20
842.80799301673687
 30
0.0
 11
397.03070259582671
 21
841.80799301673687
 31
0.0
  0
TEXT
  5
2A2
  8
DIM
 10
463.84632128763781
 20
793.51437814222015
 30
0.0
 40
7.0
  1
(2.45")
 72
     4
 11
481.51298795430449
 21
796.51437814222015
 31
0.0
  0
SOLID
  5
2A3
  8
DIM
 10
504.23070259582801
 20
805.84771147555375
 30
0.0
 11
504.23070259582801
 21
803.18104480888712
 31
0.0
 12
512.23070259582812
 22
804.51437814222015
 32
0.0
 13
512.23070259582812
 23
804.51437814222015
 33
0.0
  0
TEXT
  5
2A4
  8
DIM
 10
475.84632128763781
 20
809.01437814222015
 30
0.0
 40
7.0
  1
62
 72
     4
 11
481.51298795430449
 21
812.51437814222015
 31
0.0
  0
LINE
  5
2A5
  8
DRG2
 10
397.03070259582671
 20
940.80294238285387
 30
0.0
 11
397.03070259582671
 21
924.54294238285365
 31
0.0
  0
LINE
  5
2A6
  8
DRG2
 10
396.03070259582671
 20
941.80294238285387
 30
0.0
 11
396.03070259582671
 21
923.54294238285365
 31
0.0
  0
LINE
  5
2A7
  8
DRG2
 10
385.03070259582671
 20
923.54294238285365
 30
0.0
 11
396.03070259582671
 21
923.54294238285365
 31
0.0
  0
LINE
  5
2A8
  8
DRG
 10
385.03070259582688
 20
923.17546769979617
 30
0.0
 11
391.03070259582688
 21
923.17546769979617
 31
0.0
  0
LINE
  5
2A9
  8
DRG2
 10
397.03070259582671
 20
924.54294238285365
 30
0.0
 11
396.03070259582671
 21
923.54294238285365
 31
0.0
  0
TEXT
  5
2AA
  8
DIM
 10
408.24961210146307
 20
967.01377497417366
 30
0.0
 40
7.0
  1
(0.47")
 72
     4
 11
425.9162787681297
 21
970.01377497417354
 31
0.0
  0
LINE
  5
2AB
  8
DIM
 10
405.03070259582807
 20
978.01377497417354
 30
0.0
 11
443.40163288359798
 21
978.01377497417354
 31
0.0
  0
LINE
  5
2AC
  8
DIM
 10
397.03070259582807
 20
943.42411666639123
 30
0.0
 11
397.03070259582807
 21
980.01377497417354
 31
0.0
  0
LINE
  5
2AD
  8
DRG2
 10
385.03070259582671
 20
941.80294238285364
 30
0.0
 11
396.03070259582671
 21
941.80294238285387
 31
0.0
  0
LINE
  5
2AE
  8
CRS
 10
379.9781001071845
 20
932.67294238285365
 30
0.0
 11
404.59887233001069
 21
932.67294238285365
 31
0.0
  0
LINE
  5
2AF
  8
DRG2
 10
396.03070259582671
 20
941.80294238285387
 30
0.0
 11
397.03070259582671
 21
940.80294238285387
 31
0.0
  0
SOLID
  5
2B0
  8
DIM
 10
377.0307025958279
 20
979.3471083075068
 30
0.0
 11
377.0307025958279
 21
976.68044164084006
 31
0.0
 12
385.0307025958279
 22
978.01377497417354
 32
0.0
 13
385.0307025958279
 23
978.01377497417354
 33
0.0
  0
SOLID
  5
2B1
  8
DIM
 10
405.03070259582807
 20
979.3471083075068
 30
0.0
 11
405.03070259582807
 21
976.68044164084006
 31
0.0
 12
397.03070259582807
 22
978.01377497417354
 32
0.0
 13
397.03070259582807
 23
978.01377497417354
 33
0.0
  0
TEXT
  5
2B2
  8
TXT
 10
530.66666666666663
 20
1190.1707824699699
 30
0.0
 40
7.0
  1
%%c50.00 -0.05
 72
     4
 11
567.0
 21
1193.6707824699699
 31
0.0
  0
TEXT
  5
2B3
  8
TXT
 10
518.5
 20
1175.9707824699699
 30
0.0
 40
7.0
  1
(%%c1.969" -0.002")
 72
     4
 11
567.0
 21
1178.9707824699699
 31
0.0
  0
TEXT
  5
2B4
  8
TXT
 10
518.5
 20
1138.87078246997
 30
0.0
 40
7.0
  1
(%%c1.969" -0.002")
 72
     4
 11
567.0
 21
1141.87078246997
 31
0.0
  0
TEXT
  5
2B5
  8
TXT
 10
530.66666666666663
 20
1153.07078246997
 30
0.0
 40
7.0
  1
%%c50.00 -0.05
 72
     4
 11
567.0
 21
1156.57078246997
 31
0.0
  0
TEXT
  5
2B6
  8
DIM
 10
432.195375739295
 20
1002.841040300147
 30
0.0
 40
7.0
  1
(5.01")
 72
     4
 11
449.195375739295
 21
1005.841040300147
 31
0.0
  0
TEXT
  5
2B7
  8
DIM
 10
440.86204240596169
 20
1018.341040300147
 30
0.0
 40
7.0
  1
127
 72
     4
 11
449.195375739295
 21
1021.841040300147
 31
0.0
  0
LINE
  5
2B8
  8
DIM
 10
385.0307025958279
 20
1013.841040300147
 30
0.0
 11
512.23070259582823
 21
1013.841040300147
 31
0.0
  0
SOLID
  5
2B9
  8
DIM
 10
393.0307025958279
 20
1015.174373633481
 30
0.0
 11
393.0307025958279
 21
1012.507706966814
 31
0.0
 12
385.0307025958279
 22
1013.841040300147
 32
0.0
 13
385.0307025958279
 23
1013.841040300147
 33
0.0
  0
TEXT
  5
2BA
  8
DIM
 10
385.76852790617818
 20
1055.209060042547
 30
0.0
 40
7.0
  1
(8.94")
 72
     4
 11
403.43519457284492
 21
1058.209060042547
 31
0.0
  0
TEXT
  5
2BB
  8
DIM
 10
394.43519457284492
 20
1070.7090600425461
 30
0.0
 40
7.0
  1
227
 72
     4
 11
403.43519457284492
 21
1074.2090600425461
 31
0.0
  0
SOLID
  5
2BC
  8
DIM
 10
504.23070259582801
 20
1015.174373633481
 30
0.0
 11
504.23070259582801
 21
1012.507706966814
 31
0.0
 12
512.23070259582812
 22
1013.841040300147
 32
0.0
 13
512.23070259582812
 23
1013.841040300147
 33
0.0
  0
SOLID
  5
2BD
  8
DIM
 10
504.23070259582801
 20
1067.54239337588
 30
0.0
 11
504.23070259582801
 21
1064.875726709213
 31
0.0
 12
512.23070259582812
 22
1066.2090600425461
 32
0.0
 13
512.23070259582812
 23
1066.2090600425461
 33
0.0
  0
TEXT
  5
2BE
  8
TXT
 10
414.5
 20
1175.9707824699699
 30
0.0
 40
7.0
  1
x 20 (0.79")
 72
     4
 11
448.0
 21
1178.9707824699699
 31
0.0
  0
TEXT
  5
2BF
  8
TXT
 10
409.49999999999989
 20
1190.6707824699699
 30
0.0
 40
7.0
  1
%%c300 (%%c11.81")
 72
     4
 11
448.0
 21
1193.6707824699699
 31
0.0
  0
TEXT
  5
2C0
  8
TXT
 10
409.49999999999989
 20
1153.57078246997
 30
0.0
 40
7.0
  1
%%c300 (%%c11.81")
 72
     4
 11
448.0
 21
1156.57078246997
 31
0.0
  0
TEXT
  5
2C1
  8
TXT
 10
414.5
 20
1138.87078246997
 30
0.0
 40
7.0
  1
x 20 (0.79")
 72
     4
 11
448.0
 21
1141.87078246997
 31
0.0
  0
ARC
  5
2C2
  8
DRG
 10
956.40254435811994
 20
883.17546769979606
 30
0.0
 40
88.0
 50
90.0
 51
163.9751616755851
  0
LINE
  5
2C3
  8
DIM
 10
896.10835320325714
 20
945.93438513741955
 30
0.0
 11
859.20707059168831
 21
998.09576219679218
 31
0.0
  0
TEXT
  5
2C4
  8
DIM
 10
689.34795692773343
 20
831.63333153909628
 30
0.0
 40
7.0
  1
SEE TABLE FOR
  0
TEXT
  5
2C5
  8
DIM
 10
689.34795692773343
 20
819.63333153909639
 30
0.0
 40
7.0
  1
HOLE DETAILS
  0
LINE
  5
2C6
  8
DIM
 10
778.94697439913102
 20
829.34102023806997
 30
0.0
 11
804.98287142738116
 21
829.34102023806997
 31
0.0
  0
ARC
  5
2C7
  8
DRG
 10
956.40254435811994
 20
883.17546769979606
 30
0.0
 40
40.0
 50
90.0
 51
270.0
  0
LINE
  5
2C8
  8
DRG
 10
896.40254435811971
 20
938.17546769979617
 30
0.0
 11
896.40254435811971
 21
828.17546769979606
 31
0.0
  0
LINE
  5
2C9
  8
DRG
 10
891.40254435811983
 20
938.17546769979617
 30
0.0
 11
891.40254435811983
 21
828.17546769979606
 31
0.0
  0
LINE
  5
2CA
  8
DRG
 10
901.40254435811983
 20
823.17546769979617
 30
0.0
 11
944.40254435811983
 21
823.17546769979617
 31
0.0
  0
LINE
  5
2CB
  8
DRG
 10
956.40254435811994
 20
818.17546769979606
 30
0.0
 11
901.40254435811983
 21
818.17546769979606
 31
0.0
  0
POLYLINE
  5
2CC
  8
DRG2
 66
     1
 10
0.0
 20
0.0
 30
0.0
 70
     1
  0
VERTEX
  5
4FC
  8
DRG2
 10
904.01831832911341
 20
828.67799301673801
 30
0.0
  0
VERTEX
  5
4FD
  8
DRG2
 10
901.13156698316516
 20
833.67799301673813
 30
0.0
  0
VERTEX
  5
4FE
  8
DRG2
 10
904.01831832911341
 20
838.67799301673813
 30
0.0
  0
VERTEX
  5
4FF
  8
DRG2
 10
909.79182102100958
 20
838.67799301673813
 30
0.0
  0
VERTEX
  5
500
  8
DRG2
 10
912.67857236695795
 20
833.67799301673813
 30
0.0
  0
VERTEX
  5
501
  8
DRG2
 10
909.79182102100958
 20
828.67799301673801
 30
0.0
  0
SEQEND
  5
502
  8
DRG2
  0
CIRCLE
  5
2CD
  8
DRG2
 10
906.90506967506155
 20
833.67799301673813
 30
0.0
 40
9.1349999999999998
  0
CIRCLE
  5
2CE
  8
DRG2
 10
906.90506967506155
 20
833.67799301673813
 30
0.0
 40
8.1349999999999998
  0
ARC
  5
2CF
  8
DRG
 10
901.40254435811983
 20
828.17546769979606
 30
0.0
 40
5.0
 50
180.0
 51
270.0
  0
LINE
  5
2D0
  8
CRS
  6
BYBLOCK
 10
900.90506967506155
 20
833.67799301673813
 30
0.0
 11
893.65506967506133
 21
833.67799301673813
 31
0.0
  0
ARC
  5
2D1
  8
DRG
 10
901.40254435811983
 20
828.17546769979606
 30
0.0
 40
10.0
 50
180.0
 51
270.0
  0
LINE
  5
2D2
  8
CRS
  6
BYBLOCK
 10
906.90506967506155
 20
836.67799301673801
 30
0.0
 11
906.90506967506155
 21
830.67799301673813
 31
0.0
  0
LINE
  5
2D3
  8
CRS
  6
BYBLOCK
 10
903.90506967506155
 20
833.67799301673813
 30
0.0
 11
909.90506967506155
 21
833.67799301673813
 31
0.0
  0
LINE
  5
2D4
  8
CRS
  6
BYBLOCK
 10
906.90506967506155
 20
827.67799301673801
 30
0.0
 11
906.90506967506155
 21
820.4279930167379
 31
0.0
  0
LINE
  5
2D5
  8
CRS
  6
BYBLOCK
 10
912.90506967506155
 20
833.67799301673813
 30
0.0
 11
920.15506967506155
 21
833.67799301673813
 31
0.0
  0
LINE
  5
2D6
  8
CRS
  6
BYBLOCK
 10
906.90506967506155
 20
839.87799301673817
 30
0.0
 11
906.90506967506155
 21
847.12799301673817
 31
0.0
  0
LINE
  5
2D7
  8
DRG
 10
950.40254435811983
 20
812.3754676997961
 30
0.0
 11
950.40254435811983
 21
806.29040228180236
 31
0.0
  0
ARC
  5
2D8
  8
DRG
 10
944.40254435811983
 20
806.29040228180236
 30
0.0
 40
6.0
 50
280.80692287486102
 51
0.0
  0
LINE
  5
2D9
  8
DRG
 10
944.40254435811983
 20
823.17546769979629
 30
0.0
 11
956.40254435811994
 21
823.17546769979617
 31
0.0
  0
ARC
  5
2DA
  8
DRG
 10
944.40254435811983
 20
812.17546769979617
 30
0.0
 40
6.0
 50
0.0
 51
90.0
  0
LINE
  5
2DB
  8
DRG
 10
901.40254435811983
 20
943.17546769979606
 30
0.0
 11
956.40254435811948
 21
943.17546769979595
 31
0.0
  0
LINE
  5
2DC
  8
CRS
 10
966.18356235287888
 20
883.17546769979606
 30
0.0
 11
879.00703767705909
 21
883.17546769979606
 31
0.0
  0
LINE
  5
2DD
  8
DRG
 10
956.40254435812005
 20
948.17546769979617
 30
0.0
 11
901.40254435811983
 21
948.17546769979617
 31
0.0
  0
CIRCLE
  5
2DE
  8
DRG2
 10
906.90506967506155
 20
932.67294238285444
 30
0.0
 40
9.1349999999999998
  0
CIRCLE
  5
2DF
  8
DRG2
 10
906.90506967506155
 20
932.67294238285444
 30
0.0
 40
8.1349999999999998
  0
LINE
  5
2E0
  8
CRS
  6
BYBLOCK
 10
906.90506967506155
 20
926.67294238285444
 30
0.0
 11
906.90506967506155
 21
919.42294238285422
 31
0.0
  0
POLYLINE
  5
2E1
  8
DRG2
 66
     1
 10
0.0
 20
0.0
 30
0.0
 70
     1
  0
VERTEX
  5
503
  8
DRG2
 10
904.01831832911341
 20
937.67294238285444
 30
0.0
  0
VERTEX
  5
504
  8
DRG2
 10
901.13156698316516
 20
932.67294238285444
 30
0.0
  0
VERTEX
  5
505
  8
DRG2
 10
904.01831832911341
 20
927.67294238285444
 30
0.0
  0
VERTEX
  5
506
  8
DRG2
 10
909.79182102100958
 20
927.67294238285444
 30
0.0
  0
VERTEX
  5
507
  8
DRG2
 10
912.67857236695795
 20
932.67294238285444
 30
0.0
  0
VERTEX
  5
508
  8
DRG2
 10
909.79182102100958
 20
937.67294238285444
 30
0.0
  0
SEQEND
  5
509
  8
DRG2
  0
ARC
  5
2E2
  8
DRG
 10
901.40254435811983
 20
938.17546769979617
 30
0.0
 40
5.0
 50
90.0
 51
180.0
  0
ARC
  5
2E3
  8
DRG
 10
901.40254435811983
 20
938.17546769979617
 30
0.0
 40
10.0
 50
90.0
 51
180.0
  0
LINE
  5
2E4
  8
CRS
  6
BYBLOCK
 10
900.90506967506155
 20
932.67294238285444
 30
0.0
 11
893.65506967506133
 21
932.67294238285444
 31
0.0
  0
SOLID
  5
2E5
  8
DIM
 10
897.19684196134074
 20
946.70443059146953
 30
0.0
 11
895.01986444517343
 21
945.16433968336946
 31
0.0
 12
900.72862592755746
 22
939.40345258891728
 32
0.0
 13
900.72862592755746
 23
939.40345258891728
 33
0.0
  0
LINE
  5
2E6
  8
CRS
  6
BYBLOCK
 10
906.90506967506155
 20
938.67294238285444
 30
0.0
 11
906.90506967506155
 21
945.92294238285456
 31
0.0
  0
LINE
  5
2E7
  8
CRS
  6
BYBLOCK
 10
903.90506967506155
 20
932.67294238285444
 30
0.0
 11
909.90506967506155
 21
932.67294238285444
 31
0.0
  0
LINE
  5
2E8
  8
CRS
  6
BYBLOCK
 10
906.90506967506155
 20
929.67294238285444
 30
0.0
 11
906.90506967506155
 21
935.67294238285444
 31
0.0
  0
LINE
  5
2E9
  8
CRS
  6
BYBLOCK
 10
912.90506967506155
 20
932.67294238285444
 30
0.0
 11
920.15506967506155
 21
932.67294238285444
 31
0.0
  0
TEXT
  5
2EA
  8
TXT
 10
775.50000000000045
 20
1190.6707824699699
 30
0.0
 40
7.0
  1
8 HOLES %%c16.5 (%%c0.65")
 72
     4
 11
840.00000000000034
 21
1193.6707824699699
 31
0.0
  0
TEXT
  5
2EB
  8
TXT
 10
771.33333333333371
 20
1175.9707824699699
 30
0.0
 40
7.0
  1
ON %%c254.0 (%%c10.00") P.C.
 72
     4
 11
840.00000000000034
 21
1178.9707824699699
 31
0.0
  0
TEXT
  5
2EC
  8
TXT
 10
771.33333333333371
 20
1138.87078246997
 30
0.0
 40
7.0
  1
ON %%c254.0 (%%c10.00") P.C.
 72
     4
 11
840.00000000000034
 21
1141.87078246997
 31
0.0
  0
TEXT
  5
2ED
  8
TXT
 10
775.50000000000045
 20
1153.57078246997
 30
0.0
 40
7.0
  1
8 HOLES %%c16.5 (%%c0.65")
 72
     4
 11
840.00000000000034
 21
1156.57078246997
 31
0.0
  0
LINE
  5
2EE
  8
DIM
 10
844.4465407075611
 20
998.09576219679263
 30
0.0
 11
859.20707059168853
 21
998.09576219679263
 31
0.0
  0
TEXT
  5
2EF
  8
TXT
 10
654.0
 20
1338.57078246997
 30
0.0
 40
7.0
  1
%%c100.05 +0.05
 72
     4
 11
693.0
 21
1342.07078246997
 31
0.0
  0
TEXT
  5
2F0
  8
TXT
 10
639.5
 20
1324.37078246997
 30
0.0
 40
7.0
  1
(%%c3.939" +0.002") 
 72
     4
 11
693.0
 21
1327.37078246997
 31
0.0
  0
TEXT
  5
2F1
  8
TXT
 10
640.16666666666663
 20
1250.1707824699699
 30
0.0
 40
7.0
  1
(%%c5.120" +0.002") 
 72
     4
 11
693.0
 21
1253.1707824699699
 31
0.0
  0
TEXT
  5
2F2
  8
TXT
 10
654.0
 20
1264.37078246997
 30
0.0
 40
7.0
  1
%%c130.05 +0.05
 72
     4
 11
693.0
 21
1267.87078246997
 31
0.0
  0
TEXT
  5
2F3
  8
TXT
 10
640.16666666666663
 20
1287.2707824699701
 30
0.0
 40
7.0
  1
(%%c3.751" +0.002") 
 72
     4
 11
693.0
 21
1290.2707824699701
 31
0.0
  0
TEXT
  5
2F4
  8
TXT
 10
656.66666666666663
 20
1301.4707824699699
 30
0.0
 40
7.0
  1
%%c95.27 +0.05
 72
     4
 11
693.0
 21
1304.9707824699699
 31
0.0
  0
TEXT
  5
2F5
  8
TXT
 10
624.83333333333326
 20
1398.0707824699689
 30
0.0
 40
7.0
  1
INPUT FLANGE DETAILS
 72
     4
 11
686.0
 21
1401.5707824699689
 31
0.0
  0
TEXT
  5
2F6
  8
TXT
 10
674.0
 20
1375.670782469969
 30
0.0
 40
7.0
  1
RECESS
 72
     4
 11
693.0
 21
1379.170782469969
 31
0.0
  0
TEXT
  5
2F7
  8
TXT
 10
684.16666666666663
 20
1360.970782469969
 30
0.0
 40
7.0
  1
DIA.
 72
     4
 11
693.0
 21
1364.470782469969
 31
0.0
  0
TEXT
  5
2F8
  8
TXT
 10
654.0
 20
1227.2707824699701
 30
0.0
 40
7.0
  1
%%c126.92 +0.05
 72
     4
 11
693.0
 21
1230.7707824699701
 31
0.0
  0
TEXT
  5
2F9
  8
TXT
 10
519.83333333333314
 20
1324.37078246997
 30
0.0
 40
7.0
  1
(%%c1.181" -0.002")
 72
     4
 11
567.0
 21
1327.37078246997
 31
0.0
  0
TEXT
  5
2FA
  8
TXT
 10
518.5
 20
1250.1707824699699
 30
0.0
 40
7.0
  1
(%%c1.575" -0.002")
 72
     4
 11
567.0
 21
1253.1707824699699
 31
0.0
  0
TEXT
  5
2FB
  8
TXT
 10
519.83333333333314
 20
1287.2707824699701
 30
0.0
 40
7.0
  1
(%%c1.181" -0.002")
 72
     4
 11
567.0
 21
1290.2707824699701
 31
0.0
  0
TEXT
  5
2FC
  8
TXT
 10
530.66666666666663
 20
1338.57078246997
 30
0.0
 40
7.0
  1
%%c30.00 -0.05
 72
     4
 11
567.0
 21
1342.07078246997
 31
0.0
  0
TEXT
  5
2FD
  8
TXT
 10
530.66666666666663
 20
1264.37078246997
 30
0.0
 40
7.0
  1
%%c40.00 -0.05
 72
     4
 11
567.0
 21
1267.87078246997
 31
0.0
  0
TEXT
  5
2FE
  8
TXT
 10
530.66666666666663
 20
1301.4707824699699
 30
0.0
 40
7.0
  1
%%c30.00 -0.05
 72
     4
 11
567.0
 21
1304.9707824699699
 31
0.0
  0
TEXT
  5
2FF
  8
TXT
 10
530.66666666666663
 20
1227.2707824699701
 30
0.0
 40
7.0
  1
%%c40.00 -0.05
 72
     4
 11
567.0
 21
1230.7707824699701
 31
0.0
  0
TEXT
  5
300
  8
TXT
 10
415.16666666666669
 20
1324.37078246997
 30
0.0
 40
7.0
  1
x 15 (0.59")
 72
     4
 11
448.0
 21
1327.37078246997
 31
0.0
  0
TEXT
  5
301
  8
TXT
 10
414.5
 20
1250.1707824699699
 30
0.0
 40
7.0
  1
x 20 (0.79")
 72
     4
 11
448.0
 21
1253.1707824699699
 31
0.0
  0
TEXT
  5
302
  8
TXT
 10
411.5
 20
1264.87078246997
 30
0.0
 40
7.0
  1
%%c210 (%%c8.27")
 72
     4
 11
448.0
 21
1267.87078246997
 31
0.0
  0
TEXT
  5
303
  8
TXT
 10
415.16666666666669
 20
1287.2707824699701
 30
0.0
 40
7.0
  1
x 15 (0.59")
 72
     4
 11
448.0
 21
1290.2707824699701
 31
0.0
  0
TEXT
  5
304
  8
TXT
 10
411.5
 20
1301.9707824699699
 30
0.0
 40
7.0
  1
%%c175 (%%c6.89")
 72
     4
 11
448.0
 21
1304.9707824699699
 31
0.0
  0
TEXT
  5
305
  8
TXT
 10
411.5
 20
1227.7707824699701
 30
0.0
 40
7.0
  1
%%c210 (%%c8.27")
 72
     4
 11
448.0
 21
1230.7707824699701
 31
0.0
  0
TEXT
  5
306
  8
TXT
 10
408.8333333333332
 20
1376.170782469969
 30
0.0
 40
7.0
  1
FLANGE O/DIA.
 72
     4
 11
448.0
 21
1379.170782469969
 31
0.0
  0
TEXT
  5
307
  8
TXT
 10
413.0
 20
1360.970782469969
 30
0.0
 40
7.0
  1
& THICKNESS
 72
     4
 11
448.0
 21
1364.470782469969
 31
0.0
  0
TEXT
  5
308
  8
TXT
 10
411.5
 20
1339.07078246997
 30
0.0
 40
7.0
  1
%%c175 (%%c6.89")
 72
     4
 11
448.0
 21
1342.07078246997
 31
0.0
  0
TEXT
  5
309
  8
TXT
 10
551.0
 20
1375.670782469969
 30
0.0
 40
7.0
  1
SHAFT
 72
     4
 11
567.0
 21
1379.170782469969
 31
0.0
  0
TEXT
  5
30A
  8
TXT
 10
558.16666666666663
 20
1360.970782469969
 30
0.0
 40
7.0
  1
DIA.
 72
     4
 11
567.0
 21
1364.470782469969
 31
0.0
  0
TEXT
  5
30B
  8
TXT
 10
775.50000000000045
 20
1339.07078246997
 30
0.0
 40
7.0
  1
4 HOLES %%c16.5 (%%c0.65")
 72
     4
 11
840.00000000000034
 21
1342.07078246997
 31
0.0
  0
TEXT
  5
30C
  8
TXT
 10
775.50000000000045
 20
1301.9707824699699
 30
0.0
 40
7.0
  1
4 HOLES %%c16.5 (%%c0.65")
 72
     4
 11
840.00000000000034
 21
1304.9707824699699
 31
0.0
  0
TEXT
  5
30D
  8
TXT
 10
775.50000000000045
 20
1264.87078246997
 30
0.0
 40
7.0
  1
4 HOLES %%c20.5 (%%c0.81")
 72
     4
 11
840.00000000000034
 21
1267.87078246997
 31
0.0
  0
TEXT
  5
30E
  8
TXT
 10
774.66666666666697
 20
1250.1707824699699
 30
0.0
 40
7.0
  1
ON %%c165.0 (%%c6.50") P.C.
 72
     4
 11
840.00000000000034
 21
1253.1707824699699
 31
0.0
  0
TEXT
  5
30F
  8
TXT
 10
775.33333333333371
 20
1287.2707824699701
 30
0.0
 40
7.0
  1
ON %%c140.0 (%%c5.51") P.C.
 72
     4
 11
840.00000000000034
 21
1290.2707824699701
 31
0.0
  0
TEXT
  5
310
  8
TXT
 10
775.33333333333371
 20
1324.37078246997
 30
0.0
 40
7.0
  1
ON %%c140.0 (%%c5.51") P.C.
 72
     4
 11
840.00000000000034
 21
1327.37078246997
 31
0.0
  0
TEXT
  5
311
  8
TXT
 10
803.66666666666697
 20
1375.670782469969
 30
0.0
 40
7.0
  1
HOLE DETAILS
 72
     4
 11
840.00000000000034
 21
1379.170782469969
 31
0.0
  0
TEXT
  5
312
  8
TXT
 10
800.33333333333394
 20
1361.470782469969
 30
0.0
 40
7.0
  1
(OFF CENTRES)
 72
     4
 11
840.00000000000034
 21
1364.470782469969
 31
0.0
  0
TEXT
  5
313
  8
TXT
 10
775.50000000000045
 20
1227.7707824699701
 30
0.0
 40
7.0
  1
4 HOLES %%c20.5 (%%c0.81")
 72
     4
 11
840.00000000000034
 21
1230.7707824699701
 31
0.0
  0
TEXT
  5
314
  8
TXT
 10
977.66666666666674
 20
1375.670782469969
 30
0.0
 40
7.0
  1
KEY
 72
     4
 11
987.0
 21
1379.170782469969
 31
0.0
  0
LINE
  5
315
  8
DIM
 10
1033.084134230588
 20
875.17546769979606
 30
0.0
 11
1033.084134230588
 21
535.07546769979615
 31
0.0
  0
LINE
  5
316
  8
BORT
 39
2.52
 10
1019.236156500049
 20
86.799999999999983
 30
0.0
 11
1019.236156500049
 21
0.0
 31
0.0
  0
LINE
  5
317
  8
DRG2
 10
1025.6405580260221
 20
130.08594638981671
 30
0.0
 11
1025.6405580260221
 21
249.08594638981671
 31
0.0
  0
SOLID
  5
31A
  8
DIM
 10
1015.784783125023
 20
286.24158963269213
 30
0.0
 11
1015.784783125023
 21
283.57492296602533
 31
0.0
 12
1023.784783125023
 22
284.9082562993587
 32
0.0
 13
1023.784783125023
 23
284.9082562993587
 33
0.0
  0
SOLID
  5
31B
  8
DIM
 10
1007.784783125023
 20
286.24158963269213
 30
0.0
 11
1007.784783125023
 21
283.57492296602533
 31
0.0
 12
1015.784783125023
 22
284.9082562993587
 32
0.0
 13
1015.784783125023
 23
284.9082562993587
 33
0.0
  0
SOLID
  5
31C
  8
DIM
 10
1031.7508008972541
 20
535.07546769979615
 30
0.0
 11
1034.417467563921
 21
535.07546769979615
 31
0.0
 12
1033.084134230588
 22
527.07546769979615
 32
0.0
 13
1033.084134230588
 23
527.07546769979615
 33
0.0
  0
TEXT
  5
31D
  8
DIM
 10
1044.084134230588
 20
688.22030056345977
 30
0.0
 40
7.0
  1
(14.02")
 50
90.0
 72
     4
 11
1041.084134230588
 21
708.55363389679314
 31
0.0
  0
TEXT
  5
31E
  8
DIM
 10
1028.584134230588
 20
699.72030056345966
 30
0.0
 40
7.0
  1
356
 50
90.0
 72
     4
 11
1025.084134230588
 21
708.55363389679314
 31
0.0
  0
LINE
  5
31F
  8
DRG2
 10
1050.0
 20
1130.6707824699699
 30
0.0
 11
1050.0
 21
1412.7707824699701
 31
0.0
  0
TEXT
  5
320
  8
DIM
 10
1044.084134230588
 20
909.26938091175964
 30
0.0
 40
7.0
  1
(3.46")
 50
90.0
 72
     4
 11
1041.084134230588
 21
926.93604757842616
 31
0.0
  0
TEXT
  5
321
  8
DIM
 10
1028.584134230588
 20
921.26938091175953
 30
0.0
 40
7.0
  1
88
 50
90.0
 72
     4
 11
1025.084134230588
 21
926.93604757842616
 31
0.0
  0
LINE
  5
322
  8
DIM
 10
1033.084134230588
 20
891.17546769979606
 30
0.0
 11
1033.084134230588
 21
963.17546769979617
 31
0.0
  0
SOLID
  5
323
  8
DIM
 10
1031.7508008972541
 20
891.17546769979606
 30
0.0
 11
1034.417467563921
 21
891.17546769979606
 31
0.0
 12
1033.084134230588
 22
883.17546769979606
 32
0.0
 13
1033.084134230588
 23
883.17546769979606
 33
0.0
  0
SOLID
  5
324
  8
DIM
 10
1031.7508008972541
 20
875.17546769979606
 30
0.0
 11
1034.417467563921
 21
875.17546769979606
 31
0.0
 12
1033.084134230588
 22
883.17546769979606
 32
0.0
 13
1033.084134230588
 23
883.17546769979606
 33
0.0
  0
SOLID
  5
325
  8
DIM
 10
1031.7508008972541
 20
963.17546769979617
 30
0.0
 11
1034.417467563921
 21
963.17546769979617
 31
0.0
 12
1033.084134230588
 22
971.17546769979617
 32
0.0
 13
1033.084134230588
 23
971.17546769979617
 33
0.0
  0
INSERT
  5
4BD
  8
0
  2
ROTORK_GEARS_LOGO
 10
1.2241813264247119
 20
-2.397148437534582
 30
0.0
 41
1.050000000000014
 42
1.050000000000014
 43
1.05
  0
ENDSEC
  0
EOF
