  0
SECTION
  2
HEADER
  9
$ACADVER
  1
AC1009
  9
$INSBASE
 10
10.0
 20
14.0
 30
0.0
  9
$EXTMIN
 10
0.0
 20
166.3485541960836
 30
0.0
  9
$EXTMAX
 10
1510.6451614324869
 20
2194.5850653269222
 30
3.6000000000000001
  9
$LIMMIN
 10
0.0
 20
0.0
  9
$LIMMAX
 10
1525.0
 20
2200.0
  9
$ORTHOMODE
 70
     0
  9
$REGENMODE
 70
     1
  9
$FILLMODE
 70
     1
  9
$QTEXTMODE
 70
     0
  9
$MIRRTEXT
 70
     0
  9
$DRAGMODE
 70
     2
  9
$LTSCALE
 40
2.0
  9
$OSMODE
 70
    47
  9
$ATTMODE
 70
     1
  9
$TEXTSIZE
 40
10.0
  9
$TRACEWID
 40
10.0
  9
$TEXTSTYLE
  7
STANDARD
  9
$CLAYER
  8
DIM
  9
$CELTYPE
  6
BYLAYER
  9
$CECOLOR
 62
   256
  9
$DIMSCALE
 40
2.0
  9
$DIMASZ
 40
6.0
  9
$DIMEXO
 40
5.0
  9
$DIMDLI
 40
10.0
  9
$DIMRND
 40
0.0
  9
$DIMDLE
 40
1.25
  9
$DIMEXE
 40
2.0
  9
$DIMTP
 40
0.0
  9
$DIMTM
 40
0.0
  9
$DIMTXT
 40
5.0
  9
$DIMCEN
 40
-3.0
  9
$DIMTSZ
 40
0.0
  9
$DIMTOL
 70
     0
  9
$DIMLIM
 70
     0
  9
$DIMTIH
 70
     0
  9
$DIMTOH
 70
     0
  9
$DIMSE1
 70
     0
  9
$DIMSE2
 70
     0
  9
$DIMTAD
 70
     0
  9
$DIMZIN
 70
     0
  9
$DIMBLK
  1

  9
$DIMASO
 70
     0
  9
$DIMSHO
 70
     0
  9
$DIMPOST
  1

  9
$DIMAPOST
  1

  9
$DIMALT
 70
     0
  9
$DIMALTD
 70
     2
  9
$DIMALTF
 40
0.039
  9
$DIMLFAC
 40
1.0
  9
$DIMTOFL
 70
     0
  9
$DIMTVP
 40
1.1424000000000001
  9
$DIMTIX
 70
     0
  9
$DIMSOXD
 70
     0
  9
$DIMSAH
 70
     0
  9
$DIMBLK1
  1

  9
$DIMBLK2
  1

  9
$DIMSTYLE
  2
STD
  9
$DIMCLRD
 70
   256
  9
$DIMCLRE
 70
   256
  9
$DIMCLRT
 70
   256
  9
$DIMTFAC
 40
0.75
  9
$DIMGAP
 40
1.5
  9
$LUNITS
 70
     2
  9
$LUPREC
 70
     2
  9
$SKETCHINC
 40
1.0
  9
$FILLETRAD
 40
0.0
  9
$AUNITS
 70
     0
  9
$AUPREC
 70
     2
  9
$MENU
  1
ACAD
  9
$ELEVATION
 40
0.0
  9
$PELEVATION
 40
0.0
  9
$THICKNESS
 40
0.0
  9
$LIMCHECK
 70
     0
  9
$BLIPMODE
 70
     0
  9
$CHAMFERA
 40
0.0
  9
$CHAMFERB
 40
0.0
  9
$SKPOLY
 70
     1
  9
$TDCREATE
 40
2449750.5630295132
  9
$TDUPDATE
 40
2452817.4681094438
  9
$TDINDWG
 40
0.4957771644
  9
$TDUSRTIMER
 40
0.4957771644
  9
$USRTIMER
 70
     1
  9
$ANGBASE
 50
0.0
  9
$ANGDIR
 70
     0
  9
$PDMODE
 70
     3
  9
$PDSIZE
 40
0.0
  9
$PLINEWID
 40
0.0
  9
$COORDS
 70
     1
  9
$SPLFRAME
 70
     0
  9
$SPLINETYPE
 70
     6
  9
$SPLINESEGS
 70
     6
  9
$ATTDIA
 70
     0
  9
$ATTREQ
 70
     1
  9
$HANDLING
 70
  4097
  9
$HANDSEED
  5
786
  9
$SURFTAB1
 70
    18
  9
$SURFTAB2
 70
    18
  9
$SURFTYPE
 70
     6
  9
$SURFU
 70
    18
  9
$SURFV
 70
    18
  9
$UCSNAME
  2

  9
$UCSORG
 10
0.0
 20
0.0
 30
0.0
  9
$UCSXDIR
 10
1.0
 20
0.0
 30
0.0
  9
$UCSYDIR
 10
0.0
 20
1.0
 30
0.0
  9
$PUCSNAME
  2

  9
$PUCSORG
 10
0.0
 20
0.0
 30
0.0
  9
$PUCSXDIR
 10
1.0
 20
0.0
 30
0.0
  9
$PUCSYDIR
 10
0.0
 20
1.0
 30
0.0
  9
$USERI1
 70
     0
  9
$USERI2
 70
     0
  9
$USERI3
 70
     0
  9
$USERI4
 70
     0
  9
$USERI5
 70
     0
  9
$USERR1
 40
0.0
  9
$USERR2
 40
0.0
  9
$USERR3
 40
0.0
  9
$USERR4
 40
0.0
  9
$USERR5
 40
0.0
  9
$WORLDVIEW
 70
     0
  9
$SHADEDGE
 70
     3
  9
$SHADEDIF
 70
    70
  9
$TILEMODE
 70
     1
  9
$MAXACTVP
 70
    16
  9
$PLIMCHECK
 70
     0
  9
$PEXTMIN
 10
1.0000000000000000E+020
 20
1.0000000000000000E+020
 30
1.0000000000000000E+020
  9
$PEXTMAX
 10
-1.0000000000000000E+020
 20
-1.0000000000000000E+020
 30
-1.0000000000000000E+020
  9
$PLIMMIN
 10
0.0
 20
0.0
  9
$PLIMMAX
 10
420.0
 20
297.0
  9
$UNITMODE
 70
     0
  9
$VISRETAIN
 70
     0
  9
$PLINEGEN
 70
     0
  9
$PSLTSCALE
 70
     0
  0
ENDSEC
  0
SECTION
  2
TABLES
  0
TABLE
  2
VPORT
 70
     2
  0
VPORT
  2
*ACTIVE
 70
     0
 10
0.0
 20
0.0
 11
1.0
 21
1.0
 12
-1034.2890883227481
 22
-442.56714832487648
 13
0.0
 23
0.0
 14
5.0
 24
5.0
 15
50.0
 25
50.0
 16
0.0
 26
0.0
 36
1.0
 17
2158.1353229218721
 27
1623.0496364510011
 37
0.0
 40
2044.304159468317
 41
1.7512195121951211
 42
50.0
 43
0.0
 44
0.0
 50
0.0
 51
0.0
 71
     0
 72
  2000
 73
     1
 74
     2
 75
     0
 76
     0
 77
     0
 78
     1
  0
ENDTAB
  0
TABLE
  2
LTYPE
 70
    13
  0
LTYPE
  2
CONTINUOUS
 70
     0
  3
Solid line
 72
    65
 73
     0
 40
0.0
  0
LTYPE
  2
CENTER
 70
     0
  3
____ _ ____ _ ____ _ ____ _ ____ _ ____ _ ____ 
 72
    65
 73
     4
 40
50.0
 49
31.25
 49
-6.25
 49
6.25
 49
-6.25
  0
LTYPE
  2
HIDDEN
 70
     0
  3
_ _ _ _ _ _ _ _ _ _ _ _ _ _ _ _ _ _ _ _ _ _ _ _
 72
    65
 73
     2
 40
9.375
 49
6.25
 49
-3.125
  0
LTYPE
  2
PHANTOM2
 70
     0
  3
Phantom (.5x) ___ _ _ ___ _ _ ___ _ _ ___ _ _
 72
    65
 73
     6
 40
1.25
 49
0.625
 49
-0.125
 49
0.125
 49
-0.125
 49
0.125
 49
-0.125
  0
LTYPE
  2
ASULTYPE
 70
     0
  3
Solid line
 72
    65
 73
     2
 40
3.0
 49
2.5
 49
0.5
  0
LTYPE
  2
ASVLTYPE
 70
     0
  3
__ __ __ __ __ __ __ __ __ __ __ __ __ __ __ __ __ __ __ __ __
 72
    65
 73
     2
 40
0.75
 49
0.5
 49
-0.25
  0
LTYPE
  2
AM_ISO02W050
 70
     0
  3
__ __ __ __ __ __ __ __ __ __ __ __ __ __ __
 72
    65
 73
     2
 40
7.5
 49
6.0
 49
-1.5
  0
LTYPE
  2
AM_ISO08W050
 70
     0
  3
____ . ____ . ____ . ____ . ____ . ____ . ____
 72
    65
 73
     4
 40
18.0
 49
12.0
 49
-1.5
 49
3.0
 49
-1.5
  0
LTYPE
  2
AM_ISO09W050
 70
     0
  3
_____ . . _____ . . _____ . . ____ .. ____
 72
    65
 73
     6
 40
22.5
 49
12.0
 49
-1.5
 49
3.0
 49
-1.5
 49
3.0
 49
-1.5
  0
LTYPE
  2
AMCONSTR
 70
     0
  3
_______________________
 72
    65
 73
     2
 40
9999.0
 49
9999.0
 49
0.0
  0
LTYPE
  2
AM_ISO08W050X2
 70
     0
  3
__ . __ . __ . __ . __ . __
 72
    65
 73
     4
 40
9.0
 49
6.0
 49
-0.75
 49
1.5
 49
-0.75
  0
LTYPE
  2
AM_ISO02W050X2
 70
     0
  3
 _ _ _ _ _ _ _ _ _ _ _ _
 72
    65
 73
     2
 40
3.75
 49
3.0
 49
-0.75
  0
LTYPE
  2
AMZIGZAG
 70
     0
  3
/\/-/\/-/\/-/\/-/\/-/\/
 72
    65
 73
     2
 40
11.000099999999991
 49
0.0001
 49
-11.0
  0
ENDTAB
  0
TABLE
  2
LAYER
 70
    10
  0
LAYER
  2
0
 70
     0
 62
     7
  6
CONTINUOUS
  0
LAYER
  2
BORT
 70
     0
 62
     7
  6
CONTINUOUS
  0
LAYER
  2
DRG
 70
     0
 62
     1
  6
CONTINUOUS
  0
LAYER
  2
CRS
 70
     0
 62
     3
  6
CENTER
  0
LAYER
  2
HID
 70
     0
 62
     6
  6
HIDDEN
  0
LAYER
  2
DRG2
 70
     0
 62
     8
  6
CONTINUOUS
  0
LAYER
  2
DIM
 70
     0
 62
     2
  6
CONTINUOUS
  0
LAYER
  2
TXT
 70
     0
 62
     4
  6
CONTINUOUS
  0
LAYER
  2
BOR
 70
     0
 62
     1
  6
CONTINUOUS
  0
LAYER
  2
HATCH
 70
     0
 62
     7
  6
CONTINUOUS
  0
ENDTAB
  0
TABLE
  2
STYLE
 70
     2
  0
STYLE
  2
STANDARD
 70
     0
 40
0.0
 41
1.0
 50
0.0
 71
     0
 42
10.0
  3
SIMPLEX
  4

  0
STYLE
  2

 70
     1
 40
0.0
 41
1.0
 50
0.0
 71
     0
 42
10.0
  3
ltypeshp.shx
  4

  0
ENDTAB
  0
TABLE
  2
VIEW
 70
     0
  0
ENDTAB
  0
TABLE
  2
UCS
 70
     0
  0
ENDTAB
  0
TABLE
  2
APPID
 70
    12
  0
APPID
  2
ACAD
 70
     0
  0
APPID
  2
GENIUS_GENDIM_13
 70
     0
  0
APPID
  2
GENIUS_GENDTOL_13
 70
     0
  0
APPID
  2
GENIUS_GE3DTOL_13
 70
     0
  0
APPID
  2
MCAD_NO_VIS
 70
     0
  0
APPID
  2
ACAD_TEMP_GRAPHIC
 70
     0
  0
APPID
  2
AD_DRAW
 70
     0
  0
APPID
  2
ACATTRIBSERVICES
 70
     0
  0
APPID
  2
ASURF_PCURVE_APPNAME
 70
     0
  0
APPID
  2
DESIGNERASSEMBLIES
 70
     0
  0
APPID
  2
ACADM_DIM_EDIT
 70
     0
  0
APPID
  2
CONTENTBLOCKICON
 70
     0
  0
ENDTAB
  0
TABLE
  2
DIMSTYLE
 70
     1
  0
DIMSTYLE
  2
STD
 70
     0
  3

  4

  5

  6

  7

 40
2.0
 41
6.0
 42
5.0
 43
10.0
 44
2.0
 45
0.0
 46
1.25
 47
0.0
 48
0.0
140
5.0
141
-3.0
142
0.0
143
0.039
144
1.0
145
1.1424000000000001
146
0.75
147
1.5
 71
     0
 72
     0
 73
     0
 74
     0
 75
     0
 76
     0
 77
     0
 78
     0
170
     0
171
     2
172
     0
173
     0
174
     0
175
     0
176
   256
177
   256
178
   256
  0
ENDTAB
  0
ENDSEC
  0
SECTION
  2
BLOCKS
  0
BLOCK
  8
0
  2
$MODEL_SPACE
 70
     0
 10
0.0
 20
0.0
 30
0.0
  3
$MODEL_SPACE
  1

  0
ENDBLK
  5
408
  8
0
  0
BLOCK
 67
     1
  8
0
  2
$PAPER_SPACE
 70
     0
 10
0.0
 20
0.0
 30
0.0
  3
$PAPER_SPACE
  1

  0
ENDBLK
  5
406
 67
     1
  8
0
  0
BLOCK
  8
0
  2
*U0
 70
     1
 10
0.0
 20
0.0
 30
0.0
  3
*U0
  1

  0
ENDBLK
  5
4BE
  8
0
  0
BLOCK
  8
0
  2
LOGO
 70
     0
 10
0.0
 20
0.0
 30
0.0
  3
LOGO
  1

  0
INSERT
  5
4E9
  8
DRG
  6
CONTINUOUS
 62
     7
  2
*U3
 10
0.0
 20
0.0
 30
0.0
1001
ACAD
1002
{
1000
R14_HATCH_DATA
1000
4E9
1011
1.0
1021
0.0
1031
0.0
1021
0.0
1031
0.0
1011
0.0
1021
0.0
1031
0.0
1021
1.0
1031
0.0
1011
0.0
1021
0.0
1031
0.0
1021
0.0
1031
1.0
1040
0.0
1010
0.0
1020
0.0
1030
1.0
1000
SOLID
1070
     1
1070
     1
1071
       17
1071
        7
1070
     1
1070
     1
1071
        9
1040
18.821661727211438
1040
85.569427875032716
1040
-0.4142135623730951
1040
26.821661727211438
1040
93.569427875032716
1040
0.0
1040
28.191279411133561
1040
93.56942787503273
1040
0.0
1040
28.191279411133561
1040
102.0369718403326
1040
0.2674368359602434
1040
18.821661727211438
1040
97.915857504065912
1040
0.0
1040
18.821661727211438
1040
102.0369718403326
1040
0.0
1040
7.7802673214059723
1040
102.0369718403326
1040
0.0
1040
7.7802673214059723
1040
62.115696081838671
1040
0.0
1040
18.821661727211438
1040
62.115696081838678
1040
0.0
1071
        9
1005
50C
1005
513
1005
512
1005
511
1005
510
1005
50B
1005
4FB
1005
4FD
1005
4F9
1071
        7
1070
     1
1070
     1
1071
        8
1040
29.838142899665851
1040
72.897331735467191
1040
0.4142135623730863
1040
41.838142899665847
1040
60.89733173546756
1040
0.0
1040
47.650196927116667
1040
60.89733173546756
1040
0.4142126981028046
1040
59.650196927064421
1040
72.897296325816569
1040
0.0348233422700972
1040
59.650196927064421
1040
90.096337111694368
1040
0.4142126981028142
1040
47.650196927116667
1040
102.0963017020437
1040
0.0
1040
41.838142899665847
1040
102.0963017020437
1040
0.4142135623730893
1040
29.838142899665851
1040
90.096301702044016
1040
0.0348231985322414
1071
        8
1005
4ED
1005
514
1005
50F
1005
50E
1005
4FA
1005
50A
1005
4EC
1005
54B
1071
       22
1070
     1
1070
     1
1071
        4
1040
40.882971825549703
1040
90.337990088334166
1040
-1.0
1040
48.605370470334492
1040
90.337990088334735
1040
-0.0248818291691539
1040
48.605370470334492
1040
72.655643349175492
1040
-1.0
1040
40.882971825549703
1040
72.655643349177595
1040
-0.0248818291691501
1071
        4
1005
4EF
1005
54A
1005
4EE
1005
50D
1071
        7
1070
     1
1070
     1
1071
       18
1040
67.331191210151701
1040
68.89733173546756
1040
0.4142135623730951
1040
75.331191210151701
1040
60.89733173546756
1040
0.0
1040
80.675802928262684
1040
60.89733173546756
1040
0.1450058980834471
1040
84.501142256151084
1040
62.072518178885289
1040
0.0
1040
84.501142256151084
1040
70.214764581409185
1040
-0.0833071563303517
1040
83.501142256151255
1040
69.876055965300111
1040
0.0
1040
80.482556033578916
1040
69.876055965300111
1040
-0.4142135623730951
1040
77.482556033578931
1040
72.876055965300111
1040
0.0
1040
77.482556033578931
1040
94.593352860836134
1040
0.0
1040
84.553623006881026
1040
94.593352860836134
1040
0.0
1040
84.553623006881026
1040
101.9948050433795
1040
0.0
1040
77.482556033578931
1040
101.9948050433795
1040
0.0
1040
77.482556033578931
1040
107.1280725498991
1040
0.0
1040
67.331191210151701
1040
107.1280725498991
1040
0.0
1040
67.331191210151701
1040
101.9948050433795
1040
0.0
1040
62.478989637268562
1040
101.9948050433795
1040
0.0
1040
62.478989637268569
1040
94.593352860836134
1040
0.0
1040
67.331191210151687
1040
94.593352860836134
1040
0.0
1071
       18
1005
548
1005
55C
1005
549
1005
554
1005
552
1005
553
1005
54F
1005
551
1005
550
1005
54C
1005
51E
1005
532
1005
521
1005
51F
1005
559
1005
547
1005
54E
1005
54D
1071
        7
1070
     1
1070
     1
1071
        8
1040
85.849782736700035
1040
72.897331735467475
1040
0.4142135623730931
1040
97.849782736700035
1040
60.89733173546756
1040
0.0
1040
103.66183676415081
1040
60.89733173546756
1040
0.4142126981028048
1040
115.6618367640986
1040
72.897296325816569
1040
0.0348233422700971
1040
115.6618367640986
1040
90.096337111694325
1040
0.4142126981028151
1040
103.66183676415081
1040
102.0963017020437
1040
0.0
1040
97.849782736700035
1040
102.0963017020437
1040
0.4142135623730893
1040
85.849782736700035
1040
90.096301702044016
1040
0.0348231985322409
1071
        8
1005
51D
1005
55D
1005
55B
1005
557
1005
520
1005
546
1005
51C
1005
584
1071
       22
1070
     1
1070
     1
1071
        4
1040
96.894611662583884
1040
90.337990088335033
1040
-1.0
1040
104.6170103073686
1040
90.337990088334763
1040
-0.0248818291691539
1040
104.6170103073686
1040
72.655643349175506
1040
-1.0
1040
96.894611662583884
1040
72.655643349177595
1040
-0.0248818291691514
1071
        4
1005
55A
1005
555
1005
558
1005
556
1071
        7
1070
     1
1070
     1
1071
        9
1040
119.0096173095521
1040
62.115696081838678
1040
0.0
1040
130.05101171535759
1040
62.115696081838671
1040
0.0
1040
130.05101171535759
1040
85.569427875032716
1040
-0.4142135623730946
1040
138.05101171535759
1040
93.569427875032716
1040
0.0
1040
139.4206293992797
1040
93.56942787503273
1040
0.0
1040
139.4206293992797
1040
102.0369718403325
1040
0.2674368359602435
1040
130.05101171535759
1040
97.915857504065855
1040
0.0
1040
130.05101171535759
1040
102.0369718403326
1040
0.0
1040
119.0096173095521
1040
102.0369718403326
1040
0.0
1071
        9
1005
583
1005
589
1005
588
1005
585
1005
587
1005
586
1005
55F
1005
56E
1005
55E
1071
        7
1070
     0
1070
     1
1071
        4
1040
153.2899770207527
1040
102.0369718403326
1040
142.11987082690661
1040
102.0369718403326
1040
142.11987082690661
1040
62.115696081838678
1040
153.2899770207527
1040
62.115696081838678
1071
        4
1005
582
1005
563
1005
567
1005
562
1071
        7
1070
     0
1070
     1
1071
        9
1040
161.3332883364622
1040
62.115696081838678
1040
171.78072804963571
1040
62.115696081838678
1040
165.4162645291251
1040
78.311404477182364
1040
176.9709164189357
1040
78.31140447718235
1040
176.9709164189357
1040
86.855763084496857
1040
165.4162645291251
1040
86.855763084496886
1040
171.38205787173379
1040
102.0369718403326
1040
160.9346181585602
1040
102.0369718403326
1040
153.2899770207527
1040
82.583583780839575
1071
        9
1005
58F
1005
58E
1005
58D
1005
58A
1005
561
1005
57D
1005
560
1005
58C
1005
58B
1071
        7
1070
     1
1070
     1
1071
       21
1040
152.52515784094209
1040
47.648154099737518
1040
-0.8501159182110916
1040
160.04745823702251
1040
46.421288526219293
1040
0.0
1040
160.04745823702251
1040
45.21828747592599
1040
0.0
1040
171.0912486890569
1040
45.21828747592599
1040
0.4103700463812956
1040
159.0922846938046
1040
57.06060729124669
1040
0.0
1040
153.28023066635379
1040
57.06060729124669
1040
0.3231315706904765
1040
141.8917942032017
1040
48.84260609145101
1040
0.1954153765693974
1040
142.3184035466634
1040
43.115005509834923
1040
0.2113556324406552
1040
155.72873071743231
1040
33.145354604103439
1040
-0.2264685134690167
1040
160.04745823702251
1040
29.300230626583549
1040
0.0
1040
160.04745823702251
1040
27.619948938379359
1040
-1.0
1040
152.32505959223769
1040
27.619948938379359
1040
0.0
1040
152.32505959223769
1040
29.959298931438969
1040
0.0
1040
141.28023066635379
1040
29.95929893143898
1040
0.0
1040
141.28023066635379
1040
27.861637324670479
1040
0.4142135623730951
1040
153.28023066635379
1040
15.861637324670481
1040
0.0
1040
159.0922846938046
1040
15.861637324670481
1040
0.4142135623730951
1040
171.0922846938046
1040
27.861637324670479
1040
0.0
1040
171.0922846938046
1040
29.95929893143904
1040
0.3201720163042325
1040
161.4128172083947
1040
39.98989916707626
1040
-0.1549843570040388
1040
153.4809683549079
1040
44.585756161105429
1040
-0.2969707756967668
1071
       21
1005
57E
1005
580
1005
57B
1005
57C
1005
581
1005
566
1005
573
1005
564
1005
579
1005
576
1005
578
1005
577
1005
565
1005
56B
1005
516
1005
51A
1005
517
1005
57A
1005
575
1005
574
1005
57F
1071
        7
1070
     1
1070
     1
1071
        9
1040
116.19314081319391
1040
17.28637227261407
1040
0.0
1040
127.2345352189994
1040
17.28637227261407
1040
0.0
1040
127.2345352189994
1040
40.740104065808097
1040
-0.4142135623730953
1040
135.23453521899941
1040
48.740104065808111
1040
0.0
1040
136.6041529029215
1040
48.740104065808111
1040
0.0
1040
136.6041529029215
1040
57.207648031108022
1040
0.2674368359602446
1040
127.2345352189994
1040
53.086533694841222
1040
0.0
1040
127.2345352189994
1040
57.207648031108022
1040
0.0
1040
116.19314081319391
1040
57.207648031108022
1040
0.0
1071
        9
1005
56C
1005
570
1005
56F
1005
569
1005
56A
1005
568
1005
56D
1005
572
1005
571
1071
        7
1070
     1
1070
     1
1071
       18
1040
111.2523129779601
1040
45.06060729124669
1040
0.4142135623730951
1040
99.252312977960173
1040
57.06060729124669
1040
0.0
1040
93.440258950509346
1040
57.06060729124669
1040
0.3935971290544443
1040
81.470405744524527
1040
45.910674481046733
1040
0.0
1040
92.485087876393209
1040
45.910674481046733
1040
0.0
1040
92.485087876393209
1040
47.313129977668268
1040
-1.0
1040
100.2074865211779
1040
47.313129977668268
1040
0.0
1040
100.207486521178
1040
42.948196427274922
1040
0.0
1040
93.358174068518778
1040
42.948196427274922
1040
0.3803366342075343
1040
81.440258950509346
1040
32.349374231810209
1040
0.0
1040
81.440258950509346
1040
27.861637324670479
1040
0.212203934851876
1040
85.398663329684837
1040
18.95474449545469
1040
0.2715779457989354
1040
94.991749269489972
1040
17.839408458597308
1040
0.2212147422997974
1040
102.1211660476033
1040
23.542010892025001
1040
0.0
1040
102.1211660476033
1040
21.102600968374279
1040
0.048558820350044
1040
102.6710305977499
1040
17.89352120355198
1040
0.0
1040
111.8021775281067
1040
17.893521203552009
1040
-0.0850534761391249
1040
111.2523129779601
1040
23.54201089202471
1040
0.0
1071
       18
1005
51B
1005
542
1005
524
1005
543
1005
544
1005
541
1005
545
1005
540
1005
522
1005
538
1005
523
1005
515
1005
534
1005
53C
1005
53B
1005
53A
1005
53D
1005
533
1071
       22
1070
     1
1070
     1
1071
        6
1040
101.5095597489034
1040
37.384730871555568
1040
0.0
1040
101.5095597489034
1040
29.984856014372749
1040
-0.4101584254678068
1040
95.863486513980718
1040
23.758749615986972
1040
-0.4142135623730822
1040
92.002287191588479
1040
27.619948938379359
1040
0.0
1040
92.002287191588479
1040
33.041326503689838
1040
-0.3592987923427892
1040
97.969021393668683
1040
37.384730871555568
1040
0.0
1071
        6
1005
53E
1005
536
1005
539
1005
537
1005
535
1005
53F
1071
        7
1070
     1
1070
     1
1071
       14
1040
74.280536421539182
1040
35.629722934820848
1040
0.0
1040
74.280536421539182
1040
45.06060729124669
1040
0.4142135623730951
1040
62.280536421539182
1040
57.06060729124669
1040
0.0
1040
56.468482394088369
1040
57.06060729124669
1040
0.4142135623730892
1040
44.468482394088362
1040
45.060607291246939
1040
0.0348231985322411
1040
44.468482394088362
1040
27.861637324670291
1040
0.4142135623730907
1040
56.468482394088369
1040
15.861637324670481
1040
0.0
1040
62.280536421539182
1040
15.861637324670481
1040
0.4142135623730951
1040
74.280536421539182
1040
27.861637324670479
1040
0.0
1040
74.280536421539196
1040
30.816887788353831
1040
0.0
1040
63.235709964757
1040
30.81688778835381
1040
0.0
1040
63.235709964757007
1040
27.61994893837937
1040
-1.0
1040
55.513311319972217
1040
27.61994893837937
1040
0.0
1040
55.513311319972232
1040
35.629722934820848
1040
0.0
1071
       14
1005
52C
1005
531
1005
4EB
1005
4FF
1005
4EA
1005
519
1005
518
1005
52B
1005
526
1005
528
1005
52A
1005
529
1005
527
1005
525
1071
       22
1070
     1
1070
     1
1071
        4
1040
63.235709964756971
1040
41.923431282527652
1040
0.0
1040
55.51331131997221
1040
41.923431282527638
1040
0.0
1040
55.513311319972217
1040
46.690614073903141
1040
-1.0
1040
63.235709964757007
1040
46.690614073903127
1040
0.0
1071
        4
1005
52D
1005
52F
1005
52E
1005
530
1071
        7
1070
     1
1070
     1
1071
       15
1040
37.639779947293832
1040
57.06060729124669
1040
0.0
1040
27.267121908897028
1040
57.06060729124669
1040
0.0
1040
27.267121908897021
1040
51.255838552818979
1040
0.3392741364964821
1040
18.58303542025671
1040
58.127888502333931
1040
0.3975671648689696
1040
7.030577403887583
1040
46.170226698962978
1040
0.0322586733839356
1040
7.0565934473582743
1040
30.23514359210488
1040
0.381674351628262
1040
18.58303542025671
1040
18.945146626805109
1040
0.3392741364964824
1040
27.267121908897021
1040
25.817196576320061
1040
0.0
1040
27.267121908897021
1040
13.51984597021351
1040
-1.0
1040
19.544723264112228
1040
13.51984597021351
1040
0.0
1040
19.544723264112239
1040
14.846027306936771
1040
0.0
1040
7.7279273094568479
1040
14.846027306936771
1040
0.435111756420548
1040
18.100585347853119
1040
3.392610111620797
1040
0.0
1040
25.69916102541525
1040
3.392610111620797
1040
0.3589835117613411
1040
37.639779947293839
1040
13.760967175618781
1040
0.0
1071
       15
1005
505
1005
509
1005
508
1005
4FC
1005
4FE
1005
4F0
1005
504
1005
4F1
1005
4F7
1005
4F8
1005
4F3
1005
4F4
1005
4F6
1005
4F5
1005
4F2
1071
       22
1070
     1
1070
     1
1071
        6
1040
27.387732575171409
1040
32.086434320449378
1040
-0.3635850888704513
1040
22.683854862926161
1040
25.455509253088579
1040
-0.4081657147783189
1040
17.256300807526252
1040
30.5191262631974
1040
0.0
1040
17.256300807526252
1040
46.312783983787632
1040
-0.4081657147783226
1040
22.683854862926282
1040
51.376400993896397
1040
-0.3635850888704468
1040
27.387732575171409
1040
44.745475926535612
1040
0.0
1071
        6
1005
503
1005
502
1005
501
1005
506
1005
507
1005
500
1070
     0
1070
     1
1040
0.2228598800114194
1071
       17
1040
17.63743802729277
1040
76.626905651017751
1040
0.0
1040
33.91754890401171
1040
77.741205688022092
1040
0.0
1040
33.91754890401171
1040
77.741205688022092
1040
0.0
1040
69.153945982282949
1040
79.301225382558854
1040
0.0
1040
91.455465417142008
1040
80.861243290751887
1040
0.0
1040
91.455465417142008
1040
80.861243290751887
1040
0.0
1040
120.67045393727309
1040
80.861243290751887
1040
0.0
1040
151.44655150816561
1040
79.746945040091759
1040
0.0
1040
157.69097519808881
1040
82.198402263350317
1040
0.0
1040
149.43941532211869
1040
47.209401108474808
1040
0.0
1040
122.2315629880345
1040
49.21514046054449
1040
0.0
1040
107.73557316557979
1040
43.19792419067948
1040
0.0
1040
107.73557316557979
1040
43.19792419067948
1040
0.0
1040
69.376961114066034
1040
40.30074552354403
1040
0.0
1040
69.376961114066034
1040
40.30074552354403
1040
0.0
1040
30.572318798986078
1040
42.306483089269697
1040
0.0
1040
30.572318798986078
1040
42.306483089269697
1040
0.0
1002
}
  0
ARC
  5
4EA
  8
DRG
 62
     7
 10
56.468482394088369
 20
27.861637324670479
 30
0.0
 40
12.0
 50
180.0
 51
270.0
  0
ARC
  5
4EB
  8
DRG
 62
     7
 10
56.468482394088369
 20
45.06060729124669
 30
0.0
 40
12.0
 50
90.0
 51
180.0
  0
ARC
  5
4EC
  8
DRG
 62
     7
 10
47.650196927116667
 20
72.89733173546756
 30
0.0
 40
12.0
 50
270.0
 51
0.0
  0
ARC
  5
4ED
  8
DRG
 62
     7
 10
47.650196927116667
 20
90.096301702043775
 30
0.0
 40
12.0
 50
0.0
 51
90.0
  0
ARC
  5
4EE
  8
DRG
 62
     7
 10
44.74417114794209
 20
72.655643349176444
 30
0.0
 40
3.8611993223923942
 50
180.0
 51
0.0
  0
ARC
  5
4EF
  8
DRG
 62
     7
 10
44.74417114794209
 20
90.337990088334877
 30
0.0
 40
3.8611993223923942
 50
0.0
 51
180.0
  0
ARC
  5
4F0
  8
DRG
 62
     7
 10
19.137584483414571
 20
31.0402274344309
 30
0.0
 40
12.107786932649869
 50
183.81258486583951
 51
267.37487616930952
  0
LINE
  5
4F1
  8
DRG
 62
     7
 10
27.267121908897021
 20
13.51984597021351
 30
0.0
 11
27.267121908897021
 21
25.817196576319979
 31
0.0
  0
LINE
  5
4F2
  8
DRG
 62
     7
 10
37.639779947293839
 20
13.760967175618591
 30
0.0
 11
37.639779947293839
 21
57.06060729124669
 31
0.0
  0
LINE
  5
4F3
  8
DRG
 62
     7
 10
7.7279273094568453
 20
14.846027306936771
 30
0.0
 11
19.544723264112228
 21
14.846027306936771
 31
0.0
  0
ARC
  5
4F4
  8
DRG
 62
     7
 10
18.249110221157022
 20
13.95076893658401
 30
0.0
 40
10.559203445863639
 50
175.13635846835899
 51
269.19405577571678
  0
ARC
  5
4F5
  8
DRG
 62
     7
 10
25.379351800633462
 20
15.82074347040526
 30
0.0
 40
12.432247452652581
 50
271.47404887186468
 51
350.4632534986161
  0
LINE
  5
4F6
  8
DRG
 62
     7
 10
18.100585347854121
 20
3.392610111620797
 30
0.0
 11
25.699161025414639
 21
3.392610111620797
 31
0.0
  0
ARC
  5
4F7
  8
DRG
 62
     7
 10
23.40592258650463
 20
13.51984597021351
 30
0.0
 40
3.8611993223923942
 50
180.0
 51
0.0
  0
LINE
  5
4F8
  8
DRG
 62
     7
 10
19.544723264112228
 20
13.51984597021351
 30
0.0
 11
19.544723264112228
 21
14.846027306936771
 31
0.0
  0
LINE
  5
4F9
  8
DRG
 62
     7
 10
18.821661727211438
 20
62.115696081838678
 30
0.0
 11
18.821661727211438
 21
85.569427875032716
 31
0.0
  0
ARC
  5
4FA
  8
DRG
 62
     7
 10
41.838142899665847
 20
72.89733173546756
 30
0.0
 40
12.0
 50
180.0
 51
270.0
  0
LINE
  5
4FB
  8
DRG
 62
     7
 10
7.7802673214059723
 20
102.0369718403326
 30
0.0
 11
7.7802673214059723
 21
62.115696081838678
 31
0.0
  0
ARC
  5
4FC
  8
DRG
 62
     7
 10
19.137584483414571
 20
46.032807694708133
 30
0.0
 40
12.107786932649869
 50
92.625123830690427
 51
179.34969965531249
  0
LINE
  5
4FD
  8
DRG
 62
     7
 10
7.7802673214059723
 20
62.115696081838678
 30
0.0
 11
18.821661727211438
 21
62.115696081838678
 31
0.0
  0
ARC
  5
4FE
  8
DRG
 62
     7
 10
130.4096373956734
 20
38.404095866101891
 30
0.0
 40
123.62323904739679
 50
176.39825231050591
 51
183.7888327716102
  0
ARC
  5
4FF
  8
DRG
 62
     7
 10
167.7922598686371
 20
36.46112230795859
 30
0.0
 40
123.62323904739679
 50
176.01116722839041
 51
183.98883277160959
  0
LINE
  5
500
  8
DRG
 62
     7
 10
27.387732575171409
 20
32.086434320449371
 30
0.0
 11
27.387732575171409
 21
44.745475926535619
 31
0.0
  0
LINE
  5
501
  8
DRG
 62
     7
 10
17.256300807526252
 20
30.519126263197901
 30
0.0
 11
17.256300807526252
 21
46.312783983787199
 31
0.0
  0
ARC
  5
502
  8
DRG
 62
     7
 10
22.554825927420261
 20
30.757839296791811
 30
0.0
 40
5.3038997311936118
 50
182.57958705316651
 51
271.39398239048438
  0
ARC
  5
503
  8
DRG
 62
     7
 10
21.079116203706629
 20
31.577778829510549
 30
0.0
 40
6.3290892655085571
 50
284.68766481341447
 51
4.6097118352224014
  0
ARC
  5
504
  8
DRG
 62
     7
 10
18.444167318675341
 20
28.04361904615444
 30
0.0
 40
9.0995321151857773
 50
270.87442572940842
 51
345.83740798549388
  0
LINE
  5
505
  8
DRG
 62
     7
 10
37.639779947293839
 20
57.06060729124669
 30
0.0
 11
27.267121908897021
 21
57.06060729124669
 31
0.0
  0
ARC
  5
506
  8
DRG
 62
     7
 10
22.554825927420261
 20
46.074070950193168
 30
0.0
 40
5.3038997311936118
 50
88.606017609515575
 51
177.42041294683341
  0
ARC
  5
507
  8
DRG
 62
     7
 10
21.079116203706629
 20
45.254131417474468
 30
0.0
 40
6.3290892655085571
 50
355.39028816477759
 51
75.312335186585557
  0
ARC
  5
508
  8
DRG
 62
     7
 10
18.444167318675341
 20
49.029416082984589
 30
0.0
 40
9.0995321151857773
 50
14.16259201450603
 51
89.125574270591571
  0
LINE
  5
509
  8
DRG
 62
     7
 10
27.267121908897021
 20
51.255838552819107
 30
0.0
 11
27.267121908897021
 21
57.06060729124669
 31
0.0
  0
LINE
  5
50A
  8
DRG
 62
     7
 10
41.838142899665847
 20
60.89733173546756
 30
0.0
 11
47.650196927116667
 21
60.89733173546756
 31
0.0
  0
LINE
  5
50B
  8
DRG
 62
     7
 10
7.7802673214059723
 20
102.0369718403326
 30
0.0
 11
18.821661727211438
 21
102.0369718403326
 31
0.0
  0
ARC
  5
50C
  8
DRG
 62
     7
 10
26.821661727211438
 20
85.569427875032716
 30
0.0
 40
8.0
 50
90.0
 51
180.0
  0
ARC
  5
50D
  8
DRG
 62
     7
 10
218.4362314981995
 20
81.496816718755667
 30
0.0
 40
177.77324423808651
 50
177.14934059322539
 51
182.85065940677461
  0
ARC
  5
50E
  8
DRG
 62
     7
 10
153.16192037421459
 20
81.496816718755667
 30
0.0
 40
123.62323904739679
 50
176.01116722839041
 51
183.98883277160959
  0
ARC
  5
50F
  8
DRG
 62
     7
 10
41.838142899665847
 20
90.096301702043775
 30
0.0
 40
12.0
 50
90.0
 51
180.0
  0
LINE
  5
510
  8
DRG
 62
     7
 10
18.821661727211438
 20
97.915857504065912
 30
0.0
 11
18.821661727211438
 21
102.0369718403326
 31
0.0
  0
ARC
  5
511
  8
DRG
 62
     7
 10
27.083354510939952
 20
91.844139685506846
 30
0.0
 40
10.2528691067876
 50
83.7965056449153
 51
143.68693404466879
  0
LINE
  5
512
  8
DRG
 62
     7
 10
28.191279411133561
 20
102.0369718403326
 30
0.0
 11
28.191279411133561
 21
93.569427875032716
 31
0.0
  0
LINE
  5
513
  8
DRG
 62
     7
 10
28.191279411133561
 20
93.569427875032716
 30
0.0
 11
26.821661727211438
 21
93.569427875032716
 31
0.0
  0
LINE
  5
514
  8
DRG
 62
     7
 10
41.838142899665847
 20
102.0963017020437
 30
0.0
 11
47.650196927116667
 21
102.0963017020437
 31
0.0
  0
ARC
  5
515
  8
DRG
 62
     7
 10
91.146199293645054
 20
26.576636016635941
 30
0.0
 40
9.5460672539884595
 50
232.98068850611
 51
293.75592135571679
  0
ARC
  5
516
  8
DRG
 62
     7
 10
153.28023066635379
 20
27.861637324670479
 30
0.0
 40
12.0
 50
180.0
 51
270.0
  0
ARC
  5
517
  8
DRG
 62
     7
 10
159.0922846938046
 20
27.861637324670479
 30
0.0
 40
12.0
 50
270.0
 51
0.0
  0
ARC
  5
518
  8
DRG
 62
     7
 10
62.280536421539182
 20
27.861637324670479
 30
0.0
 40
12.0
 50
270.0
 51
0.0
  0
LINE
  5
519
  8
DRG
 62
     7
 10
56.468482394088369
 20
15.861637324670481
 30
0.0
 11
62.280536421539182
 21
15.861637324670481
 31
0.0
  0
LINE
  5
51A
  8
DRG
 62
     7
 10
153.28023066635379
 20
15.861637324670481
 30
0.0
 11
159.0922846938046
 21
15.861637324670481
 31
0.0
  0
ARC
  5
51B
  8
DRG
 62
     7
 10
99.252312977960173
 20
45.06060729124669
 30
0.0
 40
12.0
 50
0.0
 51
90.0
  0
ARC
  5
51C
  8
DRG
 62
     7
 10
103.66183676415081
 20
72.89733173546756
 30
0.0
 40
12.0
 50
270.0
 51
0.0
  0
ARC
  5
51D
  8
DRG
 62
     7
 10
103.66183676415081
 20
90.096301702043775
 30
0.0
 40
12.0
 50
0.0
 51
90.0
  0
ARC
  5
51E
  8
DRG
 62
     7
 10
75.331191210151701
 20
68.89733173546756
 30
0.0
 40
8.0
 50
180.0
 51
270.0
  0
LINE
  5
51F
  8
DRG
 62
     7
 10
84.501142256151084
 20
62.072518178885268
 30
0.0
 11
84.501142256151084
 21
70.214764581409213
 31
0.0
  0
ARC
  5
520
  8
DRG
 62
     7
 10
97.849782736700035
 20
72.89733173546756
 30
0.0
 40
12.0
 50
180.0
 51
270.0
  0
ARC
  5
521
  8
DRG
 62
     7
 10
80.604973725058926
 20
67.941395133310024
 30
0.0
 40
7.044419488421358
 50
270.57609896713558
 51
303.5789717876612
  0
ARC
  5
522
  8
DRG
 62
     7
 10
93.358174068518778
 20
30.948196427274919
 30
0.0
 40
12.0
 50
90.0
 51
173.29457252003729
  0
ARC
  5
523
  8
DRG
 62
     7
 10
93.44025895050936
 20
27.861637324670479
 30
0.0
 40
12.0
 50
180.0
 51
227.9226718038604
  0
ARC
  5
524
  8
DRG
 62
     7
 10
93.44025895050936
 20
45.06060729124669
 30
0.0
 40
12.0
 50
90.0
 51
175.93782586434531
  0
LINE
  5
525
  8
DRG
 62
     7
 10
74.280536421539182
 20
45.06060729124669
 30
0.0
 11
74.280536421539182
 21
35.629722934820848
 31
0.0
  0
LINE
  5
526
  8
DRG
 62
     7
 10
63.235709964757007
 20
30.816887788353821
 30
0.0
 11
74.280536421539182
 21
30.816887788353821
 31
0.0
  0
LINE
  5
527
  8
DRG
 62
     7
 10
55.513311319972217
 20
35.629722934820848
 30
0.0
 11
74.280536421539182
 21
35.629722934820848
 31
0.0
  0
LINE
  5
528
  8
DRG
 62
     7
 10
63.235709964757007
 20
30.816887788353821
 30
0.0
 11
63.235709964757007
 21
27.619948938379359
 31
0.0
  0
LINE
  5
529
  8
DRG
 62
     7
 10
55.513311319972217
 20
35.629722934820848
 30
0.0
 11
55.513311319972217
 21
27.619948938379359
 31
0.0
  0
ARC
  5
52A
  8
DRG
 62
     7
 10
59.374510642364612
 20
27.619948938379359
 30
0.0
 40
3.8611993223923942
 50
180.0
 51
0.0
  0
LINE
  5
52B
  8
DRG
 62
     7
 10
74.280536421539182
 20
30.816887788353821
 30
0.0
 11
74.280536421539182
 21
27.861637324670479
 31
0.0
  0
ARC
  5
52C
  8
DRG
 62
     7
 10
62.280536421539182
 20
45.06060729124669
 30
0.0
 40
12.0
 50
0.0
 51
90.0
  0
LINE
  5
52D
  8
DRG
 62
     7
 10
55.513311319972217
 20
41.923431282527652
 30
0.0
 11
63.235709964757007
 21
41.923431282527652
 31
0.0
  0
ARC
  5
52E
  8
DRG
 62
     7
 10
59.374510642364612
 20
46.690614073903127
 30
0.0
 40
3.8611993223923942
 50
0.0
 51
180.0
  0
LINE
  5
52F
  8
DRG
 62
     7
 10
55.513311319972217
 20
46.690614073903127
 30
0.0
 11
55.513311319972217
 21
41.923431282527652
 31
0.0
  0
LINE
  5
530
  8
DRG
 62
     7
 10
63.235709964757007
 20
46.690614073903127
 30
0.0
 11
63.235709964757007
 21
41.923431282527652
 31
0.0
  0
LINE
  5
531
  8
DRG
 62
     7
 10
56.468482394088369
 20
57.06060729124669
 30
0.0
 11
62.280536421539182
 21
57.06060729124669
 31
0.0
  0
LINE
  5
532
  8
DRG
 62
     7
 10
75.331191210151701
 20
60.89733173546756
 30
0.0
 11
80.675802928264815
 21
60.89733173546756
 31
0.0
  0
LINE
  5
533
  8
DRG
 62
     7
 10
111.2523129779601
 20
45.06060729124669
 30
0.0
 11
111.2523129779601
 21
21.10260096837424
 31
0.0
  0
ARC
  5
534
  8
DRG
 62
     7
 10
92.427187023305351
 20
28.353548776339029
 30
0.0
 40
10.822390038051561
 50
283.70766965543032
 51
333.6028219757398
  0
ARC
  5
535
  8
DRG
 62
     7
 10
97.617648860406234
 20
31.597336783954741
 30
0.0
 40
5.7980507916306081
 50
86.525641605078704
 51
165.57884810514051
  0
ARC
  5
536
  8
DRG
 62
     7
 10
95.530005668639475
 20
29.734254501986349
 30
0.0
 40
5.9848030975807349
 50
273.19424815916329
 51
2.3998464036014582
  0
LINE
  5
537
  8
DRG
 62
     7
 10
92.002287191588479
 20
27.619948938379359
 30
0.0
 11
92.002287191588479
 21
33.041326503689788
 31
0.0
  0
LINE
  5
538
  8
DRG
 62
     7
 10
81.440258950509346
 20
32.349374231809861
 30
0.0
 11
81.440258950509346
 21
27.861637324670479
 31
0.0
  0
ARC
  5
539
  8
DRG
 62
     7
 10
95.863486513980874
 20
27.619948938379359
 30
0.0
 40
3.8611993223923942
 50
180.0
 51
270.0
  0
LINE
  5
53A
  8
DRG
 62
     7
 10
102.6710305977499
 20
17.89352120355198
 30
0.0
 11
111.8021775281067
 21
17.893521203552009
 31
0.0
  0
ARC
  5
53B
  8
DRG
 62
     7
 10
118.87875205644769
 20
22.322305930199491
 30
0.0
 40
16.801915635954131
 50
175.83705377070211
 51
195.28307330703629
  0
LINE
  5
53C
  8
DRG
 62
     7
 10
102.1211660476033
 20
23.542010892025068
 30
0.0
 11
102.1211660476033
 21
21.102600968374329
 31
0.0
  0
ARC
  5
53D
  8
DRG
 62
     7
 10
128.00989898680459
 20
22.322305930199519
 30
0.0
 40
16.801915635954131
 50
175.83705377070211
 51
195.28307330703629
  0
LINE
  5
53E
  8
DRG
 62
     7
 10
101.5095597489034
 20
37.384730871555568
 30
0.0
 11
101.5095597489034
 21
29.483652989600269
 31
0.0
  0
LINE
  5
53F
  8
DRG
 62
     7
 10
101.5095597489034
 20
37.384730871555568
 30
0.0
 11
97.266276327143615
 21
37.384730871555568
 31
0.0
  0
LINE
  5
540
  8
DRG
 62
     7
 10
100.2074865211779
 20
42.948196427274922
 30
0.0
 11
93.358174068518778
 21
42.948196427274922
 31
0.0
  0
ARC
  5
541
  8
DRG
 62
     7
 10
96.346287198785603
 20
47.313129977668268
 30
0.0
 40
3.8611993223923942
 50
0.0
 51
180.0
  0
LINE
  5
542
  8
DRG
 62
     7
 10
93.44025895050936
 20
57.06060729124669
 30
0.0
 11
99.252312977960173
 21
57.06060729124669
 31
0.0
  0
LINE
  5
543
  8
DRG
 62
     7
 10
92.485087876393209
 20
45.910674481046733
 30
0.0
 11
81.470405744524555
 21
45.910674481046733
 31
0.0
  0
LINE
  5
544
  8
DRG
 62
     7
 10
92.485087876393209
 20
47.313129977668268
 30
0.0
 11
92.485087876393209
 21
45.910674481046733
 31
0.0
  0
LINE
  5
545
  8
DRG
 62
     7
 10
100.2074865211779
 20
47.313129977668268
 30
0.0
 11
100.2074865211779
 21
42.948196427274922
 31
0.0
  0
LINE
  5
546
  8
DRG
 62
     7
 10
97.849782736700035
 20
60.89733173546756
 30
0.0
 11
103.66183676415081
 21
60.89733173546756
 31
0.0
  0
LINE
  5
547
  8
DRG
 62
     7
 10
80.482556033578916
 20
69.876055965300111
 30
0.0
 11
83.501142256151056
 21
69.876055965300111
 31
0.0
  0
LINE
  5
548
  8
DRG
 62
     7
 10
77.482556033578931
 20
94.593352860836134
 30
0.0
 11
84.553623006881026
 21
94.593352860836134
 31
0.0
  0
LINE
  5
549
  8
DRG
 62
     7
 10
77.482556033578931
 20
101.9948050433795
 30
0.0
 11
84.553623006881026
 21
101.9948050433795
 31
0.0
  0
ARC
  5
54A
  8
DRG
 62
     7
 10
-128.9478892023152
 20
81.496816718755667
 30
0.0
 40
177.77324423808651
 50
357.1493405932253
 51
2.8506594067746178
  0
ARC
  5
54B
  8
DRG
 62
     7
 10
-63.673578078330422
 20
81.496816718755667
 30
0.0
 40
123.62323904739679
 50
356.01116722839038
 51
3.9888327716095779
  0
LINE
  5
54C
  8
DRG
 62
     7
 10
67.331191210151701
 20
94.593352860836134
 30
0.0
 11
67.331191210151701
 21
68.89733173546756
 31
0.0
  0
LINE
  5
54D
  8
DRG
 62
     7
 10
77.482556033578931
 20
94.593352860836134
 30
0.0
 11
77.482556033578931
 21
72.876055965300111
 31
0.0
  0
ARC
  5
54E
  8
DRG
 62
     7
 10
80.482556033578916
 20
72.876055965300111
 30
0.0
 40
3.0
 50
180.0
 51
270.0
  0
LINE
  5
54F
  8
DRG
 62
     7
 10
62.478989637268569
 20
101.9948050433795
 30
0.0
 11
67.331191210151701
 21
101.9948050433795
 31
0.0
  0
LINE
  5
550
  8
DRG
 62
     7
 10
62.478989637268569
 20
94.593352860836134
 30
0.0
 11
67.331191210151701
 21
94.593352860836134
 31
0.0
  0
LINE
  5
551
  8
DRG
 62
     7
 10
62.478989637268569
 20
94.593352860836134
 30
0.0
 11
62.478989637268569
 21
101.9948050433795
 31
0.0
  0
LINE
  5
552
  8
DRG
 62
     7
 10
67.331191210151701
 20
107.1280725498991
 30
0.0
 11
77.482556033578931
 21
107.1280725498991
 31
0.0
  0
LINE
  5
553
  8
DRG
 62
     7
 10
67.331191210151701
 20
107.1280725498991
 30
0.0
 11
67.331191210151701
 21
101.9948050433795
 31
0.0
  0
LINE
  5
554
  8
DRG
 62
     7
 10
77.482556033578931
 20
101.9948050433795
 30
0.0
 11
77.482556033578931
 21
107.1280725498991
 31
0.0
  0
ARC
  5
555
  8
DRG
 62
     7
 10
-72.936249365281071
 20
81.496816718755667
 30
0.0
 40
177.77324423808651
 50
357.1493405932253
 51
2.8506594067746178
  0
ARC
  5
556
  8
DRG
 62
     7
 10
274.44787133523357
 20
81.496816718755667
 30
0.0
 40
177.77324423808651
 50
177.14934059322539
 51
182.85065940677461
  0
ARC
  5
557
  8
DRG
 62
     7
 10
209.1735602112488
 20
81.496816718755667
 30
0.0
 40
123.62323904739679
 50
176.01116722839041
 51
183.98883277160959
  0
ARC
  5
558
  8
DRG
 62
     7
 10
100.75581098497619
 20
72.655643349176444
 30
0.0
 40
3.8611993223923942
 50
180.0
 51
0.0
  0
ARC
  5
559
  8
DRG
 62
     7
 10
82.991751330883176
 20
73.025526152493626
 30
0.0
 40
3.1903983410800212
 50
279.18737892597682
 51
298.2359877234839
  0
ARC
  5
55A
  8
DRG
 62
     7
 10
100.75581098497619
 20
90.337990088334877
 30
0.0
 40
3.8611993223923942
 50
0.0
 51
180.0
  0
ARC
  5
55B
  8
DRG
 62
     7
 10
97.849782736700035
 20
90.096301702043775
 30
0.0
 40
12.0
 50
90.0
 51
180.0
  0
LINE
  5
55C
  8
DRG
 62
     7
 10
84.553623006881026
 20
101.9948050433795
 30
0.0
 11
84.553623006881026
 21
94.593352860836134
 31
0.0
  0
LINE
  5
55D
  8
DRG
 62
     7
 10
97.849782736700035
 20
102.0963017020437
 30
0.0
 11
103.66183676415081
 21
102.0963017020437
 31
0.0
  0
LINE
  5
55E
  8
DRG
 62
     7
 10
130.05101171535759
 20
62.115696081838678
 30
0.0
 11
130.05101171535759
 21
85.569427875032716
 31
0.0
  0
LINE
  5
55F
  8
DRG
 62
     7
 10
119.0096173095521
 20
102.0369718403326
 30
0.0
 11
119.0096173095521
 21
62.115696081838678
 31
0.0
  0
LINE
  5
560
  8
DRG
 62
     7
 10
165.4162645291251
 20
78.31140447718235
 30
0.0
 11
171.78072804963571
 21
62.115696081838678
 31
0.0
  0
LINE
  5
561
  8
DRG
 62
     7
 10
153.2899770207527
 20
82.583583780839604
 30
0.0
 11
161.3332883364622
 21
62.115696081838678
 31
0.0
  0
LINE
  5
562
  8
DRG
 62
     7
 10
153.2899770207527
 20
102.0369718403326
 30
0.0
 11
153.2899770207527
 21
62.115696081838678
 31
0.0
  0
LINE
  5
563
  8
DRG
 62
     7
 10
142.11987082690661
 20
102.0369718403326
 30
0.0
 11
142.11987082690661
 21
62.115696081838678
 31
0.0
  0
ARC
  5
564
  8
DRG
 62
     7
 10
160.28928843394391
 20
53.283870983727013
 30
0.0
 40
20.648450998997479
 50
209.50344874889601
 51
257.2400493880096
  0
LINE
  5
565
  8
DRG
 62
     7
 10
141.28023066635379
 20
29.95929893143898
 30
0.0
 11
152.32505959223769
 21
29.95929893143898
 31
0.0
  0
ARC
  5
566
  8
DRG
 62
     7
 10
153.28023066635379
 20
45.06060729124669
 30
0.0
 40
12.0
 50
90.0
 51
161.62913043773071
  0
LINE
  5
567
  8
DRG
 62
     7
 10
153.2899770207527
 20
62.115696081838678
 30
0.0
 11
142.11987082690661
 21
62.115696081838678
 31
0.0
  0
LINE
  5
568
  8
DRG
 62
     7
 10
127.2345352189994
 20
17.28637227261407
 30
0.0
 11
127.2345352189994
 21
40.740104065808111
 31
0.0
  0
LINE
  5
569
  8
DRG
 62
     7
 10
116.19314081319391
 20
57.207648031108022
 30
0.0
 11
116.19314081319391
 21
17.28637227261407
 31
0.0
  0
LINE
  5
56A
  8
DRG
 62
     7
 10
116.19314081319391
 20
17.28637227261407
 30
0.0
 11
127.2345352189994
 21
17.28637227261407
 31
0.0
  0
LINE
  5
56B
  8
DRG
 62
     7
 10
141.28023066635379
 20
29.95929893143898
 30
0.0
 11
141.28023066635379
 21
27.861637324670479
 31
0.0
  0
ARC
  5
56C
  8
DRG
 62
     7
 10
135.496228002728
 20
47.014815876282221
 30
0.0
 40
10.2528691067876
 50
83.7965056449153
 51
143.68693404466879
  0
ARC
  5
56D
  8
DRG
 62
     7
 10
135.23453521899941
 20
40.740104065808111
 30
0.0
 40
8.0
 50
90.0
 51
180.0
  0
LINE
  5
56E
  8
DRG
 62
     7
 10
119.0096173095521
 20
62.115696081838678
 30
0.0
 11
130.05101171535759
 21
62.115696081838678
 31
0.0
  0
LINE
  5
56F
  8
DRG
 62
     7
 10
116.19314081319391
 20
57.207648031108022
 30
0.0
 11
127.2345352189994
 21
57.207648031108022
 31
0.0
  0
LINE
  5
570
  8
DRG
 62
     7
 10
127.2345352189994
 20
53.0865336948413
 30
0.0
 11
127.2345352189994
 21
57.207648031108079
 31
0.0
  0
LINE
  5
571
  8
DRG
 62
     7
 10
136.6041529029215
 20
57.207648031108022
 30
0.0
 11
136.6041529029215
 21
48.740104065808111
 31
0.0
  0
LINE
  5
572
  8
DRG
 62
     7
 10
136.6041529029215
 20
48.740104065808111
 30
0.0
 11
135.23453521899941
 21
48.740104065808111
 31
0.0
  0
ARC
  5
573
  8
DRG
 62
     7
 10
149.15275272984229
 20
46.50373678022958
 30
0.0
 40
7.6283568598071962
 50
162.14543119997589
 51
216.29372603558031
  0
ARC
  5
574
  8
DRG
 62
     7
 10
164.68224204875119
 20
54.775095406185869
 30
0.0
 40
15.14236331012172
 50
222.29150451995909
 51
257.53093545652467
  0
ARC
  5
575
  8
DRG
 62
     7
 10
159.223234097084
 20
28.191351553125511
 30
0.0
 40
12.0
 50
8.4721667757414814
 51
79.486612768212169
  0
LINE
  5
576
  8
DRG
 62
     7
 10
160.04745823702251
 20
29.300230626583438
 30
0.0
 11
160.04745823702251
 21
27.619948938379359
 31
0.0
  0
LINE
  5
577
  8
DRG
 62
     7
 10
152.32505959223769
 20
27.619948938379359
 30
0.0
 11
152.32505959223769
 21
29.95929893143898
 31
0.0
  0
ARC
  5
578
  8
DRG
 62
     7
 10
156.18625891463009
 20
27.619948938379359
 30
0.0
 40
3.8611993223923942
 50
180.0
 51
0.0
  0
ARC
  5
579
  8
DRG
 62
     7
 10
153.8611380906755
 20
26.699836406787622
 30
0.0
 40
6.7106338785129491
 50
22.799249772319211
 51
73.841024038773142
  0
LINE
  5
57A
  8
DRG
 62
     7
 10
171.0922846938046
 20
29.95929893143915
 30
0.0
 11
171.0922846938046
 21
27.861637324670479
 31
0.0
  0
LINE
  5
57B
  8
DRG
 62
     7
 10
171.0912486890569
 20
45.21828747592599
 30
0.0
 11
160.04745823702251
 21
45.21828747592599
 31
0.0
  0
ARC
  5
57C
  8
DRG
 62
     7
 10
159.0922846938046
 20
45.06060729124669
 30
0.0
 40
12.0
 50
0.7528890912800703
 51
90.0
  0
LINE
  5
57D
  8
DRG
 62
     7
 10
161.3332883364622
 20
62.115696081838678
 30
0.0
 11
171.78072804963571
 21
62.115696081838678
 31
0.0
  0
ARC
  5
57E
  8
DRG
 62
     7
 10
156.18625891463009
 20
46.421288526219307
 30
0.0
 40
3.8611993223923942
 50
0.0
 51
161.4735686305323
  0
ARC
  5
57F
  8
DRG
 62
     7
 10
155.35373214152469
 20
46.850626662257177
 30
0.0
 40
2.938857360854815
 50
164.25399710017811
 51
230.4135202949499
  0
LINE
  5
580
  8
DRG
 62
     7
 10
160.04745823702251
 20
46.421288526219307
 30
0.0
 11
160.04745823702251
 21
45.21828747592599
 31
0.0
  0
LINE
  5
581
  8
DRG
 62
     7
 10
153.28023066635379
 20
57.06060729124669
 30
0.0
 11
159.0922846938046
 21
57.06060729124669
 31
0.0
  0
LINE
  5
582
  8
DRG
 62
     7
 10
142.11987082690661
 20
102.0369718403326
 30
0.0
 11
153.2899770207527
 21
102.0369718403326
 31
0.0
  0
ARC
  5
583
  8
DRG
 62
     7
 10
138.05101171535759
 20
85.569427875032716
 30
0.0
 40
8.0
 50
90.0
 51
180.0
  0
ARC
  5
584
  8
DRG
 62
     7
 10
-7.66193824129624
 20
81.496816718755667
 30
0.0
 40
123.62323904739679
 50
356.01116722839038
 51
3.9888327716095779
  0
ARC
  5
585
  8
DRG
 62
     7
 10
138.3127044990861
 20
91.844139685506775
 30
0.0
 40
10.2528691067876
 50
83.7965056449153
 51
143.68693404466879
  0
LINE
  5
586
  8
DRG
 62
     7
 10
119.0096173095521
 20
102.0369718403326
 30
0.0
 11
130.05101171535759
 21
102.0369718403326
 31
0.0
  0
LINE
  5
587
  8
DRG
 62
     7
 10
130.05101171535759
 20
97.915857504065855
 30
0.0
 11
130.05101171535759
 21
102.0369718403326
 31
0.0
  0
LINE
  5
588
  8
DRG
 62
     7
 10
139.4206293992797
 20
102.0369718403326
 30
0.0
 11
139.4206293992797
 21
93.569427875032716
 31
0.0
  0
LINE
  5
589
  8
DRG
 62
     7
 10
139.4206293992797
 20
93.569427875032716
 30
0.0
 11
138.05101171535759
 21
93.569427875032716
 31
0.0
  0
LINE
  5
58A
  8
DRG
 62
     7
 10
153.2899770207527
 20
82.583583780839604
 30
0.0
 11
160.9346181585602
 21
102.0369718403326
 31
0.0
  0
LINE
  5
58B
  8
DRG
 62
     7
 10
176.9709164189357
 20
78.31140447718235
 30
0.0
 11
176.9709164189357
 21
86.855763084496857
 31
0.0
  0
LINE
  5
58C
  8
DRG
 62
     7
 10
176.9709164189357
 20
78.31140447718235
 30
0.0
 11
165.4162645291251
 21
78.31140447718235
 31
0.0
  0
LINE
  5
58D
  8
DRG
 62
     7
 10
160.9346181585602
 20
102.0369718403326
 30
0.0
 11
171.38205787173379
 21
102.0369718403326
 31
0.0
  0
LINE
  5
58E
  8
DRG
 62
     7
 10
165.4162645291251
 20
86.855763084496857
 30
0.0
 11
171.38205787173379
 21
102.0369718403326
 31
0.0
  0
LINE
  5
58F
  8
DRG
 62
     7
 10
176.9709164189357
 20
86.855763084496857
 30
0.0
 11
165.4162645291251
 21
86.855763084496857
 31
0.0
  0
ENDBLK
  5
591
  8
0
  0
BLOCK
  8
0
  2
ROTORK_GEARS_LOGO
 70
     0
 10
0.0
 20
0.0
 30
0.0
  3
ROTORK_GEARS_LOGO
  1

  0
INSERT
  5
593
  8
0
  2
LOGO
 10
16.592937132437999
 20
3.1720898939720419
 30
0.0
  0
ENDBLK
  5
595
  8
0
  0
BLOCK
  8
0
  2
*U3
 70
     1
 10
0.0
 20
0.0
 30
0.0
  3
*U3
  1

  0
SOLID
  5
5B9
  8
DRG
  6
CONTINUOUS
 62
     7
 10
15.651221102570281
 20
3.7161341341757188
 30
0.0
 11
18.100585347853119
 21
3.392610111620797
 31
0.0
 12
25.69916102541524
 22
3.392610111620797
 32
0.0
 13
25.69916102541524
 23
3.392610111620797
 33
0.0
210
0.0
220
0.0
230
1.0
  0
SOLID
  5
5BA
  8
DRG
  6
CONTINUOUS
 62
     7
 10
28.521311246702879
 20
3.7920749005575649
 30
0.0
 11
15.651221102570281
 21
3.7161341341757188
 31
0.0
 12
25.69916102541524
 22
3.392610111620797
 32
0.0
 13
25.69916102541524
 23
3.392610111620797
 33
0.0
210
0.0
220
0.0
230
1.0
  0
SOLID
  5
5BB
  8
DRG
  6
CONTINUOUS
 62
     7
 10
13.34408206983799
 20
4.5999681021150032
 30
0.0
 11
15.651221102570281
 21
3.7161341341757188
 31
0.0
 12
28.521311246702879
 22
3.7920749005575649
 32
0.0
 13
28.521311246702879
 23
3.7920749005575649
 33
0.0
  0
SOLID
  5
5BC
  8
DRG
  6
CONTINUOUS
 62
     7
 10
31.178312160316999
 20
4.8237968273226679
 30
0.0
 11
13.34408206983799
 21
4.5999681021150032
 31
0.0
 12
28.521311246702879
 22
3.7920749005575649
 32
0.0
 13
28.521311246702879
 23
3.7920749005575649
 33
0.0
210
0.0
220
0.0
230
1.0
  0
SOLID
  5
5BD
  8
DRG
  6
CONTINUOUS
 62
     7
 10
11.305475926518399
 20
5.9957252413264612
 30
0.0
 11
13.34408206983799
 21
4.5999681021150032
 31
0.0
 12
31.178312160316999
 22
4.8237968273226679
 32
0.0
 13
31.178312160316999
 23
4.8237968273226679
 33
0.0
210
0.0
220
0.0
230
1.0
  0
SOLID
  5
5BE
  8
DRG
  6
CONTINUOUS
 62
     7
 10
33.5305051013693
 20
6.4335459870298406
 30
0.0
 11
11.305475926518399
 21
5.9957252413264612
 31
0.0
 12
31.178312160316999
 22
4.8237968273226679
 32
0.0
 13
31.178312160316999
 23
4.8237968273226679
 33
0.0
210
0.0
220
0.0
230
1.0
  0
SOLID
  5
5BF
  8
DRG
  6
CONTINUOUS
 62
     7
 10
9.6470091264690279
 20
7.8269928002522784
 30
0.0
 11
11.305475926518399
 21
5.9957252413264612
 31
0.0
 12
33.5305051013693
 22
6.4335459870298406
 32
0.0
 13
33.5305051013693
 23
6.4335459870298406
 33
0.0
210
0.0
220
0.0
230
1.0
  0
SOLID
  5
5C0
  8
DRG
  6
CONTINUOUS
 62
     7
 10
35.454252880266083
 20
8.5367099065339431
 30
0.0
 11
9.6470091264690279
 21
7.8269928002522784
 31
0.0
 12
33.5305051013693
 22
6.4335459870298406
 32
0.0
 13
33.5305051013693
 23
6.4335459870298406
 33
0.0
210
0.0
220
0.0
230
1.0
  0
SOLID
  5
5C1
  8
DRG
  6
CONTINUOUS
 62
     7
 10
23.40592258650463
 20
9.658646647821115
 30
0.0
 11
9.6470091264690279
 21
7.8269928002522784
 31
0.0
 12
35.454252880266083
 22
8.5367099065339431
 32
0.0
 13
35.454252880266083
 23
8.5367099065339431
 33
0.0
210
0.0
220
0.0
230
1.0
  0
SOLID
  5
5C2
  8
DRG
  6
CONTINUOUS
 62
     7
 10
21.928305576765752
 20
9.9525629453087276
 30
0.0
 11
9.6470091264690279
 21
7.8269928002522784
 31
0.0
 12
23.40592258650463
 22
9.658646647821115
 32
0.0
 13
23.40592258650463
 23
9.658646647821115
 33
0.0
210
0.0
220
0.0
230
1.0
  0
SOLID
  5
5C3
  8
DRG
  6
CONTINUOUS
 62
     7
 10
24.883539596243509
 20
9.9525629453087276
 30
0.0
 11
23.40592258650463
 21
9.658646647821115
 31
0.0
 12
35.454252880266083
 22
8.5367099065339431
 32
0.0
 13
35.454252880266083
 23
8.5367099065339431
 33
0.0
210
0.0
220
0.0
230
1.0
  0
SOLID
  5
5C4
  8
DRG
  6
CONTINUOUS
 62
     7
 10
8.4594768431472307
 20
9.9935153769425522
 30
0.0
 11
9.6470091264690279
 21
7.8269928002522784
 31
0.0
 12
21.928305576765752
 22
9.9525629453087276
 32
0.0
 13
21.928305576765752
 23
9.9525629453087276
 33
0.0
210
0.0
220
0.0
230
1.0
  0
SOLID
  5
5C5
  8
DRG
  6
CONTINUOUS
 62
     7
 10
20.675642362128059
 20
10.78956574583694
 30
0.0
 11
8.4594768431472307
 21
9.9935153769425522
 31
0.0
 12
21.928305576765752
 22
9.9525629453087276
 32
0.0
 13
21.928305576765752
 23
9.9525629453087276
 33
0.0
  0
SOLID
  5
5C6
  8
DRG
  6
CONTINUOUS
 62
     7
 10
26.136202810881191
 20
10.78956574583694
 30
0.0
 11
24.883539596243509
 21
9.9525629453087276
 31
0.0
 12
35.454252880266083
 22
8.5367099065339431
 32
0.0
 13
35.454252880266083
 23
8.5367099065339431
 33
0.0
210
0.0
220
0.0
230
1.0
  0
SOLID
  5
5C7
  8
DRG
  6
CONTINUOUS
 62
     7
 10
36.848438465016159
 20
11.022740989281949
 30
0.0
 11
26.136202810881191
 21
10.78956574583694
 31
0.0
 12
35.454252880266083
 22
8.5367099065339431
 32
0.0
 13
35.454252880266083
 23
8.5367099065339431
 33
0.0
210
0.0
220
0.0
230
1.0
  0
SOLID
  5
5C8
  8
DRG
  6
CONTINUOUS
 62
     7
 10
19.838639561599841
 20
12.042228960474629
 30
0.0
 11
8.4594768431472307
 21
9.9935153769425522
 31
0.0
 12
20.675642362128059
 22
10.78956574583694
 32
0.0
 13
20.675642362128059
 23
10.78956574583694
 33
0.0
210
0.0
220
0.0
230
1.0
  0
SOLID
  5
5C9
  8
DRG
  6
CONTINUOUS
 62
     7
 10
26.973205611409409
 20
12.042228960474629
 30
0.0
 11
26.136202810881191
 21
10.78956574583694
 31
0.0
 12
36.848438465016159
 22
11.022740989281949
 32
0.0
 13
36.848438465016159
 23
11.022740989281949
 33
0.0
210
0.0
220
0.0
230
1.0
  0
SOLID
  5
5CA
  8
DRG
  6
CONTINUOUS
 62
     7
 10
7.8078922559830843
 20
12.37668354662976
 30
0.0
 11
8.4594768431472307
 21
9.9935153769425522
 31
0.0
 12
19.838639561599841
 22
12.042228960474629
 32
0.0
 13
19.838639561599841
 23
12.042228960474629
 33
0.0
  0
SOLID
  5
5CB
  8
DRG
  6
CONTINUOUS
 62
     7
 10
19.544723264112228
 20
13.51984597021351
 30
0.0
 11
7.8078922559830843
 21
12.37668354662976
 31
0.0
 12
19.838639561599841
 22
12.042228960474629
 32
0.0
 13
19.838639561599841
 23
12.042228960474629
 33
0.0
  0
SOLID
  5
5CC
  8
DRG
  6
CONTINUOUS
 62
     7
 10
27.267121908897021
 20
13.51984597021351
 30
0.0
 11
26.973205611409409
 21
12.042228960474629
 31
0.0
 12
36.848438465016159
 22
11.022740989281949
 32
0.0
 13
36.848438465016159
 23
11.022740989281949
 33
0.0
210
0.0
220
0.0
230
1.0
  0
SOLID
  5
5CD
  8
DRG
  6
CONTINUOUS
 62
     7
 10
37.639779947293839
 20
13.760967175618781
 30
0.0
 11
27.267121908897021
 21
13.51984597021351
 31
0.0
 12
36.848438465016159
 22
11.022740989281949
 32
0.0
 13
36.848438465016159
 23
11.022740989281949
 33
0.0
  0
SOLID
  5
5CE
  8
DRG
  6
CONTINUOUS
 62
     7
 10
19.544723264112228
 20
13.51984597021351
 30
0.0
 11
19.544723264112239
 21
14.846027306936771
 31
0.0
 12
7.7279273094568479
 22
14.846027306936771
 32
0.0
 13
7.7279273094568479
 23
14.846027306936771
 33
0.0
210
0.0
220
0.0
230
1.0
  0
SOLID
  5
5CF
  8
DRG
  6
CONTINUOUS
 62
     7
 10
7.7279273094568479
 20
14.846027306936771
 30
0.0
 11
7.8078922559830843
 21
12.37668354662976
 31
0.0
 12
19.544723264112228
 22
13.51984597021351
 32
0.0
 13
19.544723264112228
 23
13.51984597021351
 33
0.0
210
0.0
220
0.0
230
1.0
  0
SOLID
  5
5D0
  8
DRG
  6
CONTINUOUS
 62
     7
 10
161.76253590128039
 20
16.16250237848859
 30
0.0
 11
153.28023066635379
 21
15.861637324670481
 31
0.0
 12
159.0922846938046
 22
15.861637324670481
 32
0.0
 13
159.0922846938046
 23
15.861637324670481
 33
0.0
210
0.0
220
0.0
230
1.0
  0
SOLID
  5
5D1
  8
DRG
  6
CONTINUOUS
 62
     7
 10
64.950787629014954
 20
16.16250237848859
 30
0.0
 11
56.468482394088369
 21
15.861637324670481
 31
0.0
 12
62.280536421539182
 22
15.861637324670481
 32
0.0
 13
62.280536421539182
 23
15.861637324670481
 33
0.0
210
0.0
220
0.0
230
1.0
  0
SOLID
  5
5D2
  8
DRG
  6
CONTINUOUS
 62
     7
 10
150.609979458878
 20
16.16250237848859
 30
0.0
 11
153.28023066635379
 21
15.861637324670481
 31
0.0
 12
161.76253590128039
 22
16.16250237848859
 32
0.0
 13
161.76253590128039
 23
16.16250237848859
 33
0.0
210
0.0
220
0.0
230
1.0
  0
SOLID
  5
5D3
  8
DRG
  6
CONTINUOUS
 62
     7
 10
53.798231186612632
 20
16.16250237848859
 30
0.0
 11
56.468482394088369
 21
15.861637324670481
 31
0.0
 12
64.950787629014954
 22
16.16250237848859
 32
0.0
 13
64.950787629014954
 23
16.16250237848859
 33
0.0
210
0.0
220
0.0
230
1.0
  0
SOLID
  5
5D4
  8
DRG
  6
CONTINUOUS
 62
     7
 10
51.261877524677722
 20
17.050010909841429
 30
0.0
 11
53.798231186612632
 21
16.16250237848859
 31
0.0
 12
64.950787629014954
 22
16.16250237848859
 32
0.0
 13
64.950787629014954
 23
16.16250237848859
 33
0.0
210
0.0
220
0.0
230
1.0
  0
SOLID
  5
5D5
  8
DRG
  6
CONTINUOUS
 62
     7
 10
164.29888956321531
 20
17.050010909841451
 30
0.0
 11
150.609979458878
 21
16.16250237848859
 31
0.0
 12
161.76253590128039
 22
16.16250237848859
 32
0.0
 13
161.76253590128039
 23
16.16250237848859
 33
0.0
210
0.0
220
0.0
230
1.0
  0
SOLID
  5
5D6
  8
DRG
  6
CONTINUOUS
 62
     7
 10
67.487141290949879
 20
17.050010909841451
 30
0.0
 11
51.261877524677722
 21
17.050010909841429
 31
0.0
 12
64.950787629014954
 22
16.16250237848859
 32
0.0
 13
64.950787629014954
 23
16.16250237848859
 33
0.0
210
0.0
220
0.0
230
1.0
  0
SOLID
  5
5D7
  8
DRG
  6
CONTINUOUS
 62
     7
 10
148.07362579694311
 20
17.050010909841451
 30
0.0
 11
150.609979458878
 21
16.16250237848859
 31
0.0
 12
164.29888956321531
 22
17.050010909841451
 32
0.0
 13
164.29888956321531
 23
17.050010909841451
 33
0.0
210
0.0
220
0.0
230
1.0
  0
SOLID
  5
5D8
  8
DRG
  6
CONTINUOUS
 62
     7
 10
87.597152072902304
 20
17.71482672944132
 30
0.0
 11
90.043755964704772
 21
17.09444119032354
 31
0.0
 12
92.567432060215296
 22
17.13695925093587
 32
0.0
 13
92.567432060215296
 23
17.13695925093587
 33
0.0
210
0.0
220
0.0
230
1.0
  0
SOLID
  5
5D9
  8
DRG
  6
CONTINUOUS
 62
     7
 10
94.991749269489972
 20
17.839408458597301
 30
0.0
 11
87.597152072902304
 21
17.71482672944132
 31
0.0
 12
92.567432060215296
 22
17.13695925093587
 32
0.0
 13
92.567432060215296
 23
17.13695925093587
 33
0.0
210
0.0
220
0.0
230
1.0
  0
SOLID
  5
5DA
  8
DRG
  6
CONTINUOUS
 62
     7
 10
48.986604771783632
 20
18.479659535054068
 30
0.0
 11
51.261877524677722
 21
17.050010909841429
 31
0.0
 12
67.487141290949879
 22
17.050010909841451
 32
0.0
 13
67.487141290949879
 23
17.050010909841451
 33
0.0
210
0.0
220
0.0
230
1.0
  0
SOLID
  5
5DB
  8
DRG
  6
CONTINUOUS
 62
     7
 10
166.57416231610941
 20
18.479659535054122
 30
0.0
 11
148.07362579694311
 21
17.050010909841451
 31
0.0
 12
164.29888956321531
 22
17.050010909841451
 32
0.0
 13
164.29888956321531
 23
17.050010909841451
 33
0.0
210
0.0
220
0.0
230
1.0
  0
SOLID
  5
5DC
  8
DRG
  6
CONTINUOUS
 62
     7
 10
69.762414043843989
 20
18.479659535054122
 30
0.0
 11
48.986604771783632
 21
18.479659535054068
 31
0.0
 12
67.487141290949879
 22
17.050010909841451
 32
0.0
 13
67.487141290949879
 23
17.050010909841451
 33
0.0
210
0.0
220
0.0
230
1.0
  0
SOLID
  5
5DD
  8
DRG
  6
CONTINUOUS
 62
     7
 10
145.79835304404901
 20
18.479659535054122
 30
0.0
 11
148.07362579694311
 21
17.050010909841451
 31
0.0
 12
166.57416231610941
 22
18.479659535054122
 32
0.0
 13
166.57416231610941
 23
18.479659535054122
 33
0.0
210
0.0
220
0.0
230
1.0
  0
SOLID
  5
5DE
  8
DRG
  6
CONTINUOUS
 62
     7
 10
97.202192775961791
 20
18.641522921873062
 30
0.0
 11
87.597152072902304
 21
17.71482672944132
 31
0.0
 12
94.991749269489972
 22
17.839408458597301
 32
0.0
 13
94.991749269489972
 23
17.839408458597301
 33
0.0
210
0.0
220
0.0
230
1.0
  0
SOLID
  5
5DF
  8
DRG
  6
CONTINUOUS
 62
     7
 10
85.398663329684837
 20
18.95474449545469
 30
0.0
 11
87.597152072902304
 21
17.71482672944132
 31
0.0
 12
97.202192775961791
 22
18.641522921873062
 32
0.0
 13
97.202192775961791
 23
18.641522921873062
 33
0.0
210
0.0
220
0.0
230
1.0
  0
SOLID
  5
5E0
  8
DRG
  6
CONTINUOUS
 62
     7
 10
15.68821754148445
 20
19.434178489748358
 30
0.0
 11
18.58303542025671
 21
18.945146626805109
 31
0.0
 12
20.932030560438331
 22
19.29078972041172
 32
0.0
 13
20.932030560438331
 23
19.29078972041172
 33
0.0
210
0.0
220
0.0
230
1.0
  0
SOLID
  5
5E1
  8
DRG
  6
CONTINUOUS
 62
     7
 10
102.3181837587821
 20
19.484710699009419
 30
0.0
 11
102.6710305977499
 21
17.89352120355198
 31
0.0
 12
111.8021775281067
 22
17.893521203552009
 32
0.0
 13
111.8021775281067
 23
17.893521203552009
 33
0.0
210
0.0
220
0.0
230
1.0
  0
SOLID
  5
5E2
  8
DRG
  6
CONTINUOUS
 62
     7
 10
99.18720752242109
 20
19.902143627652059
 30
0.0
 11
85.398663329684837
 21
18.95474449545469
 31
0.0
 12
97.202192775961791
 22
18.641522921873062
 32
0.0
 13
97.202192775961791
 23
18.641522921873062
 33
0.0
210
0.0
220
0.0
230
1.0
  0
SOLID
  5
5E3
  8
DRG
  6
CONTINUOUS
 62
     7
 10
23.111648298363178
 20
20.232338356053141
 30
0.0
 11
15.68821754148445
 21
19.434178489748358
 31
0.0
 12
20.932030560438331
 22
19.29078972041172
 32
0.0
 13
20.932030560438331
 23
19.29078972041172
 33
0.0
210
0.0
220
0.0
230
1.0
  0
SOLID
  5
5E4
  8
DRG
  6
CONTINUOUS
 62
     7
 10
47.086504604472083
 20
20.37975970236559
 30
0.0
 11
48.986604771783632
 21
18.479659535054068
 31
0.0
 12
69.762414043843989
 22
18.479659535054122
 32
0.0
 13
69.762414043843989
 23
18.479659535054122
 33
0.0
210
0.0
220
0.0
230
1.0
  0
SOLID
  5
5E5
  8
DRG
  6
CONTINUOUS
 62
     7
 10
168.474262483421
 20
20.379759702365671
 30
0.0
 11
145.79835304404901
 21
18.479659535054122
 31
0.0
 12
166.57416231610941
 22
18.479659535054122
 32
0.0
 13
166.57416231610941
 23
18.479659535054122
 33
0.0
210
0.0
220
0.0
230
1.0
  0
SOLID
  5
5E6
  8
DRG
  6
CONTINUOUS
 62
     7
 10
71.662514211155525
 20
20.379759702365671
 30
0.0
 11
47.086504604472083
 21
20.37975970236559
 31
0.0
 12
69.762414043843989
 22
18.479659535054122
 32
0.0
 13
69.762414043843989
 23
18.479659535054122
 33
0.0
210
0.0
220
0.0
230
1.0
  0
SOLID
  5
5E7
  8
DRG
  6
CONTINUOUS
 62
     7
 10
143.89825287673739
 20
20.379759702365678
 30
0.0
 11
145.79835304404901
 21
18.479659535054122
 31
0.0
 12
168.474262483421
 22
20.379759702365671
 32
0.0
 13
168.474262483421
 23
20.379759702365671
 33
0.0
  0
SOLID
  5
5E8
  8
DRG
  6
CONTINUOUS
 62
     7
 10
12.996201983781489
 20
20.605577205523002
 30
0.0
 11
15.68821754148445
 21
19.434178489748358
 31
0.0
 12
23.111648298363178
 22
20.232338356053141
 32
0.0
 13
23.111648298363178
 23
20.232338356053141
 33
0.0
210
0.0
220
0.0
230
1.0
  0
SOLID
  5
5E9
  8
DRG
  6
CONTINUOUS
 62
     7
 10
111.2870334115631
 20
20.69438210209054
 30
0.0
 11
102.3181837587821
 21
19.484710699009419
 31
0.0
 12
111.8021775281067
 22
17.893521203552009
 32
0.0
 13
111.8021775281067
 23
17.893521203552009
 33
0.0
210
0.0
220
0.0
230
1.0
  0
SOLID
  5
5EA
  8
DRG
  6
CONTINUOUS
 62
     7
 10
83.724920350627414
 20
20.818044783243639
 30
0.0
 11
85.398663329684837
 21
18.95474449545469
 31
0.0
 12
99.18720752242109
 22
19.902143627652059
 32
0.0
 13
99.18720752242109
 23
19.902143627652059
 33
0.0
210
0.0
220
0.0
230
1.0
  0
SOLID
  5
5EB
  8
DRG
  6
CONTINUOUS
 62
     7
 10
102.1211660476033
 20
21.102600968374279
 30
0.0
 11
102.3181837587821
 21
19.484710699009419
 31
0.0
 12
111.2870334115631
 22
20.69438210209054
 32
0.0
 13
111.2870334115631
 23
20.69438210209054
 33
0.0
210
0.0
220
0.0
230
1.0
  0
SOLID
  5
5EC
  8
DRG
  6
CONTINUOUS
 62
     7
 10
100.8530806557153
 20
21.561756477466091
 30
0.0
 11
83.724920350627414
 21
20.818044783243639
 31
0.0
 12
99.18720752242109
 22
19.902143627652059
 32
0.0
 13
99.18720752242109
 23
19.902143627652059
 33
0.0
210
0.0
220
0.0
230
1.0
  0
SOLID
  5
5ED
  8
DRG
  6
CONTINUOUS
 62
     7
 10
24.97349704072932
 20
21.705690512635009
 30
0.0
 11
12.996201983781489
 21
20.605577205523002
 31
0.0
 12
23.111648298363178
 22
20.232338356053141
 32
0.0
 13
23.111648298363178
 23
20.232338356053141
 33
0.0
210
0.0
220
0.0
230
1.0
  0
SOLID
  5
5EE
  8
DRG
  6
CONTINUOUS
 62
     7
 10
10.665263297999569
 20
22.390471476161601
 30
0.0
 11
12.996201983781489
 21
20.605577205523002
 31
0.0
 12
24.97349704072932
 22
21.705690512635009
 32
0.0
 13
24.97349704072932
 23
21.705690512635009
 33
0.0
210
0.0
220
0.0
230
1.0
  0
SOLID
  5
5EF
  8
DRG
  6
CONTINUOUS
 62
     7
 10
45.656855979259397
 20
22.655032455259661
 30
0.0
 11
47.086504604472083
 21
20.37975970236559
 31
0.0
 12
71.662514211155525
 22
20.379759702365671
 32
0.0
 13
71.662514211155525
 23
20.379759702365671
 33
0.0
  0
SOLID
  5
5F0
  8
DRG
  6
CONTINUOUS
 62
     7
 10
73.092162836368203
 20
22.655032455259779
 30
0.0
 11
45.656855979259397
 21
22.655032455259661
 31
0.0
 12
71.662514211155525
 22
20.379759702365671
 32
0.0
 13
71.662514211155525
 23
20.379759702365671
 33
0.0
210
0.0
220
0.0
230
1.0
  0
SOLID
  5
5F1
  8
DRG
  6
CONTINUOUS
 62
     7
 10
169.90391110863371
 20
22.655032455259779
 30
0.0
 11
143.89825287673739
 21
20.379759702365678
 31
0.0
 12
168.474262483421
 22
20.379759702365671
 32
0.0
 13
168.474262483421
 23
20.379759702365671
 33
0.0
  0
SOLID
  5
5F2
  8
DRG
  6
CONTINUOUS
 62
     7
 10
142.46860425152479
 20
22.655032455259779
 30
0.0
 11
143.89825287673739
 21
20.379759702365678
 31
0.0
 12
169.90391110863371
 22
22.655032455259779
 32
0.0
 13
169.90391110863371
 23
22.655032455259779
 33
0.0
  0
SOLID
  5
5F3
  8
DRG
  6
CONTINUOUS
 62
     7
 10
82.474422287265327
 20
22.98819641756462
 30
0.0
 11
83.724920350627414
 21
20.818044783243639
 31
0.0
 12
100.8530806557153
 22
21.561756477466091
 32
0.0
 13
100.8530806557153
 23
21.561756477466091
 33
0.0
210
0.0
220
0.0
230
1.0
  0
SOLID
  5
5F4
  8
DRG
  6
CONTINUOUS
 62
     7
 10
111.2523129779601
 20
23.54201089202471
 30
0.0
 11
102.1211660476033
 21
21.102600968374279
 31
0.0
 12
111.2870334115631
 22
20.69438210209054
 32
0.0
 13
111.2870334115631
 23
20.69438210209054
 33
0.0
210
0.0
220
0.0
230
1.0
  0
SOLID
  5
5F5
  8
DRG
  6
CONTINUOUS
 62
     7
 10
102.1211660476033
 20
23.542010892025001
 30
0.0
 11
82.474422287265327
 21
22.98819641756462
 31
0.0
 12
100.8530806557153
 22
21.561756477466091
 32
0.0
 13
100.8530806557153
 23
21.561756477466091
 33
0.0
210
0.0
220
0.0
230
1.0
  0
SOLID
  5
5F6
  8
DRG
  6
CONTINUOUS
 62
     7
 10
102.1211660476033
 20
23.542010892025001
 30
0.0
 11
102.1211660476033
 21
21.102600968374279
 31
0.0
 12
111.2523129779601
 22
23.54201089202471
 32
0.0
 13
111.2523129779601
 23
23.54201089202471
 33
0.0
210
0.0
220
0.0
230
1.0
  0
SOLID
  5
5F7
  8
DRG
  6
CONTINUOUS
 62
     7
 10
26.390819376565261
 20
23.61053820027184
 30
0.0
 11
10.665263297999569
 21
22.390471476161601
 31
0.0
 12
24.97349704072932
 22
21.705690512635009
 32
0.0
 13
24.97349704072932
 23
21.705690512635009
 33
0.0
210
0.0
220
0.0
230
1.0
  0
SOLID
  5
5F8
  8
DRG
  6
CONTINUOUS
 62
     7
 10
156.18625891463009
 20
23.758749615986972
 30
0.0
 11
142.46860425152479
 21
22.655032455259779
 31
0.0
 12
169.90391110863371
 22
22.655032455259779
 32
0.0
 13
169.90391110863371
 23
22.655032455259779
 33
0.0
210
0.0
220
0.0
230
1.0
  0
SOLID
  5
5F9
  8
DRG
  6
CONTINUOUS
 62
     7
 10
95.863486513980718
 20
23.758749615986972
 30
0.0
 11
102.1211660476033
 21
23.542010892025001
 31
0.0
 12
111.2523129779601
 22
23.54201089202471
 32
0.0
 13
111.2523129779601
 23
23.54201089202471
 33
0.0
210
0.0
220
0.0
230
1.0
  0
SOLID
  5
5FA
  8
DRG
  6
CONTINUOUS
 62
     7
 10
95.863486513980718
 20
23.758749615986972
 30
0.0
 11
82.474422287265327
 21
22.98819641756462
 31
0.0
 12
102.1211660476033
 22
23.542010892025001
 32
0.0
 13
102.1211660476033
 23
23.542010892025001
 33
0.0
210
0.0
220
0.0
230
1.0
  0
SOLID
  5
5FB
  8
DRG
  6
CONTINUOUS
 62
     7
 10
59.374510642364612
 20
23.758749615986979
 30
0.0
 11
45.656855979259397
 21
22.655032455259661
 31
0.0
 12
73.092162836368203
 22
22.655032455259779
 32
0.0
 13
73.092162836368203
 23
22.655032455259779
 33
0.0
210
0.0
220
0.0
230
1.0
  0
SOLID
  5
5FC
  8
DRG
  6
CONTINUOUS
 62
     7
 10
154.70864190489121
 20
24.052665913474581
 30
0.0
 11
142.46860425152479
 21
22.655032455259779
 31
0.0
 12
156.18625891463009
 22
23.758749615986972
 32
0.0
 13
156.18625891463009
 23
23.758749615986972
 33
0.0
210
0.0
220
0.0
230
1.0
  0
SOLID
  5
5FD
  8
DRG
  6
CONTINUOUS
 62
     7
 10
157.66387592436891
 20
24.052665913474581
 30
0.0
 11
156.18625891463009
 21
23.758749615986972
 31
0.0
 12
169.90391110863371
 22
22.655032455259779
 32
0.0
 13
169.90391110863371
 23
22.655032455259779
 33
0.0
210
0.0
220
0.0
230
1.0
  0
SOLID
  5
5FE
  8
DRG
  6
CONTINUOUS
 62
     7
 10
57.896893632625734
 20
24.052665913474591
 30
0.0
 11
45.656855979259397
 21
22.655032455259661
 31
0.0
 12
59.374510642364612
 22
23.758749615986979
 32
0.0
 13
59.374510642364612
 23
23.758749615986979
 33
0.0
210
0.0
220
0.0
230
1.0
  0
SOLID
  5
5FF
  8
DRG
  6
CONTINUOUS
 62
     7
 10
60.852127652103491
 20
24.052665913474591
 30
0.0
 11
59.374510642364612
 21
23.758749615986979
 31
0.0
 12
73.092162836368203
 22
22.655032455259779
 32
0.0
 13
73.092162836368203
 23
22.655032455259779
 33
0.0
210
0.0
220
0.0
230
1.0
  0
SOLID
  5
600
  8
DRG
  6
CONTINUOUS
 62
     7
 10
94.385869504241896
 20
24.05266591347463
 30
0.0
 11
82.474422287265327
 21
22.98819641756462
 31
0.0
 12
95.863486513980718
 22
23.758749615986972
 32
0.0
 13
95.863486513980718
 23
23.758749615986972
 33
0.0
210
0.0
220
0.0
230
1.0
  0
SOLID
  5
601
  8
DRG
  6
CONTINUOUS
 62
     7
 10
97.67821582604607
 20
24.148284466582719
 30
0.0
 11
95.863486513980718
 21
23.758749615986972
 31
0.0
 12
111.2523129779601
 22
23.54201089202471
 32
0.0
 13
111.2523129779601
 23
23.54201089202471
 33
0.0
210
0.0
220
0.0
230
1.0
  0
SOLID
  5
602
  8
DRG
  6
CONTINUOUS
 62
     7
 10
8.8324468561460741
 20
24.6839201031652
 30
0.0
 11
10.665263297999569
 21
22.390471476161601
 31
0.0
 12
26.390819376565261
 22
23.61053820027184
 32
0.0
 13
26.390819376565261
 23
23.61053820027184
 33
0.0
210
0.0
220
0.0
230
1.0
  0
SOLID
  5
603
  8
DRG
  6
CONTINUOUS
 62
     7
 10
153.45597869025349
 20
24.889668714002799
 30
0.0
 11
142.46860425152479
 21
22.655032455259779
 31
0.0
 12
154.70864190489121
 22
24.052665913474581
 32
0.0
 13
154.70864190489121
 23
24.052665913474581
 33
0.0
210
0.0
220
0.0
230
1.0
  0
SOLID
  5
604
  8
DRG
  6
CONTINUOUS
 62
     7
 10
158.9165391390066
 20
24.889668714002799
 30
0.0
 11
157.66387592436891
 21
24.052665913474581
 31
0.0
 12
169.90391110863371
 22
22.655032455259779
 32
0.0
 13
169.90391110863371
 23
22.655032455259779
 33
0.0
210
0.0
220
0.0
230
1.0
  0
SOLID
  5
605
  8
DRG
  6
CONTINUOUS
 62
     7
 10
56.644230417988048
 20
24.889668714002809
 30
0.0
 11
45.656855979259397
 21
22.655032455259661
 31
0.0
 12
57.896893632625734
 22
24.052665913474591
 32
0.0
 13
57.896893632625734
 23
24.052665913474591
 33
0.0
210
0.0
220
0.0
230
1.0
  0
SOLID
  5
606
  8
DRG
  6
CONTINUOUS
 62
     7
 10
62.104790866741169
 20
24.889668714002809
 30
0.0
 11
60.852127652103491
 21
24.052665913474591
 31
0.0
 12
73.092162836368203
 22
22.655032455259779
 32
0.0
 13
73.092162836368203
 23
22.655032455259779
 33
0.0
210
0.0
220
0.0
230
1.0
  0
SOLID
  5
607
  8
DRG
  6
CONTINUOUS
 62
     7
 10
93.13320628960426
 20
24.889668714002859
 30
0.0
 11
82.474422287265327
 21
22.98819641756462
 31
0.0
 12
94.385869504241896
 22
24.05266591347463
 32
0.0
 13
94.385869504241896
 23
24.05266591347463
 33
0.0
210
0.0
220
0.0
230
1.0
  0
SOLID
  5
608
  8
DRG
  6
CONTINUOUS
 62
     7
 10
99.286329246363479
 20
25.075080616387432
 30
0.0
 11
97.67821582604607
 21
24.148284466582719
 31
0.0
 12
111.2523129779601
 22
23.54201089202471
 32
0.0
 13
111.2523129779601
 23
23.54201089202471
 33
0.0
210
0.0
220
0.0
230
1.0
  0
SOLID
  5
609
  8
DRG
  6
CONTINUOUS
 62
     7
 10
44.769347447906519
 20
25.191386117194551
 30
0.0
 11
45.656855979259397
 21
22.655032455259661
 31
0.0
 12
56.644230417988048
 22
24.889668714002809
 32
0.0
 13
56.644230417988048
 23
24.889668714002809
 33
0.0
210
0.0
220
0.0
230
1.0
  0
SOLID
  5
60A
  8
DRG
  6
CONTINUOUS
 62
     7
 10
170.79141963998649
 20
25.1913861171947
 30
0.0
 11
158.9165391390066
 21
24.889668714002799
 31
0.0
 12
169.90391110863371
 22
22.655032455259779
 32
0.0
 13
169.90391110863371
 23
22.655032455259779
 33
0.0
210
0.0
220
0.0
230
1.0
  0
SOLID
  5
60B
  8
DRG
  6
CONTINUOUS
 62
     7
 10
73.979671367721053
 20
25.1913861171947
 30
0.0
 11
62.104790866741169
 21
24.889668714002809
 31
0.0
 12
73.092162836368203
 22
22.655032455259779
 32
0.0
 13
73.092162836368203
 23
22.655032455259779
 33
0.0
210
0.0
220
0.0
230
1.0
  0
SOLID
  5
60C
  8
DRG
  6
CONTINUOUS
 62
     7
 10
141.5810957201719
 20
25.19138611719471
 30
0.0
 11
142.46860425152479
 21
22.655032455259779
 31
0.0
 12
153.45597869025349
 22
24.889668714002799
 32
0.0
 13
153.45597869025349
 23
24.889668714002799
 33
0.0
  0
SOLID
  5
60D
  8
DRG
  6
CONTINUOUS
 62
     7
 10
81.701646597276806
 20
25.370657593613689
 30
0.0
 11
82.474422287265327
 21
22.98819641756462
 31
0.0
 12
93.13320628960426
 22
24.889668714002859
 32
0.0
 13
93.13320628960426
 23
24.889668714002859
 33
0.0
210
0.0
220
0.0
230
1.0
  0
SOLID
  5
60E
  8
DRG
  6
CONTINUOUS
 62
     7
 10
22.683854862926161
 20
25.455509253088579
 30
0.0
 11
8.8324468561460741
 21
24.6839201031652
 31
0.0
 12
26.390819376565261
 22
23.61053820027184
 32
0.0
 13
26.390819376565261
 23
23.61053820027184
 33
0.0
210
0.0
220
0.0
230
1.0
  0
SOLID
  5
60F
  8
DRG
  6
CONTINUOUS
 62
     7
 10
21.06007747620443
 20
25.668921983045841
 30
0.0
 11
8.8324468561460741
 21
24.6839201031652
 31
0.0
 12
22.683854862926161
 22
25.455509253088579
 32
0.0
 13
22.683854862926161
 23
25.455509253088579
 33
0.0
210
0.0
220
0.0
230
1.0
  0
SOLID
  5
610
  8
DRG
  6
CONTINUOUS
 62
     7
 10
27.267121908897021
 20
25.817196576320061
 30
0.0
 11
22.683854862926161
 21
25.455509253088579
 31
0.0
 12
26.390819376565261
 22
23.61053820027184
 32
0.0
 13
26.390819376565261
 23
23.61053820027184
 33
0.0
210
0.0
220
0.0
230
1.0
  0
SOLID
  5
611
  8
DRG
  6
CONTINUOUS
 62
     7
 10
27.267121908897021
 20
25.817196576320061
 30
0.0
 11
27.267121908897021
 21
13.51984597021351
 31
0.0
 12
37.639779947293839
 22
13.760967175618781
 32
0.0
 13
37.639779947293839
 23
13.760967175618781
 33
0.0
  0
SOLID
  5
612
  8
DRG
  6
CONTINUOUS
 62
     7
 10
152.61897588972531
 20
26.14233192864048
 30
0.0
 11
141.5810957201719
 21
25.19138611719471
 31
0.0
 12
153.45597869025349
 22
24.889668714002799
 32
0.0
 13
153.45597869025349
 23
24.889668714002799
 33
0.0
210
0.0
220
0.0
230
1.0
  0
SOLID
  5
613
  8
DRG
  6
CONTINUOUS
 62
     7
 10
159.7535419395349
 20
26.14233192864048
 30
0.0
 11
158.9165391390066
 21
24.889668714002799
 31
0.0
 12
170.79141963998649
 22
25.1913861171947
 32
0.0
 13
170.79141963998649
 23
25.1913861171947
 33
0.0
210
0.0
220
0.0
230
1.0
  0
SOLID
  5
614
  8
DRG
  6
CONTINUOUS
 62
     7
 10
55.80722761745983
 20
26.142331928640491
 30
0.0
 11
44.769347447906519
 21
25.191386117194551
 31
0.0
 12
56.644230417988048
 22
24.889668714002809
 32
0.0
 13
56.644230417988048
 23
24.889668714002809
 33
0.0
210
0.0
220
0.0
230
1.0
  0
SOLID
  5
615
  8
DRG
  6
CONTINUOUS
 62
     7
 10
62.941793667269401
 20
26.142331928640491
 30
0.0
 11
62.104790866741169
 21
24.889668714002809
 31
0.0
 12
73.979671367721053
 22
25.1913861171947
 32
0.0
 13
73.979671367721053
 23
25.1913861171947
 33
0.0
210
0.0
220
0.0
230
1.0
  0
SOLID
  5
616
  8
DRG
  6
CONTINUOUS
 62
     7
 10
92.296203489076092
 20
26.14233192864052
 30
0.0
 11
81.701646597276806
 21
25.370657593613689
 31
0.0
 12
93.13320628960426
 22
24.889668714002859
 32
0.0
 13
93.13320628960426
 23
24.889668714002859
 33
0.0
210
0.0
220
0.0
230
1.0
  0
SOLID
  5
617
  8
DRG
  6
CONTINUOUS
 62
     7
 10
19.578817635304372
 20
26.367540103819518
 30
0.0
 11
8.8324468561460741
 21
24.6839201031652
 31
0.0
 12
21.06007747620443
 22
25.668921983045841
 32
0.0
 13
21.06007747620443
 23
25.668921983045841
 33
0.0
210
0.0
220
0.0
230
1.0
  0
SOLID
  5
618
  8
DRG
  6
CONTINUOUS
 62
     7
 10
24.679246464695101
 20
26.372355404399901
 30
0.0
 11
22.683854862926161
 21
25.455509253088579
 31
0.0
 12
27.267121908897021
 22
25.817196576320061
 32
0.0
 13
27.267121908897021
 23
25.817196576320061
 33
0.0
210
0.0
220
0.0
230
1.0
  0
SOLID
  5
619
  8
DRG
  6
CONTINUOUS
 62
     7
 10
100.5331576485324
 20
26.449998363542679
 30
0.0
 11
99.286329246363479
 21
25.075080616387432
 31
0.0
 12
111.2523129779601
 22
23.54201089202471
 32
0.0
 13
111.2523129779601
 23
23.54201089202471
 33
0.0
  0
SOLID
  5
61A
  8
DRG
  6
CONTINUOUS
 62
     7
 10
7.6055113962037586
 20
27.351081907662518
 30
0.0
 11
8.8324468561460741
 21
24.6839201031652
 31
0.0
 12
19.578817635304372
 22
26.367540103819518
 32
0.0
 13
19.578817635304372
 23
26.367540103819518
 33
0.0
210
0.0
220
0.0
230
1.0
  0
SOLID
  5
61B
  8
DRG
  6
CONTINUOUS
 62
     7
 10
18.3813068076863
 20
27.48475351793256
 30
0.0
 11
7.6055113962037586
 21
27.351081907662518
 31
0.0
 12
19.578817635304372
 22
26.367540103819518
 32
0.0
 13
19.578817635304372
 23
26.367540103819518
 33
0.0
  0
SOLID
  5
61C
  8
DRG
  6
CONTINUOUS
 62
     7
 10
152.32505959223769
 20
27.619948938379359
 30
0.0
 11
141.5810957201719
 21
25.19138611719471
 31
0.0
 12
152.61897588972531
 22
26.14233192864048
 32
0.0
 13
152.61897588972531
 23
26.14233192864048
 33
0.0
210
0.0
220
0.0
230
1.0
  0
SOLID
  5
61D
  8
DRG
  6
CONTINUOUS
 62
     7
 10
92.002287191588479
 20
27.619948938379359
 30
0.0
 11
81.701646597276806
 21
25.370657593613689
 31
0.0
 12
92.296203489076092
 22
26.14233192864052
 32
0.0
 13
92.296203489076092
 23
26.14233192864052
 33
0.0
210
0.0
220
0.0
230
1.0
  0
SOLID
  5
61E
  8
DRG
  6
CONTINUOUS
 62
     7
 10
160.04745823702251
 20
27.619948938379359
 30
0.0
 11
159.7535419395349
 21
26.14233192864048
 31
0.0
 12
170.79141963998649
 22
25.1913861171947
 32
0.0
 13
170.79141963998649
 23
25.1913861171947
 33
0.0
210
0.0
220
0.0
230
1.0
  0
SOLID
  5
61F
  8
DRG
  6
CONTINUOUS
 62
     7
 10
55.513311319972217
 20
27.61994893837937
 30
0.0
 11
44.769347447906519
 21
25.191386117194551
 31
0.0
 12
55.80722761745983
 22
26.142331928640491
 32
0.0
 13
55.80722761745983
 23
26.142331928640491
 33
0.0
210
0.0
220
0.0
230
1.0
  0
SOLID
  5
620
  8
DRG
  6
CONTINUOUS
 62
     7
 10
63.235709964757007
 20
27.61994893837937
 30
0.0
 11
62.941793667269401
 21
26.142331928640491
 31
0.0
 12
73.979671367721053
 22
25.1913861171947
 32
0.0
 13
73.979671367721053
 23
25.1913861171947
 33
0.0
210
0.0
220
0.0
230
1.0
  0
SOLID
  5
621
  8
DRG
  6
CONTINUOUS
 62
     7
 10
44.468482394088362
 20
27.861637324670291
 30
0.0
 11
44.769347447906519
 21
25.191386117194551
 31
0.0
 12
55.513311319972217
 22
27.61994893837937
 32
0.0
 13
55.513311319972217
 23
27.61994893837937
 33
0.0
210
0.0
220
0.0
230
1.0
  0
SOLID
  5
622
  8
DRG
  6
CONTINUOUS
 62
     7
 10
171.0922846938046
 20
27.861637324670479
 30
0.0
 11
160.04745823702251
 21
27.619948938379359
 31
0.0
 12
170.79141963998649
 22
25.1913861171947
 32
0.0
 13
170.79141963998649
 23
25.1913861171947
 33
0.0
  0
SOLID
  5
623
  8
DRG
  6
CONTINUOUS
 62
     7
 10
74.280536421539182
 20
27.861637324670479
 30
0.0
 11
63.235709964757007
 21
27.61994893837937
 31
0.0
 12
73.979671367721053
 22
25.1913861171947
 32
0.0
 13
73.979671367721053
 23
25.1913861171947
 33
0.0
210
0.0
220
0.0
230
1.0
  0
SOLID
  5
624
  8
DRG
  6
CONTINUOUS
 62
     7
 10
81.440258950509346
 20
27.861637324670479
 30
0.0
 11
81.701646597276806
 21
25.370657593613689
 31
0.0
 12
92.002287191588479
 22
27.619948938379359
 32
0.0
 13
92.002287191588479
 23
27.619948938379359
 33
0.0
210
0.0
220
0.0
230
1.0
  0
SOLID
  5
625
  8
DRG
  6
CONTINUOUS
 62
     7
 10
141.28023066635379
 20
27.861637324670479
 30
0.0
 11
141.5810957201719
 21
25.19138611719471
 31
0.0
 12
152.32505959223769
 22
27.619948938379359
 32
0.0
 13
152.32505959223769
 23
27.619948938379359
 33
0.0
  0
SOLID
  5
626
  8
DRG
  6
CONTINUOUS
 62
     7
 10
26.241246459003619
 20
27.915841888747771
 30
0.0
 11
24.679246464695101
 21
26.372355404399901
 31
0.0
 12
27.267121908897021
 22
25.817196576320061
 32
0.0
 13
27.267121908897021
 23
25.817196576320061
 33
0.0
210
0.0
220
0.0
230
1.0
  0
SOLID
  5
627
  8
DRG
  6
CONTINUOUS
 62
     7
 10
26.241246459003619
 20
27.915841888747771
 30
0.0
 11
27.267121908897021
 21
25.817196576320061
 31
0.0
 12
37.639779947293839
 22
13.760967175618781
 32
0.0
 13
37.639779947293839
 23
13.760967175618781
 33
0.0
210
0.0
220
0.0
230
1.0
  0
SOLID
  5
628
  8
DRG
  6
CONTINUOUS
 62
     7
 10
101.2987804739044
 20
28.140797454259019
 30
0.0
 11
100.5331576485324
 21
26.449998363542679
 31
0.0
 12
111.2523129779601
 22
23.54201089202471
 32
0.0
 13
111.2523129779601
 23
23.54201089202471
 33
0.0
210
0.0
220
0.0
230
1.0
  0
SOLID
  5
629
  8
DRG
  6
CONTINUOUS
 62
     7
 10
17.581722267866311
 20
28.914040948303899
 30
0.0
 11
7.6055113962037586
 21
27.351081907662518
 31
0.0
 12
18.3813068076863
 22
27.48475351793256
 32
0.0
 13
18.3813068076863
 23
27.48475351793256
 33
0.0
210
0.0
220
0.0
230
1.0
  0
SOLID
  5
62A
  8
DRG
  6
CONTINUOUS
 62
     7
 10
160.04745823702251
 20
29.300230626583549
 30
0.0
 11
160.04745823702251
 21
27.619948938379359
 31
0.0
 12
171.0922846938046
 22
27.861637324670479
 32
0.0
 13
171.0922846938046
 23
27.861637324670479
 33
0.0
210
0.0
220
0.0
230
1.0
  0
SOLID
  5
62B
  8
DRG
  6
CONTINUOUS
 62
     7
 10
27.181817847379151
 20
29.900160404751109
 30
0.0
 11
26.241246459003619
 21
27.915841888747771
 31
0.0
 12
37.639779947293839
 22
13.760967175618781
 32
0.0
 13
37.639779947293839
 23
13.760967175618781
 33
0.0
210
0.0
220
0.0
230
1.0
  0
SOLID
  5
62C
  8
DRG
  6
CONTINUOUS
 62
     7
 10
152.32505959223769
 20
29.959298931438969
 30
0.0
 11
141.28023066635379
 21
27.861637324670479
 31
0.0
 12
152.32505959223769
 22
27.619948938379359
 32
0.0
 13
152.32505959223769
 23
27.619948938379359
 33
0.0
210
0.0
220
0.0
230
1.0
  0
SOLID
  5
62D
  8
DRG
  6
CONTINUOUS
 62
     7
 10
141.28023066635379
 20
29.95929893143898
 30
0.0
 11
141.28023066635379
 21
27.861637324670479
 31
0.0
 12
152.32505959223769
 22
29.959298931438969
 32
0.0
 13
152.32505959223769
 23
29.959298931438969
 33
0.0
210
0.0
220
0.0
230
1.0
  0
SOLID
  5
62E
  8
DRG
  6
CONTINUOUS
 62
     7
 10
171.0922846938046
 20
29.95929893143904
 30
0.0
 11
160.04745823702251
 21
29.300230626583549
 31
0.0
 12
171.0922846938046
 22
27.861637324670479
 32
0.0
 13
171.0922846938046
 23
27.861637324670479
 33
0.0
210
0.0
220
0.0
230
1.0
  0
SOLID
  5
62F
  8
DRG
  6
CONTINUOUS
 62
     7
 10
101.5095597489034
 20
29.984856014372749
 30
0.0
 11
101.2987804739044
 21
28.140797454259019
 31
0.0
 12
111.2523129779601
 22
23.54201089202471
 32
0.0
 13
111.2523129779601
 23
23.54201089202471
 33
0.0
210
0.0
220
0.0
230
1.0
  0
SOLID
  5
630
  8
DRG
  6
CONTINUOUS
 62
     7
 10
7.0565934473582743
 20
30.23514359210488
 30
0.0
 11
7.6055113962037586
 21
27.351081907662518
 31
0.0
 12
17.581722267866311
 22
28.914040948303899
 32
0.0
 13
17.581722267866311
 23
28.914040948303899
 33
0.0
210
0.0
220
0.0
230
1.0
  0
SOLID
  5
631
  8
DRG
  6
CONTINUOUS
 62
     7
 10
17.256300807526252
 20
30.5191262631974
 30
0.0
 11
7.0565934473582743
 21
30.23514359210488
 31
0.0
 12
17.581722267866311
 22
28.914040948303899
 32
0.0
 13
17.581722267866311
 23
28.914040948303899
 33
0.0
210
0.0
220
0.0
230
1.0
  0
SOLID
  5
632
  8
DRG
  6
CONTINUOUS
 62
     7
 10
63.235709964757
 20
30.81688778835381
 30
0.0
 11
63.235709964757007
 21
27.61994893837937
 31
0.0
 12
74.280536421539182
 22
27.861637324670479
 32
0.0
 13
74.280536421539182
 23
27.861637324670479
 33
0.0
210
0.0
220
0.0
230
1.0
  0
SOLID
  5
633
  8
DRG
  6
CONTINUOUS
 62
     7
 10
74.280536421539196
 20
30.816887788353831
 30
0.0
 11
63.235709964757
 21
30.81688778835381
 31
0.0
 12
74.280536421539182
 22
27.861637324670479
 32
0.0
 13
74.280536421539182
 23
27.861637324670479
 33
0.0
210
0.0
220
0.0
230
1.0
  0
SOLID
  5
634
  8
DRG
  6
CONTINUOUS
 62
     7
 10
159.01581968400799
 20
30.996563617445211
 30
0.0
 11
160.04745823702251
 21
29.300230626583549
 31
0.0
 12
171.0922846938046
 22
29.95929893143904
 32
0.0
 13
171.0922846938046
 23
29.95929893143904
 33
0.0
210
0.0
220
0.0
230
1.0
  0
SOLID
  5
635
  8
DRG
  6
CONTINUOUS
 62
     7
 10
27.387732575171409
 20
32.086434320449378
 30
0.0
 11
27.181817847379151
 21
29.900160404751109
 31
0.0
 12
37.639779947293839
 22
13.760967175618781
 32
0.0
 13
37.639779947293839
 23
13.760967175618781
 33
0.0
210
0.0
220
0.0
230
1.0
  0
SOLID
  5
636
  8
DRG
  6
CONTINUOUS
 62
     7
 10
157.53297815821909
 20
32.316792661720299
 30
0.0
 11
159.01581968400799
 21
30.996563617445211
 31
0.0
 12
171.0922846938046
 22
29.95929893143904
 32
0.0
 13
171.0922846938046
 23
29.95929893143904
 33
0.0
210
0.0
220
0.0
230
1.0
  0
SOLID
  5
637
  8
DRG
  6
CONTINUOUS
 62
     7
 10
81.440258950509346
 20
32.349374231810209
 30
0.0
 11
81.440258950509346
 21
27.861637324670479
 31
0.0
 12
92.002287191588479
 22
27.619948938379359
 32
0.0
 13
92.002287191588479
 23
27.619948938379359
 33
0.0
210
0.0
220
0.0
230
1.0
  0
SOLID
  5
638
  8
DRG
  6
CONTINUOUS
 62
     7
 10
170.47732661026529
 20
32.356132664391282
 30
0.0
 11
157.53297815821909
 21
32.316792661720299
 31
0.0
 12
171.0922846938046
 22
29.95929893143904
 32
0.0
 13
171.0922846938046
 23
29.95929893143904
 33
0.0
210
0.0
220
0.0
230
1.0
  0
SOLID
  5
639
  8
DRG
  6
CONTINUOUS
 62
     7
 10
92.002287191588479
 20
33.041326503689838
 30
0.0
 11
81.440258950509346
 21
32.349374231810209
 31
0.0
 12
92.002287191588479
 22
27.619948938379359
 32
0.0
 13
92.002287191588479
 23
27.619948938379359
 33
0.0
210
0.0
220
0.0
230
1.0
  0
SOLID
  5
63A
  8
DRG
  6
CONTINUOUS
 62
     7
 10
155.72873071743231
 20
33.145354604103439
 30
0.0
 11
157.53297815821909
 21
32.316792661720299
 31
0.0
 12
170.47732661026529
 22
32.356132664391282
 32
0.0
 13
170.47732661026529
 23
32.356132664391282
 33
0.0
210
0.0
220
0.0
230
1.0
  0
SOLID
  5
63B
  8
DRG
  6
CONTINUOUS
 62
     7
 10
152.4516822959568
 20
34.180717875305689
 30
0.0
 11
155.72873071743231
 21
33.145354604103439
 31
0.0
 12
170.47732661026529
 22
32.356132664391282
 32
0.0
 13
170.47732661026529
 23
32.356132664391282
 33
0.0
210
0.0
220
0.0
230
1.0
  0
SOLID
  5
63C
  8
DRG
  6
CONTINUOUS
 62
     7
 10
169.3838362766385
 20
34.575876856453249
 30
0.0
 11
152.4516822959568
 21
34.180717875305689
 31
0.0
 12
170.47732661026529
 22
32.356132664391282
 32
0.0
 13
170.47732661026529
 23
32.356132664391282
 33
0.0
210
0.0
220
0.0
230
1.0
  0
SOLID
  5
63D
  8
DRG
  6
CONTINUOUS
 62
     7
 10
92.821309573647781
 20
34.855023452224977
 30
0.0
 11
81.440258950509346
 21
32.349374231810209
 31
0.0
 12
92.002287191588479
 22
33.041326503689838
 32
0.0
 13
92.002287191588479
 23
33.041326503689838
 33
0.0
210
0.0
220
0.0
230
1.0
  0
SOLID
  5
63E
  8
DRG
  6
CONTINUOUS
 62
     7
 10
82.124565023344857
 20
35.167915353955507
 30
0.0
 11
81.440258950509346
 21
32.349374231810209
 31
0.0
 12
92.821309573647781
 22
34.855023452224977
 32
0.0
 13
92.821309573647781
 23
34.855023452224977
 33
0.0
210
0.0
220
0.0
230
1.0
  0
SOLID
  5
63F
  8
DRG
  6
CONTINUOUS
 62
     7
 10
55.513311319972232
 20
35.629722934820848
 30
0.0
 11
44.468482394088362
 21
27.861637324670291
 31
0.0
 12
55.513311319972217
 22
27.61994893837937
 32
0.0
 13
55.513311319972217
 23
27.61994893837937
 33
0.0
210
0.0
220
0.0
230
1.0
  0
SOLID
  5
640
  8
DRG
  6
CONTINUOUS
 62
     7
 10
149.39175196581581
 20
35.745278463692301
 30
0.0
 11
152.4516822959568
 21
34.180717875305689
 31
0.0
 12
169.3838362766385
 22
34.575876856453249
 32
0.0
 13
169.3838362766385
 23
34.575876856453249
 33
0.0
  0
SOLID
  5
641
  8
DRG
  6
CONTINUOUS
 62
     7
 10
94.205364320613299
 20
36.284948884141627
 30
0.0
 11
82.124565023344857
 21
35.167915353955507
 31
0.0
 12
92.821309573647781
 22
34.855023452224977
 32
0.0
 13
92.821309573647781
 23
34.855023452224977
 33
0.0
210
0.0
220
0.0
230
1.0
  0
SOLID
  5
642
  8
DRG
  6
CONTINUOUS
 62
     7
 10
44.169020821240288
 20
36.461122307958632
 30
0.0
 11
55.513311319972232
 21
35.629722934820848
 31
0.0
 12
74.280536421539182
 22
35.629722934820848
 32
0.0
 13
74.280536421539182
 23
35.629722934820848
 33
0.0
210
0.0
220
0.0
230
1.0
  0
SOLID
  5
643
  8
DRG
  6
CONTINUOUS
 62
     7
 10
44.169020821240288
 20
36.461122307958632
 30
0.0
 11
44.468482394088362
 21
27.861637324670291
 31
0.0
 12
55.513311319972232
 22
35.629722934820848
 32
0.0
 13
55.513311319972232
 23
35.629722934820848
 33
0.0
210
0.0
220
0.0
230
1.0
  0
SOLID
  5
644
  8
DRG
  6
CONTINUOUS
 62
     7
 10
167.85830970219251
 20
36.524146360035118
 30
0.0
 11
149.39175196581581
 21
35.745278463692301
 31
0.0
 12
169.3838362766385
 22
34.575876856453249
 32
0.0
 13
169.3838362766385
 23
34.575876856453249
 33
0.0
  0
SOLID
  5
645
  8
DRG
  6
CONTINUOUS
 62
     7
 10
95.991402974049976
 20
37.162650548643818
 30
0.0
 11
82.124565023344857
 21
35.167915353955507
 31
0.0
 12
94.205364320613299
 22
36.284948884141627
 32
0.0
 13
94.205364320613299
 23
36.284948884141627
 33
0.0
210
0.0
220
0.0
230
1.0
  0
SOLID
  5
646
  8
DRG
  6
CONTINUOUS
 62
     7
 10
101.5095597489034
 20
37.384730871555568
 30
0.0
 11
101.5095597489034
 21
29.984856014372749
 31
0.0
 12
111.2523129779601
 22
23.54201089202471
 32
0.0
 13
111.2523129779601
 23
23.54201089202471
 33
0.0
210
0.0
220
0.0
230
1.0
  0
SOLID
  5
647
  8
DRG
  6
CONTINUOUS
 62
     7
 10
83.465136107217845
 20
37.739941408961009
 30
0.0
 11
95.991402974049976
 21
37.162650548643818
 31
0.0
 12
97.969021393668683
 22
37.384730871555568
 32
0.0
 13
97.969021393668683
 23
37.384730871555568
 33
0.0
210
0.0
220
0.0
230
1.0
  0
SOLID
  5
648
  8
DRG
  6
CONTINUOUS
 62
     7
 10
83.465136107217845
 20
37.739941408961009
 30
0.0
 11
82.124565023344857
 21
35.167915353955507
 31
0.0
 12
95.991402974049976
 22
37.162650548643818
 32
0.0
 13
95.991402974049976
 23
37.162650548643818
 33
0.0
210
0.0
220
0.0
230
1.0
  0
SOLID
  5
649
  8
DRG
  6
CONTINUOUS
 62
     7
 10
146.63370620049619
 20
37.795694766898073
 30
0.0
 11
149.39175196581581
 21
35.745278463692301
 31
0.0
 12
167.85830970219251
 22
36.524146360035118
 32
0.0
 13
167.85830970219251
 23
36.524146360035118
 33
0.0
210
0.0
220
0.0
230
1.0
  0
SOLID
  5
64A
  8
DRG
  6
CONTINUOUS
 62
     7
 10
165.96561339334559
 20
38.118099329982897
 30
0.0
 11
146.63370620049619
 21
37.795694766898073
 31
0.0
 12
167.85830970219251
 22
36.524146360035118
 32
0.0
 13
167.85830970219251
 23
36.524146360035118
 33
0.0
210
0.0
220
0.0
230
1.0
  0
SOLID
  5
64B
  8
DRG
  6
CONTINUOUS
 62
     7
 10
6.7865631049779154
 20
38.202265524009427
 30
0.0
 11
7.0565934473582743
 21
30.23514359210488
 31
0.0
 12
17.256300807526252
 22
30.5191262631974
 32
0.0
 13
17.256300807526252
 23
30.5191262631974
 33
0.0
210
0.0
220
0.0
230
1.0
  0
SOLID
  5
64C
  8
DRG
  6
CONTINUOUS
 62
     7
 10
163.78622618233979
 20
39.289959719462992
 30
0.0
 11
146.63370620049619
 21
37.795694766898073
 31
0.0
 12
165.96561339334559
 22
38.118099329982897
 32
0.0
 13
165.96561339334559
 23
38.118099329982897
 33
0.0
210
0.0
220
0.0
230
1.0
  0
SOLID
  5
64D
  8
DRG
  6
CONTINUOUS
 62
     7
 10
85.383656329320502
 20
39.915195190919967
 30
0.0
 11
83.465136107217845
 21
37.739941408961009
 31
0.0
 12
97.969021393668683
 22
37.384730871555568
 32
0.0
 13
97.969021393668683
 23
37.384730871555568
 33
0.0
210
0.0
220
0.0
230
1.0
  0
SOLID
  5
64E
  8
DRG
  6
CONTINUOUS
 62
     7
 10
85.383656329320502
 20
39.915195190919967
 30
0.0
 11
97.969021393668683
 21
37.384730871555568
 31
0.0
 12
101.5095597489034
 22
37.384730871555568
 32
0.0
 13
101.5095597489034
 23
37.384730871555568
 33
0.0
210
0.0
220
0.0
230
1.0
  0
SOLID
  5
64F
  8
DRG
  6
CONTINUOUS
 62
     7
 10
161.4128172083947
 20
39.98989916707626
 30
0.0
 11
146.63370620049619
 21
37.795694766898073
 31
0.0
 12
163.78622618233979
 22
39.289959719462992
 32
0.0
 13
163.78622618233979
 23
39.289959719462992
 33
0.0
210
0.0
220
0.0
230
1.0
  0
SOLID
  5
650
  8
DRG
  6
CONTINUOUS
 62
     7
 10
144.25394863930259
 20
40.275165962534743
 30
0.0
 11
146.63370620049619
 21
37.795694766898073
 31
0.0
 12
161.4128172083947
 22
39.98989916707626
 32
0.0
 13
161.4128172083947
 23
39.98989916707626
 33
0.0
  0
SOLID
  5
651
  8
DRG
  6
CONTINUOUS
 62
     7
 10
127.2345352189994
 20
40.740104065808097
 30
0.0
 11
116.19314081319391
 21
17.28637227261407
 31
0.0
 12
127.2345352189994
 22
17.28637227261407
 32
0.0
 13
127.2345352189994
 23
17.28637227261407
 33
0.0
210
0.0
220
0.0
230
1.0
  0
SOLID
  5
652
  8
DRG
  6
CONTINUOUS
 62
     7
 10
158.4712923481795
 20
40.965125441240623
 30
0.0
 11
144.25394863930259
 21
40.275165962534743
 31
0.0
 12
161.4128172083947
 22
39.98989916707626
 32
0.0
 13
161.4128172083947
 23
39.98989916707626
 33
0.0
210
0.0
220
0.0
230
1.0
  0
SOLID
  5
653
  8
DRG
  6
CONTINUOUS
 62
     7
 10
87.768046153177011
 20
41.566598844310953
 30
0.0
 11
85.383656329320502
 21
39.915195190919967
 31
0.0
 12
101.5095597489034
 22
37.384730871555568
 32
0.0
 13
101.5095597489034
 23
37.384730871555568
 33
0.0
210
0.0
220
0.0
230
1.0
  0
SOLID
  5
654
  8
DRG
  6
CONTINUOUS
 62
     7
 10
55.51331131997221
 20
41.923431282527638
 30
0.0
 11
44.169020821240288
 21
36.461122307958632
 31
0.0
 12
74.280536421539182
 22
35.629722934820848
 32
0.0
 13
74.280536421539182
 23
35.629722934820848
 33
0.0
210
0.0
220
0.0
230
1.0
  0
SOLID
  5
655
  8
DRG
  6
CONTINUOUS
 62
     7
 10
63.235709964756971
 20
41.923431282527652
 30
0.0
 11
55.51331131997221
 21
41.923431282527638
 31
0.0
 12
74.280536421539182
 22
35.629722934820848
 32
0.0
 13
74.280536421539182
 23
35.629722934820848
 33
0.0
210
0.0
220
0.0
230
1.0
  0
SOLID
  5
656
  8
DRG
  6
CONTINUOUS
 62
     7
 10
155.7899070018324
 20
42.518768712226482
 30
0.0
 11
144.25394863930259
 21
40.275165962534743
 31
0.0
 12
158.4712923481795
 22
40.965125441240623
 32
0.0
 13
158.4712923481795
 23
40.965125441240623
 33
0.0
210
0.0
220
0.0
230
1.0
  0
SOLID
  5
657
  8
DRG
  6
CONTINUOUS
 62
     7
 10
90.479010040926084
 20
42.597677724835599
 30
0.0
 11
87.768046153177011
 21
41.566598844310953
 31
0.0
 12
101.5095597489034
 22
37.384730871555568
 32
0.0
 13
101.5095597489034
 23
37.384730871555568
 33
0.0
210
0.0
220
0.0
230
1.0
  0
SOLID
  5
658
  8
DRG
  6
CONTINUOUS
 62
     7
 10
127.5071286086868
 20
42.810656426628263
 30
0.0
 11
116.19314081319391
 21
17.28637227261407
 31
0.0
 12
127.2345352189994
 22
40.740104065808097
 32
0.0
 13
127.2345352189994
 23
40.740104065808097
 33
0.0
  0
SOLID
  5
659
  8
DRG
  6
CONTINUOUS
 62
     7
 10
93.358174068518778
 20
42.948196427274922
 30
0.0
 11
90.479010040926084
 21
42.597677724835599
 31
0.0
 12
101.5095597489034
 22
37.384730871555568
 32
0.0
 13
101.5095597489034
 23
37.384730871555568
 33
0.0
210
0.0
220
0.0
230
1.0
  0
SOLID
  5
65A
  8
DRG
  6
CONTINUOUS
 62
     7
 10
101.5095597489034
 20
37.384730871555568
 30
0.0
 11
100.207486521178
 21
42.948196427274922
 31
0.0
 12
93.358174068518778
 22
42.948196427274922
 32
0.0
 13
93.358174068518778
 23
42.948196427274922
 33
0.0
  0
SOLID
  5
65B
  8
DRG
  6
CONTINUOUS
 62
     7
 10
100.207486521178
 20
42.948196427274922
 30
0.0
 11
101.5095597489034
 21
37.384730871555568
 31
0.0
 12
111.2523129779601
 22
23.54201089202471
 32
0.0
 13
111.2523129779601
 23
23.54201089202471
 33
0.0
  0
SOLID
  5
65C
  8
DRG
  6
CONTINUOUS
 62
     7
 10
142.3184035466634
 20
43.11500550983493
 30
0.0
 11
144.25394863930259
 21
40.275165962534743
 31
0.0
 12
155.7899070018324
 22
42.518768712226482
 32
0.0
 13
155.7899070018324
 23
42.518768712226482
 33
0.0
210
0.0
220
0.0
230
1.0
  0
SOLID
  5
65D
  8
DRG
  6
CONTINUOUS
 62
     7
 10
153.4809683549079
 20
44.585756161105429
 30
0.0
 11
142.3184035466634
 21
43.11500550983493
 31
0.0
 12
155.7899070018324
 22
42.518768712226482
 32
0.0
 13
155.7899070018324
 23
42.518768712226482
 33
0.0
210
0.0
220
0.0
230
1.0
  0
SOLID
  5
65E
  8
DRG
  6
CONTINUOUS
 62
     7
 10
128.30633198872391
 20
44.740104065808097
 30
0.0
 11
116.19314081319391
 21
17.28637227261407
 31
0.0
 12
127.5071286086868
 22
42.810656426628263
 32
0.0
 13
127.5071286086868
 23
42.810656426628263
 33
0.0
210
0.0
220
0.0
230
1.0
  0
SOLID
  5
65F
  8
DRG
  6
CONTINUOUS
 62
     7
 10
27.387732575171409
 20
44.745475926535612
 30
0.0
 11
27.387732575171409
 21
32.086434320449378
 31
0.0
 12
37.639779947293839
 22
13.760967175618781
 32
0.0
 13
37.639779947293839
 23
13.760967175618781
 33
0.0
210
0.0
220
0.0
230
1.0
  0
SOLID
  5
660
  8
DRG
  6
CONTINUOUS
 62
     7
 10
141.68103748780231
 20
44.96578368522475
 30
0.0
 11
142.3184035466634
 21
43.11500550983493
 31
0.0
 12
153.4809683549079
 22
44.585756161105429
 32
0.0
 13
153.4809683549079
 23
44.585756161105429
 33
0.0
210
0.0
220
0.0
230
1.0
  0
SOLID
  5
661
  8
DRG
  6
CONTINUOUS
 62
     7
 10
111.2523129779601
 20
45.06060729124669
 30
0.0
 11
100.207486521178
 21
42.948196427274922
 31
0.0
 12
111.2523129779601
 22
23.54201089202471
 32
0.0
 13
111.2523129779601
 23
23.54201089202471
 33
0.0
  0
SOLID
  5
662
  8
DRG
  6
CONTINUOUS
 62
     7
 10
74.280536421539182
 20
45.06060729124669
 30
0.0
 11
63.235709964756971
 21
41.923431282527652
 31
0.0
 12
74.280536421539182
 22
35.629722934820848
 32
0.0
 13
74.280536421539182
 23
35.629722934820848
 33
0.0
  0
SOLID
  5
663
  8
DRG
  6
CONTINUOUS
 62
     7
 10
44.468482394088362
 20
45.06060729124696
 30
0.0
 11
44.169020821240288
 21
36.461122307958632
 31
0.0
 12
55.51331131997221
 22
41.923431282527638
 32
0.0
 13
55.51331131997221
 23
41.923431282527638
 33
0.0
210
0.0
220
0.0
230
1.0
  0
SOLID
  5
664
  8
DRG
  6
CONTINUOUS
 62
     7
 10
152.7676036732239
 20
45.45462446566345
 30
0.0
 11
141.68103748780231
 21
44.96578368522475
 31
0.0
 12
153.4809683549079
 22
44.585756161105429
 32
0.0
 13
153.4809683549079
 23
44.585756161105429
 33
0.0
  0
SOLID
  5
665
  8
DRG
  6
CONTINUOUS
 62
     7
 10
7.0305774038875759
 20
46.17022669896302
 30
0.0
 11
6.7865631049779154
 21
38.202265524009427
 31
0.0
 12
17.256300807526252
 22
30.5191262631974
 32
0.0
 13
17.256300807526252
 23
30.5191262631974
 33
0.0
  0
SOLID
  5
666
  8
DRG
  6
CONTINUOUS
 62
     7
 10
17.256300807526252
 20
46.312783983787632
 30
0.0
 11
7.0305774038875759
 21
46.17022669896302
 31
0.0
 12
17.256300807526252
 22
30.5191262631974
 32
0.0
 13
17.256300807526252
 23
30.5191262631974
 33
0.0
210
0.0
220
0.0
230
1.0
  0
SOLID
  5
667
  8
DRG
  6
CONTINUOUS
 62
     7
 10
160.04745823702251
 20
46.421288526219293
 30
0.0
 11
160.04745823702251
 21
45.21828747592599
 31
0.0
 12
171.0912486890569
 22
45.21828747592599
 32
0.0
 13
171.0912486890569
 23
45.21828747592599
 33
0.0
210
0.0
220
0.0
230
1.0
  0
SOLID
  5
668
  8
DRG
  6
CONTINUOUS
 62
     7
 10
152.43266305936851
 20
46.527767552548831
 30
0.0
 11
141.68103748780231
 21
44.96578368522475
 31
0.0
 12
152.7676036732239
 22
45.45462446566345
 32
0.0
 13
152.7676036732239
 23
45.45462446566345
 33
0.0
210
0.0
220
0.0
230
1.0
  0
SOLID
  5
669
  8
DRG
  6
CONTINUOUS
 62
     7
 10
63.235709964757007
 20
46.690614073903127
 30
0.0
 11
63.235709964756971
 21
41.923431282527652
 31
0.0
 12
74.280536421539182
 22
45.06060729124669
 32
0.0
 13
74.280536421539182
 23
45.06060729124669
 33
0.0
210
0.0
220
0.0
230
1.0
  0
SOLID
  5
66A
  8
DRG
  6
CONTINUOUS
 62
     7
 10
55.513311319972217
 20
46.690614073903141
 30
0.0
 11
44.468482394088362
 21
45.06060729124696
 31
0.0
 12
55.51331131997221
 22
41.923431282527638
 32
0.0
 13
55.51331131997221
 23
41.923431282527638
 33
0.0
210
0.0
220
0.0
230
1.0
  0
SOLID
  5
66B
  8
DRG
  6
CONTINUOUS
 62
     7
 10
141.53564323306159
 20
46.917827705777547
 30
0.0
 11
141.68103748780231
 21
44.96578368522475
 31
0.0
 12
152.43266305936851
 22
46.527767552548831
 32
0.0
 13
152.43266305936851
 23
46.527767552548831
 33
0.0
  0
SOLID
  5
66C
  8
DRG
  6
CONTINUOUS
 62
     7
 10
27.181817847379161
 20
46.931749842233849
 30
0.0
 11
27.387732575171409
 21
44.745475926535612
 31
0.0
 12
37.639779947293839
 22
13.760967175618781
 32
0.0
 13
37.639779947293839
 23
13.760967175618781
 33
0.0
210
0.0
220
0.0
230
1.0
  0
SOLID
  5
66D
  8
DRG
  6
CONTINUOUS
 62
     7
 10
92.485087876393209
 20
47.313129977668268
 30
0.0
 11
81.470405744524527
 21
45.910674481046733
 31
0.0
 12
92.485087876393209
 22
45.910674481046733
 32
0.0
 13
92.485087876393209
 23
45.910674481046733
 33
0.0
210
0.0
220
0.0
230
1.0
  0
SOLID
  5
66E
  8
DRG
  6
CONTINUOUS
 62
     7
 10
100.2074865211779
 20
47.313129977668268
 30
0.0
 11
100.207486521178
 21
42.948196427274922
 31
0.0
 12
111.2523129779601
 22
45.06060729124669
 32
0.0
 13
111.2523129779601
 23
45.06060729124669
 33
0.0
210
0.0
220
0.0
230
1.0
  0
SOLID
  5
66F
  8
DRG
  6
CONTINUOUS
 62
     7
 10
152.52515784094209
 20
47.648154099737518
 30
0.0
 11
141.53564323306159
 21
46.917827705777547
 31
0.0
 12
152.43266305936851
 22
46.527767552548831
 32
0.0
 13
152.43266305936851
 23
46.527767552548831
 33
0.0
210
0.0
220
0.0
230
1.0
  0
SOLID
  5
670
  8
DRG
  6
CONTINUOUS
 62
     7
 10
73.979671367721053
 20
47.730858498722469
 30
0.0
 11
63.235709964757007
 21
46.690614073903127
 31
0.0
 12
74.280536421539182
 22
45.06060729124669
 32
0.0
 13
74.280536421539182
 23
45.06060729124669
 33
0.0
210
0.0
220
0.0
230
1.0
  0
SOLID
  5
671
  8
DRG
  6
CONTINUOUS
 62
     7
 10
110.951447924142
 20
47.730858498722469
 30
0.0
 11
100.2074865211779
 21
47.313129977668268
 31
0.0
 12
111.2523129779601
 22
45.06060729124669
 32
0.0
 13
111.2523129779601
 23
45.06060729124669
 33
0.0
210
0.0
220
0.0
230
1.0
  0
SOLID
  5
672
  8
DRG
  6
CONTINUOUS
 62
     7
 10
44.769347447906533
 20
47.730858498722682
 30
0.0
 11
44.468482394088362
 21
45.06060729124696
 31
0.0
 12
55.513311319972217
 22
46.690614073903141
 32
0.0
 13
55.513311319972217
 23
46.690614073903141
 33
0.0
210
0.0
220
0.0
230
1.0
  0
SOLID
  5
673
  8
DRG
  6
CONTINUOUS
 62
     7
 10
170.76060265160129
 20
47.862455973056527
 30
0.0
 11
160.04745823702251
 21
46.421288526219293
 31
0.0
 12
171.0912486890569
 22
45.21828747592599
 32
0.0
 13
171.0912486890569
 23
45.21828747592599
 33
0.0
210
0.0
220
0.0
230
1.0
  0
SOLID
  5
674
  8
DRG
  6
CONTINUOUS
 62
     7
 10
17.581722267866329
 20
47.917869298681147
 30
0.0
 11
7.0305774038875759
 21
46.17022669896302
 31
0.0
 12
17.256300807526252
 22
46.312783983787632
 32
0.0
 13
17.256300807526252
 23
46.312783983787632
 33
0.0
210
0.0
220
0.0
230
1.0
  0
SOLID
  5
675
  8
DRG
  6
CONTINUOUS
 62
     7
 10
159.7387277495244
 20
47.934174967545289
 30
0.0
 11
160.04745823702251
 21
46.421288526219293
 31
0.0
 12
170.76060265160129
 22
47.862455973056527
 32
0.0
 13
170.76060265160129
 23
47.862455973056527
 33
0.0
210
0.0
220
0.0
230
1.0
  0
SOLID
  5
676
  8
DRG
  6
CONTINUOUS
 62
     7
 10
62.941793667269401
 20
48.168231083642013
 30
0.0
 11
63.235709964757007
 21
46.690614073903127
 31
0.0
 12
73.979671367721053
 22
47.730858498722469
 32
0.0
 13
73.979671367721053
 23
47.730858498722469
 33
0.0
  0
SOLID
  5
677
  8
DRG
  6
CONTINUOUS
 62
     7
 10
55.80722761745983
 20
48.16823108364202
 30
0.0
 11
44.769347447906533
 21
47.730858498722682
 31
0.0
 12
55.513311319972217
 22
46.690614073903141
 32
0.0
 13
55.513311319972217
 23
46.690614073903141
 33
0.0
210
0.0
220
0.0
230
1.0
  0
SOLID
  5
678
  8
DRG
  6
CONTINUOUS
 62
     7
 10
81.924891017256186
 20
48.4364481289943
 30
0.0
 11
81.470405744524527
 21
45.910674481046733
 31
0.0
 12
92.485087876393209
 22
47.313129977668268
 32
0.0
 13
92.485087876393209
 23
47.313129977668268
 33
0.0
210
0.0
220
0.0
230
1.0
  0
SOLID
  5
679
  8
DRG
  6
CONTINUOUS
 62
     7
 10
7.3420010674428831
 20
48.764604957189498
 30
0.0
 11
7.0305774038875759
 21
46.17022669896302
 31
0.0
 12
17.581722267866329
 22
47.917869298681147
 32
0.0
 13
17.581722267866329
 23
47.917869298681147
 33
0.0
210
0.0
220
0.0
230
1.0
  0
SOLID
  5
67A
  8
DRG
  6
CONTINUOUS
 62
     7
 10
92.779004173880821
 20
48.790746987407147
 30
0.0
 11
81.924891017256186
 21
48.4364481289943
 31
0.0
 12
92.485087876393209
 22
47.313129977668268
 32
0.0
 13
92.485087876393209
 23
47.313129977668268
 33
0.0
210
0.0
220
0.0
230
1.0
  0
SOLID
  5
67B
  8
DRG
  6
CONTINUOUS
 62
     7
 10
99.913570223690385
 20
48.790746987407147
 30
0.0
 11
100.2074865211779
 21
47.313129977668268
 31
0.0
 12
110.951447924142
 22
47.730858498722469
 32
0.0
 13
110.951447924142
 23
47.730858498722469
 33
0.0
210
0.0
220
0.0
230
1.0
  0
SOLID
  5
67C
  8
DRG
  6
CONTINUOUS
 62
     7
 10
141.8917942032017
 20
48.84260609145101
 30
0.0
 11
141.53564323306159
 21
46.917827705777547
 31
0.0
 12
152.52515784094209
 22
47.648154099737518
 32
0.0
 13
152.52515784094209
 23
47.648154099737518
 33
0.0
210
0.0
220
0.0
230
1.0
  0
SOLID
  5
67D
  8
DRG
  6
CONTINUOUS
 62
     7
 10
153.29859675497221
 20
48.984541822115588
 30
0.0
 11
141.8917942032017
 21
48.84260609145101
 31
0.0
 12
152.52515784094209
 22
47.648154099737518
 32
0.0
 13
152.52515784094209
 23
47.648154099737518
 33
0.0
210
0.0
220
0.0
230
1.0
  0
SOLID
  5
67E
  8
DRG
  6
CONTINUOUS
 62
     7
 10
158.8619067058832
 20
49.205129237252457
 30
0.0
 11
159.7387277495244
 21
47.934174967545289
 31
0.0
 12
170.76060265160129
 22
47.862455973056527
 32
0.0
 13
170.76060265160129
 23
47.862455973056527
 33
0.0
210
0.0
220
0.0
230
1.0
  0
SOLID
  5
67F
  8
DRG
  6
CONTINUOUS
 62
     7
 10
18.38130680768635
 20
49.347156729052493
 30
0.0
 11
7.3420010674428831
 21
48.764604957189498
 31
0.0
 12
17.581722267866329
 22
47.917869298681147
 32
0.0
 13
17.581722267866329
 23
47.917869298681147
 33
0.0
210
0.0
220
0.0
230
1.0
  0
SOLID
  5
680
  8
DRG
  6
CONTINUOUS
 62
     7
 10
62.104790866741169
 20
49.420894298279691
 30
0.0
 11
62.941793667269401
 21
48.168231083642013
 31
0.0
 12
73.979671367721053
 22
47.730858498722469
 32
0.0
 13
73.979671367721053
 23
47.730858498722469
 33
0.0
210
0.0
220
0.0
230
1.0
  0
SOLID
  5
681
  8
DRG
  6
CONTINUOUS
 62
     7
 10
56.644230417988048
 20
49.420894298279698
 30
0.0
 11
44.769347447906533
 21
47.730858498722682
 31
0.0
 12
55.80722761745983
 22
48.16823108364202
 32
0.0
 13
55.80722761745983
 23
48.16823108364202
 33
0.0
210
0.0
220
0.0
230
1.0
  0
SOLID
  5
682
  8
DRG
  6
CONTINUOUS
 62
     7
 10
154.5338141330721
 20
49.911028695794251
 30
0.0
 11
141.8917942032017
 21
48.84260609145101
 31
0.0
 12
153.29859675497221
 22
48.984541822115588
 32
0.0
 13
153.29859675497221
 23
48.984541822115588
 33
0.0
210
0.0
220
0.0
230
1.0
  0
SOLID
  5
683
  8
DRG
  6
CONTINUOUS
 62
     7
 10
157.5572113268374
 20
50.030907576854183
 30
0.0
 11
158.8619067058832
 21
49.205129237252457
 31
0.0
 12
170.76060265160129
 22
47.862455973056527
 32
0.0
 13
170.76060265160129
 23
47.862455973056527
 33
0.0
210
0.0
220
0.0
230
1.0
  0
SOLID
  5
684
  8
DRG
  6
CONTINUOUS
 62
     7
 10
93.616006974409046
 20
50.043410202044832
 30
0.0
 11
81.924891017256186
 21
48.4364481289943
 31
0.0
 12
92.779004173880821
 22
48.790746987407147
 32
0.0
 13
92.779004173880821
 23
48.790746987407147
 33
0.0
  0
SOLID
  5
685
  8
DRG
  6
CONTINUOUS
 62
     7
 10
99.07656742316216
 20
50.043410202044832
 30
0.0
 11
99.913570223690385
 21
48.790746987407147
 31
0.0
 12
110.951447924142
 22
47.730858498722469
 32
0.0
 13
110.951447924142
 23
47.730858498722469
 33
0.0
210
0.0
220
0.0
230
1.0
  0
SOLID
  5
686
  8
DRG
  6
CONTINUOUS
 62
     7
 10
57.896893632625734
 20
50.257897098807909
 30
0.0
 11
44.769347447906533
 21
47.730858498722682
 31
0.0
 12
56.644230417988048
 22
49.420894298279698
 32
0.0
 13
56.644230417988048
 23
49.420894298279698
 33
0.0
  0
SOLID
  5
687
  8
DRG
  6
CONTINUOUS
 62
     7
 10
60.852127652103498
 20
50.257897098807909
 30
0.0
 11
62.104790866741169
 21
49.420894298279691
 31
0.0
 12
73.979671367721053
 22
47.730858498722469
 32
0.0
 13
73.979671367721053
 23
47.730858498722469
 33
0.0
  0
SOLID
  5
688
  8
DRG
  6
CONTINUOUS
 62
     7
 10
73.092162836368203
 20
50.267212160657387
 30
0.0
 11
60.852127652103498
 21
50.257897098807909
 31
0.0
 12
73.979671367721053
 22
47.730858498722469
 32
0.0
 13
73.979671367721053
 23
47.730858498722469
 33
0.0
210
0.0
220
0.0
230
1.0
  0
SOLID
  5
689
  8
DRG
  6
CONTINUOUS
 62
     7
 10
110.06393939278919
 20
50.267212160657387
 30
0.0
 11
99.07656742316216
 21
50.043410202044832
 31
0.0
 12
110.951447924142
 22
47.730858498722469
 32
0.0
 13
110.951447924142
 23
47.730858498722469
 33
0.0
  0
SOLID
  5
68A
  8
DRG
  6
CONTINUOUS
 62
     7
 10
45.656855979259412
 20
50.26721216065755
 30
0.0
 11
44.769347447906533
 21
47.730858498722682
 31
0.0
 12
57.896893632625734
 22
50.257897098807909
 32
0.0
 13
57.896893632625734
 23
50.257897098807909
 33
0.0
210
0.0
220
0.0
230
1.0
  0
SOLID
  5
68B
  8
DRG
  6
CONTINUOUS
 62
     7
 10
156.0332810566515
 20
50.279456223742521
 30
0.0
 11
141.8917942032017
 21
48.84260609145101
 31
0.0
 12
154.5338141330721
 22
49.911028695794251
 32
0.0
 13
154.5338141330721
 23
49.911028695794251
 33
0.0
210
0.0
220
0.0
230
1.0
  0
SOLID
  5
68C
  8
DRG
  6
CONTINUOUS
 62
     7
 10
169.85456642492841
 20
50.368459205149207
 30
0.0
 11
156.0332810566515
 21
50.279456223742521
 31
0.0
 12
157.5572113268374
 22
50.030907576854183
 32
0.0
 13
157.5572113268374
 23
50.030907576854183
 33
0.0
210
0.0
220
0.0
230
1.0
  0
SOLID
  5
68D
  8
DRG
  6
CONTINUOUS
 62
     7
 10
169.85456642492841
 20
50.368459205149207
 30
0.0
 11
157.5572113268374
 21
50.030907576854183
 31
0.0
 12
170.76060265160129
 22
47.862455973056527
 32
0.0
 13
170.76060265160129
 23
47.862455973056527
 33
0.0
210
0.0
220
0.0
230
1.0
  0
SOLID
  5
68E
  8
DRG
  6
CONTINUOUS
 62
     7
 10
19.57881763530445
 20
50.464370143165517
 30
0.0
 11
7.3420010674428831
 21
48.764604957189498
 31
0.0
 12
18.38130680768635
 22
49.347156729052493
 32
0.0
 13
18.38130680768635
 23
49.347156729052493
 33
0.0
210
0.0
220
0.0
230
1.0
  0
SOLID
  5
68F
  8
DRG
  6
CONTINUOUS
 62
     7
 10
59.374510642364612
 20
50.551813396295529
 30
0.0
 11
45.656855979259412
 21
50.26721216065755
 31
0.0
 12
57.896893632625734
 22
50.257897098807909
 32
0.0
 13
57.896893632625734
 23
50.257897098807909
 33
0.0
210
0.0
220
0.0
230
1.0
  0
SOLID
  5
690
  8
DRG
  6
CONTINUOUS
 62
     7
 10
59.374510642364612
 20
50.551813396295529
 30
0.0
 11
60.852127652103498
 21
50.257897098807909
 31
0.0
 12
73.092162836368203
 22
50.267212160657387
 32
0.0
 13
73.092162836368203
 23
50.267212160657387
 33
0.0
210
0.0
220
0.0
230
1.0
  0
SOLID
  5
691
  8
DRG
  6
CONTINUOUS
 62
     7
 10
82.906051585096932
 20
50.807821849838582
 30
0.0
 11
81.924891017256186
 21
48.4364481289943
 31
0.0
 12
93.616006974409046
 22
50.043410202044832
 32
0.0
 13
93.616006974409046
 23
50.043410202044832
 33
0.0
210
0.0
220
0.0
230
1.0
  0
SOLID
  5
692
  8
DRG
  6
CONTINUOUS
 62
     7
 10
94.868670189046725
 20
50.88041300257305
 30
0.0
 11
82.906051585096932
 21
50.807821849838582
 31
0.0
 12
93.616006974409046
 22
50.043410202044832
 32
0.0
 13
93.616006974409046
 23
50.043410202044832
 33
0.0
210
0.0
220
0.0
230
1.0
  0
SOLID
  5
693
  8
DRG
  6
CONTINUOUS
 62
     7
 10
97.823904208524496
 20
50.88041300257305
 30
0.0
 11
99.07656742316216
 21
50.043410202044832
 31
0.0
 12
110.06393939278919
 22
50.267212160657387
 32
0.0
 13
110.06393939278919
 23
50.267212160657387
 33
0.0
210
0.0
220
0.0
230
1.0
  0
SOLID
  5
694
  8
DRG
  6
CONTINUOUS
 62
     7
 10
142.920441326131
 20
51.116576646040869
 30
0.0
 11
156.0332810566515
 21
50.279456223742521
 31
0.0
 12
169.85456642492841
 22
50.368459205149207
 32
0.0
 13
169.85456642492841
 23
50.368459205149207
 33
0.0
210
0.0
220
0.0
230
1.0
  0
SOLID
  5
695
  8
DRG
  6
CONTINUOUS
 62
     7
 10
142.920441326131
 20
51.116576646040869
 30
0.0
 11
141.8917942032017
 21
48.84260609145101
 31
0.0
 12
156.0332810566515
 22
50.279456223742521
 32
0.0
 13
156.0332810566515
 23
50.279456223742521
 33
0.0
210
0.0
220
0.0
230
1.0
  0
SOLID
  5
696
  8
DRG
  6
CONTINUOUS
 62
     7
 10
21.06007747620454
 20
51.162988263939191
 30
0.0
 11
7.3420010674428831
 21
48.764604957189498
 31
0.0
 12
19.57881763530445
 22
50.464370143165517
 32
0.0
 13
19.57881763530445
 23
50.464370143165517
 33
0.0
  0
SOLID
  5
697
  8
DRG
  6
CONTINUOUS
 62
     7
 10
96.346287198785603
 20
51.174329300060663
 30
0.0
 11
82.906051585096932
 21
50.807821849838582
 31
0.0
 12
94.868670189046725
 22
50.88041300257305
 32
0.0
 13
94.868670189046725
 23
50.88041300257305
 33
0.0
210
0.0
220
0.0
230
1.0
  0
SOLID
  5
698
  8
DRG
  6
CONTINUOUS
 62
     7
 10
96.346287198785603
 20
51.174329300060663
 30
0.0
 11
97.823904208524496
 21
50.88041300257305
 31
0.0
 12
110.06393939278919
 22
50.267212160657387
 32
0.0
 13
110.06393939278919
 23
50.267212160657387
 33
0.0
  0
SOLID
  5
699
  8
DRG
  6
CONTINUOUS
 62
     7
 10
8.2028006413352372
 20
51.231750542388589
 30
0.0
 11
7.3420010674428831
 21
48.764604957189498
 31
0.0
 12
21.06007747620454
 22
51.162988263939191
 32
0.0
 13
21.06007747620454
 23
51.162988263939191
 33
0.0
  0
SOLID
  5
69A
  8
DRG
  6
CONTINUOUS
 62
     7
 10
27.267121908897021
 20
51.255838552818979
 30
0.0
 11
24.679246464695179
 21
50.459554842585071
 31
0.0
 12
26.241246459003669
 22
48.91606835823719
 32
0.0
 13
26.241246459003669
 23
48.91606835823719
 33
0.0
210
0.0
220
0.0
230
1.0
  0
SOLID
  5
69B
  8
DRG
  6
CONTINUOUS
 62
     7
 10
27.267121908897021
 20
51.255838552818979
 30
0.0
 11
26.241246459003669
 21
48.91606835823719
 31
0.0
 12
27.181817847379161
 22
46.931749842233849
 32
0.0
 13
27.181817847379161
 23
46.931749842233849
 33
0.0
210
0.0
220
0.0
230
1.0
  0
SOLID
  5
69C
  8
DRG
  6
CONTINUOUS
 62
     7
 10
27.267121908897021
 20
51.255838552818979
 30
0.0
 11
27.181817847379161
 21
46.931749842233849
 31
0.0
 12
37.639779947293839
 22
13.760967175618781
 32
0.0
 13
37.639779947293839
 23
13.760967175618781
 33
0.0
210
0.0
220
0.0
230
1.0
  0
SOLID
  5
69D
  8
DRG
  6
CONTINUOUS
 62
     7
 10
22.683854862926282
 20
51.376400993896397
 30
0.0
 11
8.2028006413352372
 21
51.231750542388589
 31
0.0
 12
21.06007747620454
 22
51.162988263939191
 32
0.0
 13
21.06007747620454
 23
51.162988263939191
 33
0.0
  0
SOLID
  5
69E
  8
DRG
  6
CONTINUOUS
 62
     7
 10
22.683854862926282
 20
51.376400993896397
 30
0.0
 11
24.679246464695179
 21
50.459554842585071
 31
0.0
 12
27.267121908897021
 22
51.255838552818979
 32
0.0
 13
27.267121908897021
 23
51.255838552818979
 33
0.0
210
0.0
220
0.0
230
1.0
  0
SOLID
  5
69F
  8
DRG
  6
CONTINUOUS
 62
     7
 10
108.6342907675765
 20
52.54248491355149
 30
0.0
 11
96.346287198785603
 21
51.174329300060663
 31
0.0
 12
110.06393939278919
 22
50.267212160657387
 32
0.0
 13
110.06393939278919
 23
50.267212160657387
 33
0.0
210
0.0
220
0.0
230
1.0
  0
SOLID
  5
6A0
  8
DRG
  6
CONTINUOUS
 62
     7
 10
71.662514211155525
 20
52.54248491355149
 30
0.0
 11
59.374510642364612
 21
50.551813396295529
 31
0.0
 12
73.092162836368203
 22
50.267212160657387
 32
0.0
 13
73.092162836368203
 23
50.267212160657387
 33
0.0
210
0.0
220
0.0
230
1.0
  0
SOLID
  5
6A1
  8
DRG
  6
CONTINUOUS
 62
     7
 10
47.08650460447209
 20
52.542484913551611
 30
0.0
 11
59.374510642364612
 21
50.551813396295529
 31
0.0
 12
71.662514211155525
 22
52.54248491355149
 32
0.0
 13
71.662514211155525
 23
52.54248491355149
 33
0.0
210
0.0
220
0.0
230
1.0
  0
SOLID
  5
6A2
  8
DRG
  6
CONTINUOUS
 62
     7
 10
47.08650460447209
 20
52.542484913551611
 30
0.0
 11
45.656855979259412
 21
50.26721216065755
 31
0.0
 12
59.374510642364612
 22
50.551813396295529
 32
0.0
 13
59.374510642364612
 23
50.551813396295529
 33
0.0
210
0.0
220
0.0
230
1.0
  0
SOLID
  5
6A3
  8
DRG
  6
CONTINUOUS
 62
     7
 10
168.4178186300519
 20
52.612720691077257
 30
0.0
 11
142.920441326131
 21
51.116576646040869
 31
0.0
 12
169.85456642492841
 22
50.368459205149207
 32
0.0
 13
169.85456642492841
 23
50.368459205149207
 33
0.0
210
0.0
220
0.0
230
1.0
  0
SOLID
  5
6A4
  8
DRG
  6
CONTINUOUS
 62
     7
 10
84.369012370271378
 20
52.916336759636032
 30
0.0
 11
96.346287198785603
 21
51.174329300060663
 31
0.0
 12
108.6342907675765
 22
52.54248491355149
 32
0.0
 13
108.6342907675765
 23
52.54248491355149
 33
0.0
210
0.0
220
0.0
230
1.0
  0
SOLID
  5
6A5
  8
DRG
  6
CONTINUOUS
 62
     7
 10
84.369012370271378
 20
52.916336759636032
 30
0.0
 11
82.906051585096932
 21
50.807821849838582
 31
0.0
 12
96.346287198785603
 22
51.174329300060663
 32
0.0
 13
96.346287198785603
 23
51.174329300060663
 33
0.0
  0
SOLID
  5
6A6
  8
DRG
  6
CONTINUOUS
 62
     7
 10
127.2345352189994
 20
53.086533694841222
 30
0.0
 11
135.23453521899941
 21
48.740104065808111
 31
0.0
 12
136.6041529029215
 22
48.740104065808111
 32
0.0
 13
136.6041529029215
 23
48.740104065808111
 33
0.0
210
0.0
220
0.0
230
1.0
  0
SOLID
  5
6A7
  8
DRG
  6
CONTINUOUS
 62
     7
 10
127.2345352189994
 20
53.086533694841222
 30
0.0
 11
133.1639828581792
 21
48.467510676120646
 31
0.0
 12
135.23453521899941
 22
48.740104065808111
 32
0.0
 13
135.23453521899941
 23
48.740104065808111
 33
0.0
210
0.0
220
0.0
230
1.0
  0
SOLID
  5
6A8
  8
DRG
  6
CONTINUOUS
 62
     7
 10
127.2345352189994
 20
53.086533694841222
 30
0.0
 11
131.23453521899941
 21
47.668307296083611
 31
0.0
 12
133.1639828581792
 22
48.467510676120646
 32
0.0
 13
133.1639828581792
 23
48.467510676120646
 33
0.0
210
0.0
220
0.0
230
1.0
  0
SOLID
  5
6A9
  8
DRG
  6
CONTINUOUS
 62
     7
 10
127.2345352189994
 20
53.086533694841222
 30
0.0
 11
129.57768096950701
 21
46.396958315300481
 31
0.0
 12
131.23453521899941
 22
47.668307296083611
 32
0.0
 13
131.23453521899941
 23
47.668307296083611
 33
0.0
210
0.0
220
0.0
230
1.0
  0
SOLID
  5
6AA
  8
DRG
  6
CONTINUOUS
 62
     7
 10
127.2345352189994
 20
53.086533694841222
 30
0.0
 11
128.30633198872391
 21
44.740104065808097
 31
0.0
 12
129.57768096950701
 22
46.396958315300481
 32
0.0
 13
129.57768096950701
 23
46.396958315300481
 33
0.0
210
0.0
220
0.0
230
1.0
  0
SOLID
  5
6AB
  8
DRG
  6
CONTINUOUS
 62
     7
 10
127.2345352189994
 20
53.086533694841222
 30
0.0
 11
116.19314081319391
 21
17.28637227261407
 31
0.0
 12
128.30633198872391
 22
44.740104065808097
 32
0.0
 13
128.30633198872391
 23
44.740104065808097
 33
0.0
210
0.0
220
0.0
230
1.0
  0
SOLID
  5
6AC
  8
DRG
  6
CONTINUOUS
 62
     7
 10
144.39722538079619
 20
53.12858207409991
 30
0.0
 11
142.920441326131
 21
51.116576646040869
 31
0.0
 12
168.4178186300519
 22
52.612720691077257
 32
0.0
 13
168.4178186300519
 23
52.612720691077257
 33
0.0
210
0.0
220
0.0
230
1.0
  0
SOLID
  5
6AD
  8
DRG
  6
CONTINUOUS
 62
     7
 10
9.5728846326008892
 20
53.456756857403953
 30
0.0
 11
8.2028006413352372
 21
51.231750542388589
 31
0.0
 12
22.683854862926282
 22
51.376400993896397
 32
0.0
 13
22.683854862926282
 23
51.376400993896397
 33
0.0
210
0.0
220
0.0
230
1.0
  0
SOLID
  5
6AE
  8
DRG
  6
CONTINUOUS
 62
     7
 10
26.390819376565261
 20
53.462496928867189
 30
0.0
 11
9.5728846326008892
 21
53.456756857403953
 31
0.0
 12
22.683854862926282
 22
51.376400993896397
 32
0.0
 13
22.683854862926282
 23
51.376400993896397
 33
0.0
210
0.0
220
0.0
230
1.0
  0
SOLID
  5
6AF
  8
DRG
  6
CONTINUOUS
 62
     7
 10
26.390819376565261
 20
53.462496928867189
 30
0.0
 11
22.683854862926282
 21
51.376400993896397
 31
0.0
 12
27.267121908897021
 22
51.255838552818979
 32
0.0
 13
27.267121908897021
 23
51.255838552818979
 33
0.0
210
0.0
220
0.0
230
1.0
  0
SOLID
  5
6B0
  8
DRG
  6
CONTINUOUS
 62
     7
 10
69.762414043843989
 20
54.442585080863047
 30
0.0
 11
47.08650460447209
 21
52.542484913551611
 31
0.0
 12
71.662514211155525
 22
52.54248491355149
 32
0.0
 13
71.662514211155525
 23
52.54248491355149
 33
0.0
210
0.0
220
0.0
230
1.0
  0
SOLID
  5
6B1
  8
DRG
  6
CONTINUOUS
 62
     7
 10
106.7341906002649
 20
54.442585080863047
 30
0.0
 11
84.369012370271378
 21
52.916336759636032
 31
0.0
 12
108.6342907675765
 22
52.54248491355149
 32
0.0
 13
108.6342907675765
 23
52.54248491355149
 33
0.0
  0
SOLID
  5
6B2
  8
DRG
  6
CONTINUOUS
 62
     7
 10
48.986604771783639
 20
54.442585080863132
 30
0.0
 11
47.08650460447209
 21
52.542484913551611
 31
0.0
 12
69.762414043843989
 22
54.442585080863047
 32
0.0
 13
69.762414043843989
 23
54.442585080863047
 33
0.0
  0
SOLID
  5
6B3
  8
DRG
  6
CONTINUOUS
 62
     7
 10
166.52120843208201
 20
54.484571005674873
 30
0.0
 11
144.39722538079619
 21
53.12858207409991
 31
0.0
 12
168.4178186300519
 22
52.612720691077257
 32
0.0
 13
168.4178186300519
 23
52.612720691077257
 33
0.0
210
0.0
220
0.0
230
1.0
  0
SOLID
  5
6B4
  8
DRG
  6
CONTINUOUS
 62
     7
 10
86.246862327667387
 20
54.665556277393662
 30
0.0
 11
84.369012370271378
 21
52.916336759636032
 31
0.0
 12
106.7341906002649
 22
54.442585080863047
 32
0.0
 13
106.7341906002649
 23
54.442585080863047
 33
0.0
  0
SOLID
  5
6B5
  8
DRG
  6
CONTINUOUS
 62
     7
 10
146.2582646169646
 20
54.791588372372388
 30
0.0
 11
144.39722538079619
 21
53.12858207409991
 31
0.0
 12
166.52120843208201
 22
54.484571005674873
 32
0.0
 13
166.52120843208201
 23
54.484571005674873
 33
0.0
210
0.0
220
0.0
230
1.0
  0
SOLID
  5
6B6
  8
DRG
  6
CONTINUOUS
 62
     7
 10
129.0836962561232
 20
55.014863471122233
 30
0.0
 11
127.2345352189994
 21
53.086533694841222
 31
0.0
 12
136.6041529029215
 22
48.740104065808111
 32
0.0
 13
136.6041529029215
 23
48.740104065808111
 33
0.0
210
0.0
220
0.0
230
1.0
  0
SOLID
  5
6B7
  8
DRG
  6
CONTINUOUS
 62
     7
 10
11.388441772784841
 20
55.335994872054471
 30
0.0
 11
9.5728846326008892
 21
53.456756857403953
 31
0.0
 12
26.390819376565261
 22
53.462496928867189
 32
0.0
 13
26.390819376565261
 23
53.462496928867189
 33
0.0
210
0.0
220
0.0
230
1.0
  0
SOLID
  5
6B8
  8
DRG
  6
CONTINUOUS
 62
     7
 10
24.97349704072932
 20
55.367344616504027
 30
0.0
 11
11.388441772784841
 21
55.335994872054471
 31
0.0
 12
26.390819376565261
 22
53.462496928867189
 32
0.0
 13
26.390819376565261
 23
53.462496928867189
 33
0.0
210
0.0
220
0.0
230
1.0
  0
SOLID
  5
6B9
  8
DRG
  6
CONTINUOUS
 62
     7
 10
104.4589178473708
 20
55.872233706075718
 30
0.0
 11
86.246862327667387
 21
54.665556277393662
 31
0.0
 12
106.7341906002649
 22
54.442585080863047
 32
0.0
 13
106.7341906002649
 23
54.442585080863047
 33
0.0
210
0.0
220
0.0
230
1.0
  0
SOLID
  5
6BA
  8
DRG
  6
CONTINUOUS
 62
     7
 10
67.487141290949879
 20
55.872233706075718
 30
0.0
 11
48.986604771783639
 21
54.442585080863132
 31
0.0
 12
69.762414043843989
 22
54.442585080863047
 32
0.0
 13
69.762414043843989
 23
54.442585080863047
 33
0.0
210
0.0
220
0.0
230
1.0
  0
SOLID
  5
6BB
  8
DRG
  6
CONTINUOUS
 62
     7
 10
51.261877524677743
 20
55.872233706075761
 30
0.0
 11
48.986604771783639
 21
54.442585080863132
 31
0.0
 12
67.487141290949879
 22
55.872233706075718
 32
0.0
 13
67.487141290949879
 23
55.872233706075718
 33
0.0
210
0.0
220
0.0
230
1.0
  0
SOLID
  5
6BC
  8
DRG
  6
CONTINUOUS
 62
     7
 10
164.25826181348069
 20
55.891705130292529
 30
0.0
 11
146.2582646169646
 21
54.791588372372388
 31
0.0
 12
166.52120843208201
 22
54.484571005674873
 32
0.0
 13
166.52120843208201
 23
54.484571005674873
 33
0.0
210
0.0
220
0.0
230
1.0
  0
SOLID
  5
6BD
  8
DRG
  6
CONTINUOUS
 62
     7
 10
88.453714737362944
 20
55.975476819112622
 30
0.0
 11
86.246862327667387
 21
54.665556277393662
 31
0.0
 12
104.4589178473708
 22
55.872233706075718
 32
0.0
 13
104.4589178473708
 23
55.872233706075718
 33
0.0
210
0.0
220
0.0
230
1.0
  0
SOLID
  5
6BE
  8
DRG
  6
CONTINUOUS
 62
     7
 10
148.42305542729969
 20
56.033658311683958
 30
0.0
 11
146.2582646169646
 21
54.791588372372388
 31
0.0
 12
164.25826181348069
 22
55.891705130292529
 32
0.0
 13
164.25826181348069
 23
55.891705130292529
 33
0.0
  0
SOLID
  5
6BF
  8
DRG
  6
CONTINUOUS
 62
     7
 10
131.36827517159969
 20
56.399981316747272
 30
0.0
 11
129.0836962561232
 21
55.014863471122233
 31
0.0
 12
136.6041529029215
 22
48.740104065808111
 32
0.0
 13
136.6041529029215
 23
48.740104065808111
 33
0.0
  0
SOLID
  5
6C0
  8
DRG
  6
CONTINUOUS
 62
     7
 10
101.9225641854359
 20
56.759742237428583
 30
0.0
 11
88.453714737362944
 21
55.975476819112622
 31
0.0
 12
104.4589178473708
 22
55.872233706075718
 32
0.0
 13
104.4589178473708
 23
55.872233706075718
 33
0.0
210
0.0
220
0.0
230
1.0
  0
SOLID
  5
6C1
  8
DRG
  6
CONTINUOUS
 62
     7
 10
64.950787629014954
 20
56.759742237428583
 30
0.0
 11
51.261877524677743
 21
55.872233706075761
 31
0.0
 12
67.487141290949879
 22
55.872233706075718
 32
0.0
 13
67.487141290949879
 23
55.872233706075718
 33
0.0
210
0.0
220
0.0
230
1.0
  0
SOLID
  5
6C2
  8
DRG
  6
CONTINUOUS
 62
     7
 10
53.798231186612632
 20
56.759742237428583
 30
0.0
 11
51.261877524677743
 21
55.872233706075761
 31
0.0
 12
64.950787629014954
 22
56.759742237428583
 32
0.0
 13
64.950787629014954
 23
56.759742237428583
 33
0.0
210
0.0
220
0.0
230
1.0
  0
SOLID
  5
6C3
  8
DRG
  6
CONTINUOUS
 62
     7
 10
161.7405696040295
 20
56.76473421444242
 30
0.0
 11
148.42305542729969
 21
56.033658311683958
 31
0.0
 12
164.25826181348069
 22
55.891705130292529
 32
0.0
 13
164.25826181348069
 23
55.891705130292529
 33
0.0
210
0.0
220
0.0
230
1.0
  0
SOLID
  5
6C4
  8
DRG
  6
CONTINUOUS
 62
     7
 10
13.56491300944491
 20
56.781939615456523
 30
0.0
 11
11.388441772784841
 21
55.335994872054471
 31
0.0
 12
24.97349704072932
 22
55.367344616504027
 32
0.0
 13
24.97349704072932
 23
55.367344616504027
 33
0.0
210
0.0
220
0.0
230
1.0
  0
SOLID
  5
6C5
  8
DRG
  6
CONTINUOUS
 62
     7
 10
90.888635382503196
 20
56.786186900255167
 30
0.0
 11
88.453714737362944
 21
55.975476819112622
 31
0.0
 12
101.9225641854359
 22
56.759742237428583
 32
0.0
 13
101.9225641854359
 23
56.759742237428583
 33
0.0
210
0.0
220
0.0
230
1.0
  0
SOLID
  5
6C6
  8
DRG
  6
CONTINUOUS
 62
     7
 10
150.79795471928901
 20
56.801063250136181
 30
0.0
 11
148.42305542729969
 21
56.033658311683958
 31
0.0
 12
161.7405696040295
 22
56.76473421444242
 32
0.0
 13
161.7405696040295
 23
56.76473421444242
 33
0.0
210
0.0
220
0.0
230
1.0
  0
SOLID
  5
6C7
  8
DRG
  6
CONTINUOUS
 62
     7
 10
23.111648298363178
 20
56.840696773085902
 30
0.0
 11
13.56491300944491
 21
56.781939615456523
 31
0.0
 12
24.97349704072932
 22
55.367344616504027
 32
0.0
 13
24.97349704072932
 23
55.367344616504027
 33
0.0
210
0.0
220
0.0
230
1.0
  0
SOLID
  5
6C8
  8
DRG
  6
CONTINUOUS
 62
     7
 10
150.79795471928901
 20
56.801063250136181
 30
0.0
 11
159.0922846938046
 21
57.06060729124669
 31
0.0
 12
153.28023066635379
 22
57.06060729124669
 32
0.0
 13
153.28023066635379
 23
57.06060729124669
 33
0.0
210
0.0
220
0.0
230
1.0
  0
SOLID
  5
6C9
  8
DRG
  6
CONTINUOUS
 62
     7
 10
159.0922846938046
 20
57.06060729124669
 30
0.0
 11
150.79795471928901
 21
56.801063250136181
 31
0.0
 12
161.7405696040295
 22
56.76473421444242
 32
0.0
 13
161.7405696040295
 23
56.76473421444242
 33
0.0
210
0.0
220
0.0
230
1.0
  0
SOLID
  5
6CA
  8
DRG
  6
CONTINUOUS
 62
     7
 10
27.267121908897021
 20
51.255838552818979
 30
0.0
 11
37.639779947293832
 21
57.06060729124669
 31
0.0
 12
27.267121908897028
 22
57.06060729124669
 32
0.0
 13
27.267121908897028
 23
57.06060729124669
 33
0.0
210
0.0
220
0.0
230
1.0
  0
SOLID
  5
6CB
  8
DRG
  6
CONTINUOUS
 62
     7
 10
37.639779947293832
 20
57.06060729124669
 30
0.0
 11
27.267121908897021
 21
51.255838552818979
 31
0.0
 12
37.639779947293839
 22
13.760967175618781
 32
0.0
 13
37.639779947293839
 23
13.760967175618781
 33
0.0
  0
SOLID
  5
6CC
  8
DRG
  6
CONTINUOUS
 62
     7
 10
53.798231186612632
 20
56.759742237428583
 30
0.0
 11
62.280536421539182
 21
57.06060729124669
 31
0.0
 12
56.468482394088369
 22
57.06060729124669
 32
0.0
 13
56.468482394088369
 23
57.06060729124669
 33
0.0
210
0.0
220
0.0
230
1.0
  0
SOLID
  5
6CD
  8
DRG
  6
CONTINUOUS
 62
     7
 10
62.280536421539182
 20
57.06060729124669
 30
0.0
 11
53.798231186612632
 21
56.759742237428583
 31
0.0
 12
64.950787629014954
 22
56.759742237428583
 32
0.0
 13
64.950787629014954
 23
56.759742237428583
 33
0.0
210
0.0
220
0.0
230
1.0
  0
SOLID
  5
6CE
  8
DRG
  6
CONTINUOUS
 62
     7
 10
90.888635382503196
 20
56.786186900255167
 30
0.0
 11
99.252312977960173
 21
57.06060729124669
 31
0.0
 12
93.440258950509346
 22
57.06060729124669
 32
0.0
 13
93.440258950509346
 23
57.06060729124669
 33
0.0
210
0.0
220
0.0
230
1.0
  0
SOLID
  5
6CF
  8
DRG
  6
CONTINUOUS
 62
     7
 10
99.252312977960173
 20
57.06060729124669
 30
0.0
 11
90.888635382503196
 21
56.786186900255167
 31
0.0
 12
101.9225641854359
 22
56.759742237428583
 32
0.0
 13
101.9225641854359
 23
56.759742237428583
 33
0.0
210
0.0
220
0.0
230
1.0
  0
SOLID
  5
6D0
  8
DRG
  6
CONTINUOUS
 62
     7
 10
133.93314657289841
 20
57.147836223870669
 30
0.0
 11
131.36827517159969
 21
56.399981316747272
 31
0.0
 12
136.6041529029215
 22
48.740104065808111
 32
0.0
 13
136.6041529029215
 23
48.740104065808111
 33
0.0
210
0.0
220
0.0
230
1.0
  0
SOLID
  5
6D1
  8
DRG
  6
CONTINUOUS
 62
     7
 10
127.2345352189994
 20
53.086533694841222
 30
0.0
 11
127.2345352189994
 21
57.207648031108022
 31
0.0
 12
116.19314081319391
 22
57.207648031108022
 32
0.0
 13
116.19314081319391
 23
57.207648031108022
 33
0.0
210
0.0
220
0.0
230
1.0
  0
SOLID
  5
6D2
  8
DRG
  6
CONTINUOUS
 62
     7
 10
116.19314081319391
 20
57.207648031108022
 30
0.0
 11
116.19314081319391
 21
17.28637227261407
 31
0.0
 12
127.2345352189994
 22
53.086533694841222
 32
0.0
 13
127.2345352189994
 23
53.086533694841222
 33
0.0
210
0.0
220
0.0
230
1.0
  0
SOLID
  5
6D3
  8
DRG
  6
CONTINUOUS
 62
     7
 10
136.6041529029215
 20
57.207648031108022
 30
0.0
 11
133.93314657289841
 21
57.147836223870669
 31
0.0
 12
136.6041529029215
 22
48.740104065808111
 32
0.0
 13
136.6041529029215
 23
48.740104065808111
 33
0.0
210
0.0
220
0.0
230
1.0
  0
SOLID
  5
6D4
  8
DRG
  6
CONTINUOUS
 62
     7
 10
16.000929819736889
 20
57.7272466264088
 30
0.0
 11
13.56491300944491
 21
56.781939615456523
 31
0.0
 12
23.111648298363178
 22
56.840696773085902
 32
0.0
 13
23.111648298363178
 23
56.840696773085902
 33
0.0
210
0.0
220
0.0
230
1.0
  0
SOLID
  5
6D5
  8
DRG
  6
CONTINUOUS
 62
     7
 10
20.932030560438331
 20
57.78224540872732
 30
0.0
 11
16.000929819736889
 21
57.7272466264088
 31
0.0
 12
23.111648298363178
 22
56.840696773085902
 32
0.0
 13
23.111648298363178
 23
56.840696773085902
 33
0.0
210
0.0
220
0.0
230
1.0
  0
SOLID
  5
6D6
  8
DRG
  6
CONTINUOUS
 62
     7
 10
18.58303542025671
 20
58.127888502333931
 30
0.0
 11
16.000929819736889
 21
57.7272466264088
 31
0.0
 12
20.932030560438331
 22
57.78224540872732
 32
0.0
 13
20.932030560438331
 23
57.78224540872732
 33
0.0
210
0.0
220
0.0
230
1.0
  0
SOLID
  5
6D7
  8
DRG
  6
CONTINUOUS
 62
     7
 10
73.260638849331514
 20
61.169925125155011
 30
0.0
 11
75.331191210151701
 21
60.89733173546756
 31
0.0
 12
80.675802928262684
 22
60.89733173546756
 32
0.0
 13
80.675802928262684
 23
60.89733173546756
 33
0.0
210
0.0
220
0.0
230
1.0
  0
SOLID
  5
6D8
  8
DRG
  6
CONTINUOUS
 62
     7
 10
50.320443202898318
 20
61.198195663659767
 30
0.0
 11
41.838142899665847
 21
60.89733173546756
 31
0.0
 12
47.650196927116667
 22
60.89733173546756
 32
0.0
 13
47.650196927116667
 23
60.89733173546756
 33
0.0
  0
SOLID
  5
6D9
  8
DRG
  6
CONTINUOUS
 62
     7
 10
106.3320830399325
 20
61.198195663659767
 30
0.0
 11
97.849782736700035
 21
60.89733173546756
 31
0.0
 12
103.66183676415081
 22
60.89733173546756
 32
0.0
 13
103.66183676415081
 23
60.89733173546756
 33
0.0
210
0.0
220
0.0
230
1.0
  0
SOLID
  5
6DA
  8
DRG
  6
CONTINUOUS
 62
     7
 10
39.167891692190118
 20
61.19819678928566
 30
0.0
 11
41.838142899665847
 21
60.89733173546756
 31
0.0
 12
50.320443202898318
 22
61.198195663659767
 32
0.0
 13
50.320443202898318
 23
61.198195663659767
 33
0.0
210
0.0
220
0.0
230
1.0
  0
SOLID
  5
6DB
  8
DRG
  6
CONTINUOUS
 62
     7
 10
95.179531529224278
 20
61.198196789285682
 30
0.0
 11
97.849782736700035
 21
60.89733173546756
 31
0.0
 12
106.3320830399325
 22
61.198195663659767
 32
0.0
 13
106.3320830399325
 23
61.198195663659767
 33
0.0
210
0.0
220
0.0
230
1.0
  0
SOLID
  5
6DC
  8
DRG
  6
CONTINUOUS
 62
     7
 10
82.673677075028507
 20
61.207576574819242
 30
0.0
 11
73.260638849331514
 21
61.169925125155011
 31
0.0
 12
80.675802928262684
 22
60.89733173546756
 32
0.0
 13
80.675802928262684
 23
60.89733173546756
 33
0.0
210
0.0
220
0.0
230
1.0
  0
SOLID
  5
6DD
  8
DRG
  6
CONTINUOUS
 62
     7
 10
71.331191210151701
 20
61.969128505192053
 30
0.0
 11
73.260638849331514
 21
61.169925125155011
 31
0.0
 12
82.673677075028507
 22
61.207576574819242
 32
0.0
 13
82.673677075028507
 23
61.207576574819242
 33
0.0
210
0.0
220
0.0
230
1.0
  0
SOLID
  5
6DE
  8
DRG
  6
CONTINUOUS
 62
     7
 10
84.501142256151084
 20
62.072518178885289
 30
0.0
 11
71.331191210151701
 21
61.969128505192053
 31
0.0
 12
82.673677075028507
 22
61.207576574819242
 32
0.0
 13
82.673677075028507
 23
61.207576574819242
 33
0.0
  0
SOLID
  5
6DF
  8
DRG
  6
CONTINUOUS
 62
     7
 10
52.856792681384597
 20
62.085700931021869
 30
0.0
 11
39.167891692190118
 21
61.19819678928566
 31
0.0
 12
50.320443202898318
 22
61.198195663659767
 32
0.0
 13
50.320443202898318
 23
61.198195663659767
 33
0.0
210
0.0
220
0.0
230
1.0
  0
SOLID
  5
6E0
  8
DRG
  6
CONTINUOUS
 62
     7
 10
108.8684325184187
 20
62.085700931021869
 30
0.0
 11
95.179531529224278
 21
61.198196789285682
 31
0.0
 12
106.3320830399325
 22
61.198195663659767
 32
0.0
 13
106.3320830399325
 23
61.198195663659767
 33
0.0
210
0.0
220
0.0
230
1.0
  0
SOLID
  5
6E1
  8
DRG
  6
CONTINUOUS
 62
     7
 10
36.63153803025525
 20
62.085705320638482
 30
0.0
 11
39.167891692190118
 21
61.19819678928566
 31
0.0
 12
52.856792681384597
 22
62.085700931021869
 32
0.0
 13
52.856792681384597
 23
62.085700931021869
 33
0.0
  0
SOLID
  5
6E2
  8
DRG
  6
CONTINUOUS
 62
     7
 10
92.643177867289367
 20
62.085705320638517
 30
0.0
 11
95.179531529224278
 21
61.198196789285682
 31
0.0
 12
108.8684325184187
 22
62.085700931021869
 32
0.0
 13
108.8684325184187
 23
62.085700931021869
 33
0.0
210
0.0
220
0.0
230
1.0
  0
SOLID
  5
6E3
  8
DRG
  6
CONTINUOUS
 62
     7
 10
69.674336960659303
 20
63.240477485975177
 30
0.0
 11
71.331191210151701
 21
61.969128505192053
 31
0.0
 12
84.501142256151084
 22
62.072518178885289
 32
0.0
 13
84.501142256151084
 23
62.072518178885289
 33
0.0
210
0.0
220
0.0
230
1.0
  0
SOLID
  5
6E4
  8
DRG
  6
CONTINUOUS
 62
     7
 10
111.1437025217154
 20
63.515344484048867
 30
0.0
 11
92.643177867289367
 21
62.085705320638517
 31
0.0
 12
108.8684325184187
 22
62.085700931021869
 32
0.0
 13
108.8684325184187
 23
62.085700931021869
 33
0.0
210
0.0
220
0.0
230
1.0
  0
SOLID
  5
6E5
  8
DRG
  6
CONTINUOUS
 62
     7
 10
55.13206268468123
 20
63.515344484048867
 30
0.0
 11
36.63153803025525
 21
62.085705320638482
 31
0.0
 12
52.856792681384597
 22
62.085700931021869
 32
0.0
 13
52.856792681384597
 23
62.085700931021869
 33
0.0
  0
SOLID
  5
6E6
  8
DRG
  6
CONTINUOUS
 62
     7
 10
34.356265277361167
 20
63.515353945851103
 30
0.0
 11
36.63153803025525
 21
62.085705320638482
 31
0.0
 12
55.13206268468123
 22
63.515344484048867
 32
0.0
 13
55.13206268468123
 23
63.515344484048867
 33
0.0
210
0.0
220
0.0
230
1.0
  0
SOLID
  5
6E7
  8
DRG
  6
CONTINUOUS
 62
     7
 10
90.367905114395256
 20
63.515353945851182
 30
0.0
 11
92.643177867289367
 21
62.085705320638517
 31
0.0
 12
111.1437025217154
 22
63.515344484048867
 32
0.0
 13
111.1437025217154
 23
63.515344484048867
 33
0.0
210
0.0
220
0.0
230
1.0
  0
SOLID
  5
6E8
  8
DRG
  6
CONTINUOUS
 62
     7
 10
68.402987979876187
 20
64.89733173546756
 30
0.0
 11
69.674336960659303
 21
63.240477485975177
 31
0.0
 12
84.501142256151084
 22
62.072518178885289
 32
0.0
 13
84.501142256151084
 23
62.072518178885289
 33
0.0
210
0.0
220
0.0
230
1.0
  0
SOLID
  5
6E9
  8
DRG
  6
CONTINUOUS
 62
     7
 10
57.032162100973231
 20
65.415438293527714
 30
0.0
 11
34.356265277361167
 21
63.515353945851103
 31
0.0
 12
55.13206268468123
 22
63.515344484048867
 32
0.0
 13
55.13206268468123
 23
63.515344484048867
 33
0.0
210
0.0
220
0.0
230
1.0
  0
SOLID
  5
6EA
  8
DRG
  6
CONTINUOUS
 62
     7
 10
113.04380193800741
 20
65.415438293527714
 30
0.0
 11
90.367905114395256
 21
63.515353945851182
 31
0.0
 12
111.1437025217154
 22
63.515344484048867
 32
0.0
 13
111.1437025217154
 23
63.515344484048867
 33
0.0
  0
SOLID
  5
6EB
  8
DRG
  6
CONTINUOUS
 62
     7
 10
32.456165110049618
 20
65.415454113162596
 30
0.0
 11
34.356265277361167
 21
63.515353945851103
 31
0.0
 12
57.032162100973231
 22
65.415438293527714
 32
0.0
 13
57.032162100973231
 23
65.415438293527714
 33
0.0
  0
SOLID
  5
6EC
  8
DRG
  6
CONTINUOUS
 62
     7
 10
88.467804947083707
 20
65.415454113162724
 30
0.0
 11
90.367905114395256
 21
63.515353945851182
 31
0.0
 12
113.04380193800741
 22
65.415438293527714
 32
0.0
 13
113.04380193800741
 23
65.415438293527714
 33
0.0
210
0.0
220
0.0
230
1.0
  0
SOLID
  5
6ED
  8
DRG
  6
CONTINUOUS
 62
     7
 10
67.603784599839159
 20
66.826779374647401
 30
0.0
 11
68.402987979876187
 21
64.89733173546756
 31
0.0
 12
84.501142256151084
 22
62.072518178885289
 32
0.0
 13
84.501142256151084
 23
62.072518178885289
 33
0.0
210
0.0
220
0.0
230
1.0
  0
SOLID
  5
6EE
  8
DRG
  6
CONTINUOUS
 62
     7
 10
58.461812367870422
 20
67.690704078216172
 30
0.0
 11
32.456165110049618
 21
65.415454113162596
 31
0.0
 12
57.032162100973231
 22
65.415438293527714
 32
0.0
 13
57.032162100973231
 23
65.415438293527714
 33
0.0
210
0.0
220
0.0
230
1.0
  0
SOLID
  5
6EF
  8
DRG
  6
CONTINUOUS
 62
     7
 10
114.4734522049045
 20
67.690704078216172
 30
0.0
 11
88.467804947083707
 21
65.415454113162724
 31
0.0
 12
113.04380193800741
 22
65.415438293527714
 32
0.0
 13
113.04380193800741
 23
65.415438293527714
 33
0.0
210
0.0
220
0.0
230
1.0
  0
SOLID
  5
6F0
  8
DRG
  6
CONTINUOUS
 62
     7
 10
31.026516484836939
 20
67.690726866056622
 30
0.0
 11
32.456165110049618
 21
65.415454113162596
 31
0.0
 12
58.461812367870422
 22
67.690704078216172
 32
0.0
 13
58.461812367870422
 23
67.690704078216172
 33
0.0
210
0.0
220
0.0
230
1.0
  0
SOLID
  5
6F1
  8
DRG
  6
CONTINUOUS
 62
     7
 10
87.038156321871028
 20
67.690726866056806
 30
0.0
 11
88.467804947083707
 21
65.415454113162724
 31
0.0
 12
114.4734522049045
 22
67.690704078216172
 32
0.0
 13
114.4734522049045
 23
67.690704078216172
 33
0.0
210
0.0
220
0.0
230
1.0
  0
SOLID
  5
6F2
  8
DRG
  6
CONTINUOUS
 62
     7
 10
44.744171147941039
 20
68.794444026784149
 30
0.0
 11
31.026516484836939
 21
67.690726866056622
 31
0.0
 12
58.461812367870422
 22
67.690704078216172
 32
0.0
 13
58.461812367870422
 23
67.690704078216172
 33
0.0
  0
SOLID
  5
6F3
  8
DRG
  6
CONTINUOUS
 62
     7
 10
100.7558109849752
 20
68.794444026784163
 30
0.0
 11
87.038156321871028
 21
67.690726866056806
 31
0.0
 12
114.4734522049045
 22
67.690704078216172
 32
0.0
 13
114.4734522049045
 23
67.690704078216172
 33
0.0
210
0.0
220
0.0
230
1.0
  0
SOLID
  5
6F4
  8
DRG
  6
CONTINUOUS
 62
     7
 10
67.331191210151701
 20
68.89733173546756
 30
0.0
 11
67.603784599839159
 21
66.826779374647401
 31
0.0
 12
84.501142256151084
 22
62.072518178885289
 32
0.0
 13
84.501142256151084
 23
62.072518178885289
 33
0.0
210
0.0
220
0.0
230
1.0
  0
SOLID
  5
6F5
  8
DRG
  6
CONTINUOUS
 62
     7
 10
46.221788157680002
 20
69.088360324271363
 30
0.0
 11
44.744171147941039
 21
68.794444026784149
 31
0.0
 12
58.461812367870422
 22
67.690704078216172
 32
0.0
 13
58.461812367870422
 23
67.690704078216172
 33
0.0
210
0.0
220
0.0
230
1.0
  0
SOLID
  5
6F6
  8
DRG
  6
CONTINUOUS
 62
     7
 10
102.23342799471411
 20
69.088360324271378
 30
0.0
 11
100.7558109849752
 21
68.794444026784163
 31
0.0
 12
114.4734522049045
 22
67.690704078216172
 32
0.0
 13
114.4734522049045
 23
67.690704078216172
 33
0.0
210
0.0
220
0.0
230
1.0
  0
SOLID
  5
6F7
  8
DRG
  6
CONTINUOUS
 62
     7
 10
43.266554138202238
 20
69.088360324272159
 30
0.0
 11
31.026516484836939
 21
67.690726866056622
 31
0.0
 12
44.744171147941039
 22
68.794444026784149
 32
0.0
 13
44.744171147941039
 23
68.794444026784149
 33
0.0
210
0.0
220
0.0
230
1.0
  0
SOLID
  5
6F8
  8
DRG
  6
CONTINUOUS
 62
     7
 10
99.278193975236434
 20
69.088360324272173
 30
0.0
 11
87.038156321871028
 21
67.690726866056806
 31
0.0
 12
100.7558109849752
 22
68.794444026784163
 32
0.0
 13
100.7558109849752
 23
68.794444026784163
 33
0.0
210
0.0
220
0.0
230
1.0
  0
SOLID
  5
6F9
  8
DRG
  6
CONTINUOUS
 62
     7
 10
80.482556033578916
 20
69.876055965300111
 30
0.0
 11
67.331191210151701
 21
68.89733173546756
 31
0.0
 12
84.501142256151084
 22
62.072518178885289
 32
0.0
 13
84.501142256151084
 23
62.072518178885289
 33
0.0
210
0.0
220
0.0
230
1.0
  0
SOLID
  5
6FA
  8
DRG
  6
CONTINUOUS
 62
     7
 10
84.501142256151084
 20
62.072518178885289
 30
0.0
 11
83.501142256151255
 21
69.876055965300111
 31
0.0
 12
80.482556033578916
 22
69.876055965300111
 32
0.0
 13
80.482556033578916
 23
69.876055965300111
 33
0.0
210
0.0
220
0.0
230
1.0
  0
SOLID
  5
6FB
  8
DRG
  6
CONTINUOUS
 62
     7
 10
47.474451372317922
 20
69.925363124799233
 30
0.0
 11
46.221788157680002
 21
69.088360324271363
 31
0.0
 12
58.461812367870422
 22
67.690704078216172
 32
0.0
 13
58.461812367870422
 23
67.690704078216172
 33
0.0
210
0.0
220
0.0
230
1.0
  0
SOLID
  5
6FC
  8
DRG
  6
CONTINUOUS
 62
     7
 10
103.4860912093521
 20
69.925363124799233
 30
0.0
 11
102.23342799471411
 21
69.088360324271378
 31
0.0
 12
114.4734522049045
 22
67.690704078216172
 32
0.0
 13
114.4734522049045
 23
67.690704078216172
 33
0.0
210
0.0
220
0.0
230
1.0
  0
SOLID
  5
6FD
  8
DRG
  6
CONTINUOUS
 62
     7
 10
42.01389092356478
 20
69.925363124800725
 30
0.0
 11
31.026516484836939
 21
67.690726866056622
 31
0.0
 12
43.266554138202238
 22
69.088360324272159
 32
0.0
 13
43.266554138202238
 23
69.088360324272159
 33
0.0
  0
SOLID
  5
6FE
  8
DRG
  6
CONTINUOUS
 62
     7
 10
98.025530760598997
 20
69.925363124800725
 30
0.0
 11
87.038156321871028
 21
67.690726866056806
 31
0.0
 12
99.278193975236434
 22
69.088360324272173
 32
0.0
 13
99.278193975236434
 23
69.088360324272173
 33
0.0
210
0.0
220
0.0
230
1.0
  0
SOLID
  5
6FF
  8
DRG
  6
CONTINUOUS
 62
     7
 10
84.015250681967487
 20
70.00375669518948
 30
0.0
 11
83.501142256151255
 21
69.876055965300111
 31
0.0
 12
84.501142256151084
 22
62.072518178885289
 32
0.0
 13
84.501142256151084
 23
62.072518178885289
 33
0.0
  0
SOLID
  5
700
  8
DRG
  6
CONTINUOUS
 62
     7
 10
79.334505736483663
 20
70.104417367766246
 30
0.0
 11
67.331191210151701
 21
68.89733173546756
 31
0.0
 12
80.482556033578916
 22
69.876055965300111
 32
0.0
 13
80.482556033578916
 23
69.876055965300111
 33
0.0
210
0.0
220
0.0
230
1.0
  0
SOLID
  5
701
  8
DRG
  6
CONTINUOUS
 62
     7
 10
84.501142256151084
 20
70.214764581409185
 30
0.0
 11
84.015250681967487
 21
70.00375669518948
 31
0.0
 12
84.501142256151084
 22
62.072518178885289
 32
0.0
 13
84.501142256151084
 23
62.072518178885289
 33
0.0
210
0.0
220
0.0
230
1.0
  0
SOLID
  5
702
  8
DRG
  6
CONTINUOUS
 62
     7
 10
115.36096495653361
 20
70.227050937837092
 30
0.0
 11
103.4860912093521
 21
69.925363124799233
 31
0.0
 12
114.4734522049045
 22
67.690704078216172
 32
0.0
 13
114.4734522049045
 23
67.690704078216172
 33
0.0
210
0.0
220
0.0
230
1.0
  0
SOLID
  5
703
  8
DRG
  6
CONTINUOUS
 62
     7
 10
59.349325119499461
 20
70.227050937837092
 30
0.0
 11
47.474451372317922
 21
69.925363124799233
 31
0.0
 12
58.461812367870422
 22
67.690704078216172
 32
0.0
 13
58.461812367870422
 23
67.690704078216172
 33
0.0
210
0.0
220
0.0
230
1.0
  0
SOLID
  5
704
  8
DRG
  6
CONTINUOUS
 62
     7
 10
30.13900795348404
 20
70.227080527991475
 30
0.0
 11
31.026516484836939
 21
67.690726866056622
 31
0.0
 12
42.01389092356478
 22
69.925363124800725
 32
0.0
 13
42.01389092356478
 23
69.925363124800725
 33
0.0
210
0.0
220
0.0
230
1.0
  0
SOLID
  5
705
  8
DRG
  6
CONTINUOUS
 62
     7
 10
86.150647790518164
 20
70.227080527991717
 30
0.0
 11
87.038156321871028
 21
67.690726866056806
 31
0.0
 12
98.025530760598997
 22
69.925363124800725
 32
0.0
 13
98.025530760598997
 23
69.925363124800725
 33
0.0
210
0.0
220
0.0
230
1.0
  0
SOLID
  5
706
  8
DRG
  6
CONTINUOUS
 62
     7
 10
78.361235690019285
 20
70.754735621740465
 30
0.0
 11
67.331191210151701
 21
68.89733173546756
 31
0.0
 12
79.334505736483663
 22
70.104417367766246
 32
0.0
 13
79.334505736483663
 23
70.104417367766246
 33
0.0
210
0.0
220
0.0
230
1.0
  0
SOLID
  5
707
  8
DRG
  6
CONTINUOUS
 62
     7
 10
48.311454172846467
 20
71.178026339436684
 30
0.0
 11
47.474451372317922
 21
69.925363124799233
 31
0.0
 12
59.349325119499461
 22
70.227050937837092
 32
0.0
 13
59.349325119499461
 23
70.227050937837092
 33
0.0
210
0.0
220
0.0
230
1.0
  0
SOLID
  5
708
  8
DRG
  6
CONTINUOUS
 62
     7
 10
104.32309400988061
 20
71.178026339436713
 30
0.0
 11
103.4860912093521
 21
69.925363124799233
 31
0.0
 12
115.36096495653361
 22
70.227050937837092
 32
0.0
 13
115.36096495653361
 23
70.227050937837092
 33
0.0
210
0.0
220
0.0
230
1.0
  0
SOLID
  5
709
  8
DRG
  6
CONTINUOUS
 62
     7
 10
41.17688812303691
 20
71.178026339438631
 30
0.0
 11
30.13900795348404
 21
70.227080527991475
 31
0.0
 12
42.01389092356478
 22
69.925363124800725
 32
0.0
 13
42.01389092356478
 23
69.925363124800725
 33
0.0
210
0.0
220
0.0
230
1.0
  0
SOLID
  5
70A
  8
DRG
  6
CONTINUOUS
 62
     7
 10
97.188527960071099
 20
71.178026339438631
 30
0.0
 11
86.150647790518164
 21
70.227080527991717
 31
0.0
 12
98.025530760598997
 22
69.925363124800725
 32
0.0
 13
98.025530760598997
 23
69.925363124800725
 33
0.0
  0
SOLID
  5
70B
  8
DRG
  6
CONTINUOUS
 62
     7
 10
77.710917436045065
 20
71.728005668204844
 30
0.0
 11
67.331191210151701
 21
68.89733173546756
 31
0.0
 12
78.361235690019285
 22
70.754735621740465
 32
0.0
 13
78.361235690019285
 23
70.754735621740465
 33
0.0
  0
SOLID
  5
70C
  8
DRG
  6
CONTINUOUS
 62
     7
 10
48.605370470334492
 20
72.655643349175492
 30
0.0
 11
48.311454172846467
 21
71.178026339436684
 31
0.0
 12
59.349325119499461
 22
70.227050937837092
 32
0.0
 13
59.349325119499461
 23
70.227050937837092
 33
0.0
210
0.0
220
0.0
230
1.0
  0
SOLID
  5
70D
  8
DRG
  6
CONTINUOUS
 62
     7
 10
104.6170103073686
 20
72.655643349175506
 30
0.0
 11
104.32309400988061
 21
71.178026339436713
 31
0.0
 12
115.36096495653361
 22
70.227050937837092
 32
0.0
 13
115.36096495653361
 23
70.227050937837092
 33
0.0
210
0.0
220
0.0
230
1.0
  0
SOLID
  5
70E
  8
DRG
  6
CONTINUOUS
 62
     7
 10
40.882971825549703
 20
72.655643349177566
 30
0.0
 11
30.13900795348404
 21
70.227080527991475
 31
0.0
 12
41.17688812303691
 22
71.178026339438631
 32
0.0
 13
41.17688812303691
 23
71.178026339438631
 33
0.0
210
0.0
220
0.0
230
1.0
  0
SOLID
  5
70F
  8
DRG
  6
CONTINUOUS
 62
     7
 10
96.894611662583884
 20
72.655643349177595
 30
0.0
 11
86.150647790518164
 21
70.227080527991717
 31
0.0
 12
97.188527960071099
 22
71.178026339438631
 32
0.0
 13
97.188527960071099
 23
71.178026339438631
 33
0.0
210
0.0
220
0.0
230
1.0
  0
SOLID
  5
710
  8
DRG
  6
CONTINUOUS
 62
     7
 10
77.482556033578931
 20
72.876055965300111
 30
0.0
 11
67.331191210151701
 21
68.89733173546756
 31
0.0
 12
77.710917436045065
 22
71.728005668204844
 32
0.0
 13
77.710917436045065
 23
71.728005668204844
 33
0.0
210
0.0
220
0.0
230
1.0
  0
SOLID
  5
711
  8
DRG
  6
CONTINUOUS
 62
     7
 10
115.6618367640986
 20
72.897296325816527
 30
0.0
 11
104.6170103073686
 21
72.655643349175506
 31
0.0
 12
115.36096495653361
 22
70.227050937837092
 32
0.0
 13
115.36096495653361
 23
70.227050937837092
 33
0.0
210
0.0
220
0.0
230
1.0
  0
SOLID
  5
712
  8
DRG
  6
CONTINUOUS
 62
     7
 10
59.650196927064421
 20
72.897296325816555
 30
0.0
 11
48.605370470334492
 21
72.655643349175492
 31
0.0
 12
59.349325119499461
 22
70.227050937837092
 32
0.0
 13
59.349325119499461
 23
70.227050937837092
 33
0.0
210
0.0
220
0.0
230
1.0
  0
SOLID
  5
713
  8
DRG
  6
CONTINUOUS
 62
     7
 10
29.838142899665851
 20
72.897331735467191
 30
0.0
 11
30.13900795348404
 21
70.227080527991475
 31
0.0
 12
40.882971825549703
 22
72.655643349177566
 32
0.0
 13
40.882971825549703
 23
72.655643349177566
 33
0.0
  0
SOLID
  5
714
  8
DRG
  6
CONTINUOUS
 62
     7
 10
85.849782736700035
 20
72.897331735467475
 30
0.0
 11
86.150647790518164
 21
70.227080527991717
 31
0.0
 12
96.894611662583884
 22
72.655643349177595
 32
0.0
 13
96.894611662583884
 23
72.655643349177595
 33
0.0
  0
SOLID
  5
715
  8
DRG
  6
CONTINUOUS
 62
     7
 10
165.4162645291251
 20
78.311404477182364
 30
0.0
 11
161.3332883364622
 21
62.115696081838678
 31
0.0
 12
171.78072804963571
 22
62.115696081838678
 32
0.0
 13
171.78072804963571
 23
62.115696081838678
 33
0.0
210
0.0
220
0.0
230
1.0
  0
SOLID
  5
716
  8
DRG
  6
CONTINUOUS
 62
     7
 10
48.825355035771203
 20
81.496816718755184
 30
0.0
 11
48.605370470334492
 21
72.655643349175492
 31
0.0
 12
59.650196927064421
 22
72.897296325816555
 32
0.0
 13
59.650196927064421
 23
72.897296325816555
 33
0.0
210
0.0
220
0.0
230
1.0
  0
SOLID
  5
717
  8
DRG
  6
CONTINUOUS
 62
     7
 10
104.83699487280531
 20
81.496816718755184
 30
0.0
 11
104.6170103073686
 21
72.655643349175506
 31
0.0
 12
115.6618367640986
 22
72.897296325816527
 32
0.0
 13
115.6618367640986
 23
72.897296325816527
 33
0.0
210
0.0
220
0.0
230
1.0
  0
SOLID
  5
718
  8
DRG
  6
CONTINUOUS
 62
     7
 10
115.9613008061006
 20
81.496816718755412
 30
0.0
 11
104.83699487280531
 21
81.496816718755184
 31
0.0
 12
115.6618367640986
 22
72.897296325816527
 32
0.0
 13
115.6618367640986
 23
72.897296325816527
 33
0.0
210
0.0
220
0.0
230
1.0
  0
SOLID
  5
719
  8
DRG
  6
CONTINUOUS
 62
     7
 10
59.9496609690664
 20
81.49681671875544
 30
0.0
 11
48.825355035771203
 21
81.496816718755184
 31
0.0
 12
59.650196927064421
 22
72.897296325816555
 32
0.0
 13
59.650196927064421
 23
72.897296325816555
 33
0.0
210
0.0
220
0.0
230
1.0
  0
SOLID
  5
71A
  8
DRG
  6
CONTINUOUS
 62
     7
 10
29.538681326817759
 20
81.496816718755596
 30
0.0
 11
29.838142899665851
 21
72.897331735467191
 31
0.0
 12
40.882971825549703
 22
72.655643349177566
 32
0.0
 13
40.882971825549703
 23
72.655643349177566
 33
0.0
  0
SOLID
  5
71B
  8
DRG
  6
CONTINUOUS
 62
     7
 10
85.550321163851976
 20
81.496816718755767
 30
0.0
 11
85.849782736700035
 21
72.897331735467475
 31
0.0
 12
96.894611662583884
 22
72.655643349177595
 32
0.0
 13
96.894611662583884
 23
72.655643349177595
 33
0.0
210
0.0
220
0.0
230
1.0
  0
SOLID
  5
71C
  8
DRG
  6
CONTINUOUS
 62
     7
 10
40.662987260112992
 20
81.496816718755866
 30
0.0
 11
29.538681326817759
 21
81.496816718755596
 31
0.0
 12
40.882971825549703
 22
72.655643349177566
 32
0.0
 13
40.882971825549703
 23
72.655643349177566
 33
0.0
210
0.0
220
0.0
230
1.0
  0
SOLID
  5
71D
  8
DRG
  6
CONTINUOUS
 62
     7
 10
96.674627097147194
 20
81.496816718756293
 30
0.0
 11
85.550321163851976
 21
81.496816718755767
 31
0.0
 12
96.894611662583884
 22
72.655643349177595
 32
0.0
 13
96.894611662583884
 23
72.655643349177595
 33
0.0
210
0.0
220
0.0
230
1.0
  0
SOLID
  5
71E
  8
DRG
  6
CONTINUOUS
 62
     7
 10
153.2899770207527
 20
82.583583780839575
 30
0.0
 11
161.3332883364622
 21
62.115696081838678
 31
0.0
 12
165.4162645291251
 22
78.311404477182364
 32
0.0
 13
165.4162645291251
 23
78.311404477182364
 33
0.0
210
0.0
220
0.0
230
1.0
  0
SOLID
  5
71F
  8
DRG
  6
CONTINUOUS
 62
     7
 10
18.821661727211438
 20
85.569427875032716
 30
0.0
 11
7.7802673214059723
 21
62.115696081838671
 31
0.0
 12
18.821661727211438
 22
62.115696081838678
 32
0.0
 13
18.821661727211438
 23
62.115696081838678
 33
0.0
  0
SOLID
  5
720
  8
DRG
  6
CONTINUOUS
 62
     7
 10
130.05101171535759
 20
85.569427875032716
 30
0.0
 11
119.0096173095521
 21
62.115696081838678
 31
0.0
 12
130.05101171535759
 22
62.115696081838671
 32
0.0
 13
130.05101171535759
 23
62.115696081838671
 33
0.0
210
0.0
220
0.0
230
1.0
  0
SOLID
  5
721
  8
DRG
  6
CONTINUOUS
 62
     7
 10
176.9709164189357
 20
86.855763084496857
 30
0.0
 11
153.2899770207527
 21
82.583583780839575
 31
0.0
 12
165.4162645291251
 22
78.311404477182364
 32
0.0
 13
165.4162645291251
 23
78.311404477182364
 33
0.0
210
0.0
220
0.0
230
1.0
  0
SOLID
  5
722
  8
DRG
  6
CONTINUOUS
 62
     7
 10
176.9709164189357
 20
86.855763084496857
 30
0.0
 11
165.4162645291251
 21
78.311404477182364
 31
0.0
 12
176.9709164189357
 22
78.31140447718235
 32
0.0
 13
176.9709164189357
 23
78.31140447718235
 33
0.0
210
0.0
220
0.0
230
1.0
  0
SOLID
  5
723
  8
DRG
  6
CONTINUOUS
 62
     7
 10
165.4162645291251
 20
86.855763084496886
 30
0.0
 11
153.2899770207527
 21
82.583583780839575
 31
0.0
 12
176.9709164189357
 22
86.855763084496857
 32
0.0
 13
176.9709164189357
 23
86.855763084496857
 33
0.0
210
0.0
220
0.0
230
1.0
  0
SOLID
  5
724
  8
DRG
  6
CONTINUOUS
 62
     7
 10
19.0942551168989
 20
87.639980235852875
 30
0.0
 11
7.7802673214059723
 21
62.115696081838671
 31
0.0
 12
18.821661727211438
 22
85.569427875032716
 32
0.0
 13
18.821661727211438
 23
85.569427875032716
 33
0.0
  0
SOLID
  5
725
  8
DRG
  6
CONTINUOUS
 62
     7
 10
130.323605105045
 20
87.639980235852889
 30
0.0
 11
119.0096173095521
 21
62.115696081838678
 31
0.0
 12
130.05101171535759
 22
85.569427875032716
 32
0.0
 13
130.05101171535759
 23
85.569427875032716
 33
0.0
210
0.0
220
0.0
230
1.0
  0
SOLID
  5
726
  8
DRG
  6
CONTINUOUS
 62
     7
 10
131.12280848508209
 20
89.569427875032716
 30
0.0
 11
119.0096173095521
 21
62.115696081838678
 31
0.0
 12
130.323605105045
 22
87.639980235852889
 32
0.0
 13
130.323605105045
 23
87.639980235852889
 33
0.0
210
0.0
220
0.0
230
1.0
  0
SOLID
  5
727
  8
DRG
  6
CONTINUOUS
 62
     7
 10
19.893458496935931
 20
89.569427875032716
 30
0.0
 11
7.7802673214059723
 21
62.115696081838671
 31
0.0
 12
19.0942551168989
 22
87.639980235852875
 32
0.0
 13
19.0942551168989
 23
87.639980235852875
 33
0.0
210
0.0
220
0.0
230
1.0
  0
SOLID
  5
728
  8
DRG
  6
CONTINUOUS
 62
     7
 10
29.83814289966584
 20
90.096301702044016
 30
0.0
 11
29.538681326817759
 21
81.496816718755596
 31
0.0
 12
40.662987260112992
 22
81.496816718755866
 32
0.0
 13
40.662987260112992
 23
81.496816718755866
 33
0.0
210
0.0
220
0.0
230
1.0
  0
SOLID
  5
729
  8
DRG
  6
CONTINUOUS
 62
     7
 10
85.849782736700035
 20
90.096301702044045
 30
0.0
 11
85.550321163851976
 21
81.496816718755767
 31
0.0
 12
96.674627097147194
 22
81.496816718756293
 32
0.0
 13
96.674627097147194
 23
81.496816718756293
 33
0.0
210
0.0
220
0.0
230
1.0
  0
SOLID
  5
72A
  8
DRG
  6
CONTINUOUS
 62
     7
 10
115.6618367640986
 20
90.096337111694325
 30
0.0
 11
104.83699487280531
 21
81.496816718755184
 31
0.0
 12
115.9613008061006
 22
81.496816718755412
 32
0.0
 13
115.9613008061006
 23
81.496816718755412
 33
0.0
210
0.0
220
0.0
230
1.0
  0
SOLID
  5
72B
  8
DRG
  6
CONTINUOUS
 62
     7
 10
59.650196927064421
 20
90.096337111694368
 30
0.0
 11
48.825355035771203
 21
81.496816718755184
 31
0.0
 12
59.9496609690664
 22
81.49681671875544
 32
0.0
 13
59.9496609690664
 23
81.49681671875544
 33
0.0
210
0.0
220
0.0
230
1.0
  0
SOLID
  5
72C
  8
DRG
  6
CONTINUOUS
 62
     7
 10
40.882971825549703
 20
90.337990088334166
 30
0.0
 11
29.83814289966584
 21
90.096301702044016
 31
0.0
 12
40.662987260112992
 22
81.496816718755866
 32
0.0
 13
40.662987260112992
 23
81.496816718755866
 33
0.0
  0
SOLID
  5
72D
  8
DRG
  6
CONTINUOUS
 62
     7
 10
104.6170103073686
 20
90.337990088334735
 30
0.0
 11
104.83699487280531
 21
81.496816718755184
 31
0.0
 12
115.6618367640986
 22
90.096337111694325
 32
0.0
 13
115.6618367640986
 23
90.096337111694325
 33
0.0
210
0.0
220
0.0
230
1.0
  0
SOLID
  5
72E
  8
DRG
  6
CONTINUOUS
 62
     7
 10
48.605370470334456
 20
90.337990088334735
 30
0.0
 11
48.825355035771203
 21
81.496816718755184
 31
0.0
 12
59.650196927064421
 22
90.096337111694368
 32
0.0
 13
59.650196927064421
 23
90.096337111694368
 33
0.0
210
0.0
220
0.0
230
1.0
  0
SOLID
  5
72F
  8
DRG
  6
CONTINUOUS
 62
     7
 10
96.894611662583884
 20
90.337990088335033
 30
0.0
 11
85.849782736700035
 21
90.096301702044045
 31
0.0
 12
96.674627097147194
 22
81.496816718756293
 32
0.0
 13
96.674627097147194
 23
81.496816718756293
 33
0.0
210
0.0
220
0.0
230
1.0
  0
SOLID
  5
730
  8
DRG
  6
CONTINUOUS
 62
     7
 10
41.176888123037209
 20
91.815607098073087
 30
0.0
 11
29.83814289966584
 21
90.096301702044016
 31
0.0
 12
40.882971825549703
 22
90.337990088334166
 32
0.0
 13
40.882971825549703
 23
90.337990088334166
 33
0.0
210
0.0
220
0.0
230
1.0
  0
SOLID
  5
731
  8
DRG
  6
CONTINUOUS
 62
     7
 10
48.311454172846773
 20
91.815607098073613
 30
0.0
 11
48.605370470334456
 21
90.337990088334735
 31
0.0
 12
59.650196927064421
 22
90.096337111694368
 32
0.0
 13
59.650196927064421
 23
90.096337111694368
 33
0.0
210
0.0
220
0.0
230
1.0
  0
SOLID
  5
732
  8
DRG
  6
CONTINUOUS
 62
     7
 10
104.3230940098811
 20
91.815607098073656
 30
0.0
 11
104.6170103073686
 21
90.337990088334735
 31
0.0
 12
115.6618367640986
 22
90.096337111694325
 32
0.0
 13
115.6618367640986
 23
90.096337111694325
 33
0.0
210
0.0
220
0.0
230
1.0
  0
SOLID
  5
733
  8
DRG
  6
CONTINUOUS
 62
     7
 10
97.188527960071553
 20
91.815607098073897
 30
0.0
 11
85.849782736700035
 21
90.096301702044045
 31
0.0
 12
96.894611662583884
 22
90.337990088335033
 32
0.0
 13
96.894611662583884
 23
90.337990088335033
 33
0.0
210
0.0
220
0.0
230
1.0
  0
SOLID
  5
734
  8
DRG
  6
CONTINUOUS
 62
     7
 10
30.139007953484011
 20
92.766552909519746
 30
0.0
 11
29.83814289966584
 21
90.096301702044016
 31
0.0
 12
41.176888123037209
 22
91.815607098073087
 32
0.0
 13
41.176888123037209
 23
91.815607098073087
 33
0.0
210
0.0
220
0.0
230
1.0
  0
SOLID
  5
735
  8
DRG
  6
CONTINUOUS
 62
     7
 10
86.150647790518178
 20
92.766552909519746
 30
0.0
 11
85.849782736700035
 21
90.096301702044045
 31
0.0
 12
97.188527960071553
 22
91.815607098073897
 32
0.0
 13
97.188527960071553
 23
91.815607098073897
 33
0.0
210
0.0
220
0.0
230
1.0
  0
SOLID
  5
736
  8
DRG
  6
CONTINUOUS
 62
     7
 10
115.36096495653371
 20
92.766582499673873
 30
0.0
 11
104.3230940098811
 21
91.815607098073656
 31
0.0
 12
115.6618367640986
 22
90.096337111694325
 32
0.0
 13
115.6618367640986
 23
90.096337111694325
 33
0.0
210
0.0
220
0.0
230
1.0
  0
SOLID
  5
737
  8
DRG
  6
CONTINUOUS
 62
     7
 10
59.349325119499539
 20
92.766582499673916
 30
0.0
 11
48.311454172846773
 21
91.815607098073613
 31
0.0
 12
59.650196927064421
 22
90.096337111694368
 32
0.0
 13
59.650196927064421
 23
90.096337111694368
 33
0.0
210
0.0
220
0.0
230
1.0
  0
SOLID
  5
738
  8
DRG
  6
CONTINUOUS
 62
     7
 10
42.013890923565327
 20
93.068270312710808
 30
0.0
 11
30.139007953484011
 21
92.766552909519746
 31
0.0
 12
41.176888123037209
 22
91.815607098073087
 32
0.0
 13
41.176888123037209
 23
91.815607098073087
 33
0.0
210
0.0
220
0.0
230
1.0
  0
SOLID
  5
739
  8
DRG
  6
CONTINUOUS
 62
     7
 10
47.474451372318462
 20
93.068270312711235
 30
0.0
 11
48.311454172846773
 21
91.815607098073613
 31
0.0
 12
59.349325119499539
 22
92.766582499673916
 32
0.0
 13
59.349325119499539
 23
92.766582499673916
 33
0.0
210
0.0
220
0.0
230
1.0
  0
SOLID
  5
73A
  8
DRG
  6
CONTINUOUS
 62
     7
 10
103.48609120935291
 20
93.068270312711363
 30
0.0
 11
104.3230940098811
 21
91.815607098073656
 31
0.0
 12
115.36096495653371
 22
92.766582499673873
 32
0.0
 13
115.36096495653371
 23
92.766582499673873
 33
0.0
  0
SOLID
  5
73B
  8
DRG
  6
CONTINUOUS
 62
     7
 10
98.025530760599821
 20
93.068270312711576
 30
0.0
 11
86.150647790518178
 21
92.766552909519746
 31
0.0
 12
97.188527960071553
 22
91.815607098073897
 32
0.0
 13
97.188527960071553
 23
91.815607098073897
 33
0.0
210
0.0
220
0.0
230
1.0
  0
SOLID
  5
73C
  8
DRG
  6
CONTINUOUS
 62
     7
 10
43.266554138202949
 20
93.905273113239119
 30
0.0
 11
30.139007953484011
 21
92.766552909519746
 31
0.0
 12
42.013890923565327
 22
93.068270312710808
 32
0.0
 13
42.013890923565327
 23
93.068270312710808
 33
0.0
  0
SOLID
  5
73D
  8
DRG
  6
CONTINUOUS
 62
     7
 10
46.221788157680713
 20
93.90527311323936
 30
0.0
 11
47.474451372318462
 21
93.068270312711235
 31
0.0
 12
59.349325119499539
 22
92.766582499673916
 32
0.0
 13
59.349325119499539
 23
92.766582499673916
 33
0.0
210
0.0
220
0.0
230
1.0
  0
SOLID
  5
73E
  8
DRG
  6
CONTINUOUS
 62
     7
 10
102.2334279947152
 20
93.905273113239616
 30
0.0
 11
103.48609120935291
 21
93.068270312711363
 31
0.0
 12
115.36096495653371
 22
92.766582499673873
 32
0.0
 13
115.36096495653371
 23
92.766582499673873
 33
0.0
210
0.0
220
0.0
230
1.0
  0
SOLID
  5
73F
  8
DRG
  6
CONTINUOUS
 62
     7
 10
99.278193975237528
 20
93.905273113239744
 30
0.0
 11
86.150647790518178
 21
92.766552909519746
 31
0.0
 12
98.025530760599821
 22
93.068270312711576
 32
0.0
 13
98.025530760599821
 23
93.068270312711576
 33
0.0
210
0.0
220
0.0
230
1.0
  0
SOLID
  5
740
  8
DRG
  6
CONTINUOUS
 62
     7
 10
44.744171147941813
 20
94.199189410726845
 30
0.0
 11
30.139007953484011
 21
92.766552909519746
 31
0.0
 12
43.266554138202949
 22
93.905273113239119
 32
0.0
 13
43.266554138202949
 23
93.905273113239119
 33
0.0
210
0.0
220
0.0
230
1.0
  0
SOLID
  5
741
  8
DRG
  6
CONTINUOUS
 62
     7
 10
44.744171147941813
 20
94.199189410726845
 30
0.0
 11
46.221788157680713
 21
93.90527311323936
 31
0.0
 12
59.349325119499539
 22
92.766582499673916
 32
0.0
 13
59.349325119499539
 23
92.766582499673916
 33
0.0
210
0.0
220
0.0
230
1.0
  0
SOLID
  5
742
  8
DRG
  6
CONTINUOUS
 62
     7
 10
100.75581098497641
 20
94.199189410727286
 30
0.0
 11
86.150647790518178
 21
92.766552909519746
 31
0.0
 12
99.278193975237528
 22
93.905273113239744
 32
0.0
 13
99.278193975237528
 23
93.905273113239744
 33
0.0
  0
SOLID
  5
743
  8
DRG
  6
CONTINUOUS
 62
     7
 10
100.75581098497641
 20
94.199189410727286
 30
0.0
 11
102.2334279947152
 21
93.905273113239616
 31
0.0
 12
115.36096495653371
 22
92.766582499673873
 32
0.0
 13
115.36096495653371
 23
92.766582499673873
 33
0.0
210
0.0
220
0.0
230
1.0
  0
SOLID
  5
744
  8
DRG
  6
CONTINUOUS
 62
     7
 10
77.482556033578931
 20
94.593352860836134
 30
0.0
 11
67.331191210151701
 21
68.89733173546756
 31
0.0
 12
77.482556033578931
 22
72.876055965300111
 32
0.0
 13
77.482556033578931
 23
72.876055965300111
 33
0.0
210
0.0
220
0.0
230
1.0
  0
SOLID
  5
745
  8
DRG
  6
CONTINUOUS
 62
     7
 10
67.331191210151687
 20
94.593352860836134
 30
0.0
 11
77.482556033578931
 21
94.593352860836134
 31
0.0
 12
84.553623006881026
 22
94.593352860836134
 32
0.0
 13
84.553623006881026
 23
94.593352860836134
 33
0.0
210
0.0
220
0.0
230
1.0
  0
SOLID
  5
746
  8
DRG
  6
CONTINUOUS
 62
     7
 10
67.331191210151687
 20
94.593352860836134
 30
0.0
 11
67.331191210151701
 21
68.89733173546756
 31
0.0
 12
77.482556033578931
 22
94.593352860836134
 32
0.0
 13
77.482556033578931
 23
94.593352860836134
 33
0.0
210
0.0
220
0.0
230
1.0
  0
SOLID
  5
747
  8
DRG
  6
CONTINUOUS
 62
     7
 10
87.038156321871057
 20
95.302906571454614
 30
0.0
 11
86.150647790518178
 21
92.766552909519746
 31
0.0
 12
100.75581098497641
 22
94.199189410727286
 32
0.0
 13
100.75581098497641
 23
94.199189410727286
 33
0.0
  0
SOLID
  5
748
  8
DRG
  6
CONTINUOUS
 62
     7
 10
31.02651648483689
 20
95.302906571454614
 30
0.0
 11
30.139007953484011
 21
92.766552909519746
 31
0.0
 12
44.744171147941813
 22
94.199189410726845
 32
0.0
 13
44.744171147941813
 23
94.199189410726845
 33
0.0
210
0.0
220
0.0
230
1.0
  0
SOLID
  5
749
  8
DRG
  6
CONTINUOUS
 62
     7
 10
114.4734522049047
 20
95.302929359294865
 30
0.0
 11
87.038156321871057
 21
95.302906571454614
 31
0.0
 12
100.75581098497641
 22
94.199189410727286
 32
0.0
 13
100.75581098497641
 23
94.199189410727286
 33
0.0
210
0.0
220
0.0
230
1.0
  0
SOLID
  5
74A
  8
DRG
  6
CONTINUOUS
 62
     7
 10
114.4734522049047
 20
95.302929359294865
 30
0.0
 11
100.75581098497641
 21
94.199189410727286
 31
0.0
 12
115.36096495653371
 22
92.766582499673873
 32
0.0
 13
115.36096495653371
 23
92.766582499673873
 33
0.0
210
0.0
220
0.0
230
1.0
  0
SOLID
  5
74B
  8
DRG
  6
CONTINUOUS
 62
     7
 10
58.461812367870529
 20
95.302929359294907
 30
0.0
 11
31.02651648483689
 21
95.302906571454614
 31
0.0
 12
44.744171147941813
 22
94.199189410726845
 32
0.0
 13
44.744171147941813
 23
94.199189410726845
 33
0.0
210
0.0
220
0.0
230
1.0
  0
SOLID
  5
74C
  8
DRG
  6
CONTINUOUS
 62
     7
 10
58.461812367870529
 20
95.302929359294907
 30
0.0
 11
44.744171147941813
 21
94.199189410726845
 31
0.0
 12
59.349325119499539
 22
92.766582499673916
 32
0.0
 13
59.349325119499539
 23
92.766582499673916
 33
0.0
210
0.0
220
0.0
230
1.0
  0
SOLID
  5
74D
  8
DRG
  6
CONTINUOUS
 62
     7
 10
88.467804947083764
 20
97.578179324348682
 30
0.0
 11
87.038156321871057
 21
95.302906571454614
 31
0.0
 12
114.4734522049047
 22
95.302929359294865
 32
0.0
 13
114.4734522049047
 23
95.302929359294865
 33
0.0
210
0.0
220
0.0
230
1.0
  0
SOLID
  5
74E
  8
DRG
  6
CONTINUOUS
 62
     7
 10
32.456165110049582
 20
97.578179324348682
 30
0.0
 11
31.02651648483689
 21
95.302906571454614
 31
0.0
 12
58.461812367870529
 22
95.302929359294907
 32
0.0
 13
58.461812367870529
 23
95.302929359294907
 33
0.0
210
0.0
220
0.0
230
1.0
  0
SOLID
  5
74F
  8
DRG
  6
CONTINUOUS
 62
     7
 10
113.0438019380075
 20
97.578195143983422
 30
0.0
 11
88.467804947083764
 21
97.578179324348682
 31
0.0
 12
114.4734522049047
 22
95.302929359294865
 32
0.0
 13
114.4734522049047
 23
95.302929359294865
 33
0.0
210
0.0
220
0.0
230
1.0
  0
SOLID
  5
750
  8
DRG
  6
CONTINUOUS
 62
     7
 10
57.03216210097338
 20
97.578195143983436
 30
0.0
 11
32.456165110049582
 21
97.578179324348682
 31
0.0
 12
58.461812367870529
 22
95.302929359294907
 32
0.0
 13
58.461812367870529
 23
95.302929359294907
 33
0.0
210
0.0
220
0.0
230
1.0
  0
SOLID
  5
751
  8
DRG
  6
CONTINUOUS
 62
     7
 10
130.05101171535759
 20
97.915857504065855
 30
0.0
 11
138.05101171535759
 21
93.569427875032716
 31
0.0
 12
139.4206293992797
 22
93.56942787503273
 32
0.0
 13
139.4206293992797
 23
93.56942787503273
 33
0.0
210
0.0
220
0.0
230
1.0
  0
SOLID
  5
752
  8
DRG
  6
CONTINUOUS
 62
     7
 10
130.05101171535759
 20
97.915857504065855
 30
0.0
 11
135.9804593545374
 21
93.296834485345258
 31
0.0
 12
138.05101171535759
 22
93.569427875032716
 32
0.0
 13
138.05101171535759
 23
93.569427875032716
 33
0.0
  0
SOLID
  5
753
  8
DRG
  6
CONTINUOUS
 62
     7
 10
130.05101171535759
 20
97.915857504065855
 30
0.0
 11
134.05101171535759
 21
92.49763110530823
 31
0.0
 12
135.9804593545374
 22
93.296834485345258
 32
0.0
 13
135.9804593545374
 23
93.296834485345258
 33
0.0
210
0.0
220
0.0
230
1.0
  0
SOLID
  5
754
  8
DRG
  6
CONTINUOUS
 62
     7
 10
130.05101171535759
 20
97.915857504065855
 30
0.0
 11
132.39415746586519
 21
91.226282124525085
 31
0.0
 12
134.05101171535759
 22
92.49763110530823
 32
0.0
 13
134.05101171535759
 23
92.49763110530823
 33
0.0
210
0.0
220
0.0
230
1.0
  0
SOLID
  5
755
  8
DRG
  6
CONTINUOUS
 62
     7
 10
130.05101171535759
 20
97.915857504065855
 30
0.0
 11
131.12280848508209
 21
89.569427875032716
 31
0.0
 12
132.39415746586519
 22
91.226282124525085
 32
0.0
 13
132.39415746586519
 23
91.226282124525085
 33
0.0
210
0.0
220
0.0
230
1.0
  0
SOLID
  5
756
  8
DRG
  6
CONTINUOUS
 62
     7
 10
130.05101171535759
 20
97.915857504065855
 30
0.0
 11
119.0096173095521
 21
62.115696081838678
 31
0.0
 12
131.12280848508209
 22
89.569427875032716
 32
0.0
 13
131.12280848508209
 23
89.569427875032716
 33
0.0
  0
SOLID
  5
757
  8
DRG
  6
CONTINUOUS
 62
     7
 10
18.821661727211438
 20
97.915857504065912
 30
0.0
 11
26.821661727211438
 21
93.569427875032716
 31
0.0
 12
28.191279411133561
 22
93.56942787503273
 32
0.0
 13
28.191279411133561
 23
93.56942787503273
 33
0.0
  0
SOLID
  5
758
  8
DRG
  6
CONTINUOUS
 62
     7
 10
18.821661727211438
 20
97.915857504065912
 30
0.0
 11
24.751109366391269
 21
93.296834485345258
 31
0.0
 12
26.821661727211438
 22
93.569427875032716
 32
0.0
 13
26.821661727211438
 23
93.569427875032716
 33
0.0
210
0.0
220
0.0
230
1.0
  0
SOLID
  5
759
  8
DRG
  6
CONTINUOUS
 62
     7
 10
18.821661727211438
 20
97.915857504065912
 30
0.0
 11
22.821661727211449
 21
92.49763110530823
 31
0.0
 12
24.751109366391269
 22
93.296834485345258
 32
0.0
 13
24.751109366391269
 23
93.296834485345258
 33
0.0
210
0.0
220
0.0
230
1.0
  0
SOLID
  5
75A
  8
DRG
  6
CONTINUOUS
 62
     7
 10
18.821661727211438
 20
97.915857504065912
 30
0.0
 11
21.164807477719059
 21
91.226282124525085
 31
0.0
 12
22.821661727211449
 22
92.49763110530823
 32
0.0
 13
22.821661727211449
 23
92.49763110530823
 33
0.0
210
0.0
220
0.0
230
1.0
  0
SOLID
  5
75B
  8
DRG
  6
CONTINUOUS
 62
     7
 10
18.821661727211438
 20
97.915857504065912
 30
0.0
 11
19.893458496935931
 21
89.569427875032716
 31
0.0
 12
21.164807477719059
 22
91.226282124525085
 32
0.0
 13
21.164807477719059
 23
91.226282124525085
 33
0.0
210
0.0
220
0.0
230
1.0
  0
SOLID
  5
75C
  8
DRG
  6
CONTINUOUS
 62
     7
 10
18.821661727211438
 20
97.915857504065912
 30
0.0
 11
7.7802673214059723
 21
62.115696081838671
 31
0.0
 12
19.893458496935931
 22
89.569427875032716
 32
0.0
 13
19.893458496935931
 23
89.569427875032716
 33
0.0
210
0.0
220
0.0
230
1.0
  0
SOLID
  5
75D
  8
DRG
  6
CONTINUOUS
 62
     7
 10
90.367905114395313
 20
99.478279491660203
 30
0.0
 11
88.467804947083764
 21
97.578179324348682
 31
0.0
 12
113.0438019380075
 22
97.578195143983422
 32
0.0
 13
113.0438019380075
 23
97.578195143983422
 33
0.0
210
0.0
220
0.0
230
1.0
  0
SOLID
  5
75E
  8
DRG
  6
CONTINUOUS
 62
     7
 10
34.356265277361132
 20
99.478279491660203
 30
0.0
 11
32.456165110049582
 21
97.578179324348682
 31
0.0
 12
57.03216210097338
 22
97.578195143983436
 32
0.0
 13
57.03216210097338
 23
97.578195143983436
 33
0.0
210
0.0
220
0.0
230
1.0
  0
SOLID
  5
75F
  8
DRG
  6
CONTINUOUS
 62
     7
 10
111.1437025217155
 20
99.478288953462325
 30
0.0
 11
90.367905114395313
 21
99.478279491660203
 31
0.0
 12
113.0438019380075
 22
97.578195143983422
 32
0.0
 13
113.0438019380075
 23
97.578195143983422
 33
0.0
210
0.0
220
0.0
230
1.0
  0
SOLID
  5
760
  8
DRG
  6
CONTINUOUS
 62
     7
 10
55.132062684681358
 20
99.478288953462354
 30
0.0
 11
34.356265277361132
 21
99.478279491660203
 31
0.0
 12
57.03216210097338
 22
97.578195143983436
 32
0.0
 13
57.03216210097338
 23
97.578195143983436
 33
0.0
210
0.0
220
0.0
230
1.0
  0
SOLID
  5
761
  8
DRG
  6
CONTINUOUS
 62
     7
 10
131.90017275248141
 20
99.844187280346816
 30
0.0
 11
130.05101171535759
 21
97.915857504065855
 31
0.0
 12
139.4206293992797
 22
93.56942787503273
 32
0.0
 13
139.4206293992797
 23
93.56942787503273
 33
0.0
210
0.0
220
0.0
230
1.0
  0
SOLID
  5
762
  8
DRG
  6
CONTINUOUS
 62
     7
 10
20.670822764335242
 20
99.844187280346901
 30
0.0
 11
18.821661727211438
 21
97.915857504065912
 31
0.0
 12
28.191279411133561
 22
93.56942787503273
 32
0.0
 13
28.191279411133561
 23
93.56942787503273
 33
0.0
  0
SOLID
  5
763
  8
DRG
  6
CONTINUOUS
 62
     7
 10
36.631538030255221
 20
100.9079281168728
 30
0.0
 11
34.356265277361132
 21
99.478279491660203
 31
0.0
 12
55.132062684681358
 22
99.478288953462354
 32
0.0
 13
55.132062684681358
 23
99.478288953462354
 33
0.0
210
0.0
220
0.0
230
1.0
  0
SOLID
  5
764
  8
DRG
  6
CONTINUOUS
 62
     7
 10
92.643177867289396
 20
100.9079281168728
 30
0.0
 11
90.367905114395313
 21
99.478279491660203
 31
0.0
 12
111.1437025217155
 22
99.478288953462325
 32
0.0
 13
111.1437025217155
 23
99.478288953462325
 33
0.0
  0
SOLID
  5
765
  8
DRG
  6
CONTINUOUS
 62
     7
 10
52.856792681384711
 20
100.9079325064894
 30
0.0
 11
36.631538030255221
 21
100.9079281168728
 31
0.0
 12
55.132062684681358
 22
99.478288953462354
 32
0.0
 13
55.132062684681358
 23
99.478288953462354
 33
0.0
  0
SOLID
  5
766
  8
DRG
  6
CONTINUOUS
 62
     7
 10
108.8684325184189
 20
100.9079325064894
 30
0.0
 11
92.643177867289396
 21
100.9079281168728
 31
0.0
 12
111.1437025217155
 22
99.478288953462325
 32
0.0
 13
111.1437025217155
 23
99.478288953462325
 33
0.0
210
0.0
220
0.0
230
1.0
  0
SOLID
  5
767
  8
DRG
  6
CONTINUOUS
 62
     7
 10
134.18475166795781
 20
101.22930512597181
 30
0.0
 11
131.90017275248141
 21
99.844187280346816
 31
0.0
 12
139.4206293992797
 22
93.56942787503273
 32
0.0
 13
139.4206293992797
 23
93.56942787503273
 33
0.0
210
0.0
220
0.0
230
1.0
  0
SOLID
  5
768
  8
DRG
  6
CONTINUOUS
 62
     7
 10
22.955401679811722
 20
101.2293051259719
 30
0.0
 11
20.670822764335242
 21
99.844187280346901
 31
0.0
 12
28.191279411133561
 22
93.56942787503273
 32
0.0
 13
28.191279411133561
 23
93.56942787503273
 33
0.0
210
0.0
220
0.0
230
1.0
  0
SOLID
  5
769
  8
DRG
  6
CONTINUOUS
 62
     7
 10
39.167891692190111
 20
101.7954366482256
 30
0.0
 11
36.631538030255221
 21
100.9079281168728
 31
0.0
 12
52.856792681384711
 22
100.9079325064894
 32
0.0
 13
52.856792681384711
 23
100.9079325064894
 33
0.0
210
0.0
220
0.0
230
1.0
  0
SOLID
  5
76A
  8
DRG
  6
CONTINUOUS
 62
     7
 10
95.179531529224278
 20
101.7954366482256
 30
0.0
 11
92.643177867289396
 21
100.9079281168728
 31
0.0
 12
108.8684325184189
 22
100.9079325064894
 32
0.0
 13
108.8684325184189
 23
100.9079325064894
 33
0.0
  0
SOLID
  5
76B
  8
DRG
  6
CONTINUOUS
 62
     7
 10
50.320443202898389
 20
101.7954377738515
 30
0.0
 11
39.167891692190111
 21
101.7954366482256
 31
0.0
 12
52.856792681384711
 22
100.9079325064894
 32
0.0
 13
52.856792681384711
 23
100.9079325064894
 33
0.0
210
0.0
220
0.0
230
1.0
  0
SOLID
  5
76C
  8
DRG
  6
CONTINUOUS
 62
     7
 10
106.3320830399325
 20
101.7954377738515
 30
0.0
 11
95.179531529224278
 21
101.7954366482256
 31
0.0
 12
108.8684325184189
 22
100.9079325064894
 32
0.0
 13
108.8684325184189
 23
100.9079325064894
 33
0.0
210
0.0
220
0.0
230
1.0
  0
SOLID
  5
76D
  8
DRG
  6
CONTINUOUS
 62
     7
 10
136.74962306925659
 20
101.9771600330952
 30
0.0
 11
134.18475166795781
 21
101.22930512597181
 31
0.0
 12
139.4206293992797
 22
93.56942787503273
 32
0.0
 13
139.4206293992797
 23
93.56942787503273
 33
0.0
210
0.0
220
0.0
230
1.0
  0
SOLID
  5
76E
  8
DRG
  6
CONTINUOUS
 62
     7
 10
25.520273081110439
 20
101.9771600330952
 30
0.0
 11
22.955401679811722
 21
101.2293051259719
 31
0.0
 12
28.191279411133561
 22
93.56942787503273
 32
0.0
 13
28.191279411133561
 23
93.56942787503273
 33
0.0
210
0.0
220
0.0
230
1.0
  0
SOLID
  5
76F
  8
DRG
  6
CONTINUOUS
 62
     7
 10
77.482556033578931
 20
101.9948050433795
 30
0.0
 11
62.478989637268569
 21
94.593352860836134
 31
0.0
 12
67.331191210151687
 22
94.593352860836134
 32
0.0
 13
67.331191210151687
 23
94.593352860836134
 33
0.0
210
0.0
220
0.0
230
1.0
  0
SOLID
  5
770
  8
DRG
  6
CONTINUOUS
 62
     7
 10
77.482556033578931
 20
101.9948050433795
 30
0.0
 11
67.331191210151687
 21
94.593352860836134
 31
0.0
 12
84.553623006881026
 22
94.593352860836134
 32
0.0
 13
84.553623006881026
 23
94.593352860836134
 33
0.0
210
0.0
220
0.0
230
1.0
  0
SOLID
  5
771
  8
DRG
  6
CONTINUOUS
 62
     7
 10
62.478989637268562
 20
101.9948050433795
 30
0.0
 11
62.478989637268569
 21
94.593352860836134
 31
0.0
 12
77.482556033578931
 22
101.9948050433795
 32
0.0
 13
77.482556033578931
 23
101.9948050433795
 33
0.0
  0
SOLID
  5
772
  8
DRG
  6
CONTINUOUS
 62
     7
 10
84.553623006881026
 20
101.9948050433795
 30
0.0
 11
77.482556033578931
 21
101.9948050433795
 31
0.0
 12
84.553623006881026
 22
94.593352860836134
 32
0.0
 13
84.553623006881026
 23
94.593352860836134
 33
0.0
210
0.0
220
0.0
230
1.0
  0
SOLID
  5
773
  8
DRG
  6
CONTINUOUS
 62
     7
 10
67.331191210151701
 20
101.9948050433795
 30
0.0
 11
62.478989637268562
 21
101.9948050433795
 31
0.0
 12
77.482556033578931
 22
101.9948050433795
 32
0.0
 13
77.482556033578931
 23
101.9948050433795
 33
0.0
210
0.0
220
0.0
230
1.0
  0
SOLID
  5
774
  8
DRG
  6
CONTINUOUS
 62
     7
 10
139.4206293992797
 20
102.0369718403325
 30
0.0
 11
136.74962306925659
 21
101.9771600330952
 31
0.0
 12
139.4206293992797
 22
93.56942787503273
 32
0.0
 13
139.4206293992797
 23
93.56942787503273
 33
0.0
210
0.0
220
0.0
230
1.0
  0
SOLID
  5
775
  8
DRG
  6
CONTINUOUS
 62
     7
 10
7.7802673214059723
 20
102.0369718403326
 30
0.0
 11
7.7802673214059723
 21
62.115696081838671
 31
0.0
 12
18.821661727211438
 22
97.915857504065912
 32
0.0
 13
18.821661727211438
 23
97.915857504065912
 33
0.0
210
0.0
220
0.0
230
1.0
  0
SOLID
  5
776
  8
DRG
  6
CONTINUOUS
 62
     7
 10
142.11987082690661
 20
62.115696081838678
 30
0.0
 11
153.2899770207527
 21
102.0369718403326
 31
0.0
 12
142.11987082690661
 22
102.0369718403326
 32
0.0
 13
142.11987082690661
 23
102.0369718403326
 33
0.0
  0
SOLID
  5
777
  8
DRG
  6
CONTINUOUS
 62
     7
 10
153.2899770207527
 20
102.0369718403326
 30
0.0
 11
142.11987082690661
 21
62.115696081838678
 31
0.0
 12
153.2899770207527
 22
62.115696081838678
 32
0.0
 13
153.2899770207527
 23
62.115696081838678
 33
0.0
210
0.0
220
0.0
230
1.0
  0
SOLID
  5
778
  8
DRG
  6
CONTINUOUS
 62
     7
 10
18.821661727211438
 20
102.0369718403326
 30
0.0
 11
7.7802673214059723
 21
102.0369718403326
 31
0.0
 12
18.821661727211438
 22
97.915857504065912
 32
0.0
 13
18.821661727211438
 23
97.915857504065912
 33
0.0
  0
SOLID
  5
779
  8
DRG
  6
CONTINUOUS
 62
     7
 10
130.05101171535759
 20
102.0369718403326
 30
0.0
 11
119.0096173095521
 21
62.115696081838678
 31
0.0
 12
130.05101171535759
 22
97.915857504065855
 32
0.0
 13
130.05101171535759
 23
97.915857504065855
 33
0.0
210
0.0
220
0.0
230
1.0
  0
SOLID
  5
77A
  8
DRG
  6
CONTINUOUS
 62
     7
 10
165.4162645291251
 20
86.855763084496886
 30
0.0
 11
171.38205787173379
 21
102.0369718403326
 31
0.0
 12
160.9346181585602
 22
102.0369718403326
 32
0.0
 13
160.9346181585602
 23
102.0369718403326
 33
0.0
210
0.0
220
0.0
230
1.0
  0
SOLID
  5
77B
  8
DRG
  6
CONTINUOUS
 62
     7
 10
160.9346181585602
 20
102.0369718403326
 30
0.0
 11
153.2899770207527
 21
82.583583780839575
 31
0.0
 12
165.4162645291251
 22
86.855763084496886
 32
0.0
 13
165.4162645291251
 23
86.855763084496886
 33
0.0
  0
SOLID
  5
77C
  8
DRG
  6
CONTINUOUS
 62
     7
 10
28.191279411133561
 20
102.0369718403326
 30
0.0
 11
25.520273081110439
 21
101.9771600330952
 31
0.0
 12
28.191279411133561
 22
93.56942787503273
 32
0.0
 13
28.191279411133561
 23
93.56942787503273
 33
0.0
  0
SOLID
  5
77D
  8
DRG
  6
CONTINUOUS
 62
     7
 10
119.0096173095521
 20
102.0369718403326
 30
0.0
 11
119.0096173095521
 21
62.115696081838678
 31
0.0
 12
130.05101171535759
 22
102.0369718403326
 32
0.0
 13
130.05101171535759
 23
102.0369718403326
 33
0.0
210
0.0
220
0.0
230
1.0
  0
SOLID
  5
77E
  8
DRG
  6
CONTINUOUS
 62
     7
 10
106.3320830399325
 20
101.7954377738515
 30
0.0
 11
103.66183676415081
 21
102.0963017020437
 31
0.0
 12
97.849782736700035
 22
102.0963017020437
 32
0.0
 13
97.849782736700035
 23
102.0963017020437
 33
0.0
210
0.0
220
0.0
230
1.0
  0
SOLID
  5
77F
  8
DRG
  6
CONTINUOUS
 62
     7
 10
97.849782736700035
 20
102.0963017020437
 30
0.0
 11
95.179531529224278
 21
101.7954366482256
 31
0.0
 12
106.3320830399325
 22
101.7954377738515
 32
0.0
 13
106.3320830399325
 23
101.7954377738515
 33
0.0
210
0.0
220
0.0
230
1.0
  0
SOLID
  5
780
  8
DRG
  6
CONTINUOUS
 62
     7
 10
50.320443202898389
 20
101.7954377738515
 30
0.0
 11
47.650196927116667
 21
102.0963017020437
 31
0.0
 12
41.838142899665847
 22
102.0963017020437
 32
0.0
 13
41.838142899665847
 23
102.0963017020437
 33
0.0
210
0.0
220
0.0
230
1.0
  0
SOLID
  5
781
  8
DRG
  6
CONTINUOUS
 62
     7
 10
41.838142899665847
 20
102.0963017020437
 30
0.0
 11
39.167891692190111
 21
101.7954366482256
 31
0.0
 12
50.320443202898389
 22
101.7954377738515
 32
0.0
 13
50.320443202898389
 23
101.7954377738515
 33
0.0
210
0.0
220
0.0
230
1.0
  0
SOLID
  5
782
  8
DRG
  6
CONTINUOUS
 62
     7
 10
77.482556033578931
 20
107.1280725498991
 30
0.0
 11
67.331191210151701
 21
101.9948050433795
 31
0.0
 12
77.482556033578931
 22
101.9948050433795
 32
0.0
 13
77.482556033578931
 23
101.9948050433795
 33
0.0
  0
SOLID
  5
783
  8
DRG
  6
CONTINUOUS
 62
     7
 10
67.331191210151701
 20
107.1280725498991
 30
0.0
 11
67.331191210151701
 21
101.9948050433795
 31
0.0
 12
77.482556033578931
 22
107.1280725498991
 32
0.0
 13
77.482556033578931
 23
107.1280725498991
 33
0.0
210
0.0
220
0.0
230
1.0
  0
ENDBLK
  5
785
  8
0
  0
ENDSEC
  0
SECTION
  2
ENTITIES
  0
LINE
  5
2E
  8
BORT
 39
3.6000000000000001
 10
1500.0
 20
227.40046722515501
 30
0.0
 11
312.0
 21
227.40046722515501
 31
0.0
  0
LINE
  5
2F
  8
BORT
 39
3.6000000000000001
 10
1500.0
 20
167.40046722515501
 30
0.0
 11
0.0
 21
167.40046722515501
 31
0.0
  0
LINE
  5
32
  8
BORT
 39
3.6000000000000001
 10
312.0
 20
363.40046722515501
 30
0.0
 11
0.0
 21
363.40046722515501
 31
0.0
  0
LINE
  5
33
  8
BORT
 39
3.6000000000000001
 10
312.0
 20
475.40046722515501
 30
0.0
 11
0.0
 21
475.40046722515501
 31
0.0
  0
LINE
  5
34
  8
BORT
 39
3.6000000000000001
 10
312.0
 20
335.40046722515501
 30
0.0
 11
0.0
 21
335.40046722515501
 31
0.0
  0
LINE
  5
35
  8
BORT
 39
3.6000000000000001
 10
312.0
 20
335.40046722515501
 30
0.0
 11
0.0
 21
335.40046722515501
 31
0.0
  0
TEXT
  5
36
  8
BORT
 10
8.2380952380952444
 20
344.40046722515501
 30
0.0
 40
10.0
  1
ISSUE
 72
     4
 11
28.0
 21
349.40046722515501
 31
0.0
  0
LINE
  5
3C
  8
BORT
 39
3.6000000000000001
 10
0.0
 20
167.40046722515501
 30
0.0
 11
0.0
 21
554.93892686285596
 31
0.0
  0
TEXT
  5
3D
  8
BORT
 10
24.19047619047619
 20
372.40046722515501
 30
0.0
 40
10.0
  1
A
 72
     4
 11
28.0
 21
377.40046722515501
 31
0.0
  0
LINE
  5
3E
  8
BORT
 39
3.6000000000000001
 10
56.0
 20
335.40046722515501
 30
0.0
 11
56.0
 21
391.40046722515501
 31
0.0
  0
TEXT
  5
3F
  8
BORT
 10
126.1428571428571
 20
372.40046722515501
 30
0.0
 40
10.0
  1
ORIGINAL ISSUE
 72
     4
 11
184.0
 21
377.40046722515501
 31
0.0
  0
TEXT
  5
40
  8
BORT
 10
135.6666666666666
 20
344.40046722515501
 30
0.0
 40
10.0
  1
ALTERATIONS
 72
     4
 11
184.0
 21
349.40046722515501
 31
0.0
  0
LINE
  5
41
  8
BORT
 39
3.6000000000000001
 10
312.0
 20
335.40046722515501
 30
0.0
 11
312.0
 21
167.40046722515501
 31
0.0
  0
LINE
  5
42
  8
BORT
 39
3.6000000000000001
 10
312.0
 20
531.40046722515513
 30
0.0
 11
312.0
 21
335.40046722515501
 31
0.0
  0
TEXT
  5
43
  8
BORT
 10
731.41836921547053
 20
201.77533797096939
 30
0.0
 40
20.0
  1
OUTLINE DETAILS OF IS15
 72
     4
 11
925.70408350118475
 21
211.77533797096939
 31
0.0
  0
TEXT
  5
44
  8
BORT
 10
375.68405459209652
 20
191.9373650712179
 30
0.0
 40
12.0
  1
EXEECO LTD   C   1996
  0
CIRCLE
  5
45
  8
BORT
 10
524.30939793581001
 20
197.7830403058137
 30
0.0
 40
11.30959949294261
  0
LINE
  5
46
  8
BORT
 39
3.6000000000000001
 10
700.0
 20
227.40046722515501
 30
0.0
 11
700.0
 21
167.40046722515501
 31
0.0
  0
LINE
  5
47
  8
BORT
 39
3.6000000000000001
 10
1500.0
 20
259.40046722515501
 30
0.0
 11
1060.0
 21
259.40046722515501
 31
0.0
  0
LINE
  5
48
  8
BORT
 39
3.6000000000000001
 10
1060.0
 20
291.40046722515501
 30
0.0
 11
1500.0
 21
291.40046722515501
 31
0.0
  0
TEXT
  5
49
  8
BORT
 10
1196.6666666666661
 20
185.40046722515501
 30
0.0
 40
28.0
  1
PUB\IS15CD
 72
     4
 11
1320.0
 21
197.40046722515501
 31
0.0
  0
TEXT
  5
4A
  8
BORT
 10
1066.3348093528591
 20
238.0492998623414
 30
0.0
 40
10.0
  1
CHECKED:-
  0
TEXT
  5
4B
  8
BORT
 10
1066.912774441729
 20
269.40046722515501
 30
0.0
 40
10.0
  1
DRAWN:-
  0
TEXT
  5
4C
  8
BORT
 10
755.70408350118475
 20
176.34287732255879
 30
0.0
 40
20.0
  1
ISO & USA STANDARD
 72
     4
 11
925.70408350118475
 21
186.34287732255879
 31
0.0
  0
LINE
  5
4D
  8
BORT
 39
3.6000000000000001
 10
1060.0
 20
291.40046722515501
 30
0.0
 11
1060.0
 21
227.40046722515501
 31
0.0
  0
LINE
  5
4E
  8
BORT
 39
3.6000000000000001
 10
1140.0
 20
227.40046722515501
 30
0.0
 11
1140.0
 21
167.40046722515501
 31
0.0
  0
TEXT
  5
4F
  8
BORT
 10
1179.645583234741
 20
270.40046722515501
 30
0.0
 40
10.0
  1
S.W.   10.9.96
 72
     4
 11
1234.4074879966449
 21
275.40046722515501
 31
0.0
  0
LINE
  5
50
  8
BORT
 39
3.6000000000000001
 10
1500.0
 20
291.40046722515501
 30
0.0
 11
1500.0
 21
167.40046722515501
 31
0.0
  0
LINE
  5
51
  8
BORT
 39
3.6000000000000001
 10
1412.0
 20
291.40046722515501
 30
0.0
 11
1412.0
 21
227.40046722515501
 31
0.0
  0
TEXT
  5
52
  8
BORT
 10
1441.983690967945
 20
237.40046722515501
 30
0.0
 40
10.0
  1
1:2
  0
TEXT
  5
53
  8
BORT
 10
1431.5725485912251
 20
269.40046722515501
 30
0.0
 40
10.0
  1
SCALE
  0
LINE
  5
54
  8
DRG
 10
564.57307884611168
 20
726.28582209968749
 30
0.0
 11
691.23087009693199
 21
682.17455465628314
 31
0.0
  0
ARC
  5
55
  8
DRG
 10
585.12128827703214
 20
1461.6069499958551
 30
0.0
 40
6.0
 50
175.69877769532971
 51
270.0
  0
ARC
  5
56
  8
DRG
 10
585.17761760185545
 20
1328.606949995856
 30
0.0
 40
6.0
 50
89.999999999999474
 51
180.0
  0
ARC
  5
57
  8
DRG
 10
585.17761760185545
 20
1316.306949995856
 30
0.0
 40
6.0
 50
180.0
 51
270.0
  0
LINE
  5
58
  8
DRG
 10
569.17761760185567
 20
725.50694999585596
 30
0.0
 11
671.17761760185556
 21
725.50694999585619
 31
0.0
  0
LINE
  5
59
  8
CRS
 10
254.1790782373491
 20
1395.106949995856
 30
0.0
 11
627.77110223276122
 21
1395.106949995856
 31
0.0
  0
LINE
  5
5A
  8
DRG
 10
413.17761760185539
 20
1039.2569499958561
 30
0.0
 11
413.17761760185539
 21
941.50694999585619
 31
0.0
  0
LINE
  5
5B
  8
DRG
 10
413.17761760185539
 20
826.5069499958563
 30
0.0
 11
413.17761760185539
 21
836.5069499958563
 31
0.0
  0
LINE
  5
5C
  8
DRG
 10
419.17761760185539
 20
818.5069499958563
 30
0.0
 11
549.17761760185545
 21
818.5069499958563
 31
0.0
  0
ARC
  5
5D
  8
DRG
 10
419.17761760185539
 20
824.50694999585619
 30
0.0
 40
6.0
 50
180.0
 51
270.0
  0
LINE
  5
5E
  8
DRG
 10
413.17761760185539
 20
824.50694999585619
 30
0.0
 11
413.17761760185539
 21
826.5069499958563
 31
0.0
  0
LINE
  5
5F
  8
DRG
 10
555.17761760185556
 20
739.50694999585619
 30
0.0
 11
555.17761760185499
 21
1111.1249576119969
 31
0.0
  0
ARC
  5
60
  8
DRG
 10
569.17761760185567
 20
739.50694999585619
 30
0.0
 40
14.0
 50
180.0
 51
270.0
  0
ARC
  5
61
  8
DRG
 10
549.17761760185545
 20
812.5069499958563
 30
0.0
 40
6.0
 50
0.0000000000000509
 51
90.0
  0
LINE
  5
62
  8
CRS
 10
397.11365578856612
 20
941.50694999585619
 30
0.0
 11
841.04850546815169
 21
941.50694999585619
 31
0.0
  0
LINE
  5
63
  8
DRG
 10
413.17761760185539
 20
843.75694999585653
 30
0.0
 11
413.17761760185539
 21
941.50694999585619
 31
0.0
  0
LINE
  5
64
  8
DRG
 10
413.17761760185539
 20
836.5069499958563
 30
0.0
 11
413.17761760185562
 21
843.75694999585653
 31
0.0
  0
LINE
  5
65
  8
DRG
 10
432.17761760185539
 20
1448.606949995856
 30
0.0
 11
432.17761760185539
 21
1341.606949995856
 31
0.0
  0
LINE
  5
66
  8
DRG
 10
413.17761760185539
 20
1229.342249995856
 30
0.0
 11
413.17761760185562
 21
1179.271649995856
 31
0.0
  0
LINE
  5
67
  8
CRS
 10
399.80718371935382
 20
1204.306949995856
 30
0.0
 11
468.58834338053907
 21
1204.306949995856
 31
0.0
  0
LINE
  5
68
  8
DRG
 10
437.17761760185539
 20
1163.106949995856
 30
0.0
 11
437.17761760185539
 21
1070.5069499958561
 31
0.0
  0
LINE
  5
69
  8
DRG
 10
449.17761760185539
 20
1163.106949995856
 30
0.0
 11
449.17761760185539
 21
830.55061900407088
 31
0.0
  0
ARC
  5
6A
  8
DRG
 10
443.17761760185539
 20
1070.5069499958561
 30
0.0
 40
6.0
 50
270.0
 51
0.0
  0
ARC
  5
6B
  8
DRG
 10
431.17761760185539
 20
1070.5069499958561
 30
0.0
 40
6.0
 50
270.0
 51
0.0
  0
LINE
  5
6C
  8
DRG
 10
419.17761760185539
 20
1064.5069499958561
 30
0.0
 11
443.17761760185539
 21
1064.5069499958561
 31
0.0
  0
LINE
  5
6D
  8
DRG
 10
413.17761760185539
 20
1058.5069499958561
 30
0.0
 11
413.17761760185539
 21
1039.2569499958561
 31
0.0
  0
ARC
  5
6E
  8
DRG
 10
419.17761760185539
 20
1058.5069499958561
 30
0.0
 40
6.0
 50
90.0
 51
180.0
  0
LINE
  5
6F
  8
DRG
 10
419.17761760185539
 20
1169.306949995856
 30
0.0
 11
443.17761760185539
 21
1169.306949995856
 31
0.0
  0
ARC
  5
70
  8
DRG
 10
419.17761760185539
 20
1175.306949995856
 30
0.0
 40
6.0
 50
180.0
 51
270.0
  0
LINE
  5
71
  8
DRG
 10
413.17761760185562
 20
1179.271649995856
 30
0.0
 11
413.17761760185539
 21
1175.306949995856
 31
0.0
  0
ARC
  5
72
  8
DRG
 10
431.004129307445
 20
1163.135832291588
 30
0.0
 40
6.1735558560873356
 50
359.73194707825371
 51
88.389671030274656
  0
ARC
  5
73
  8
DRG
 10
443.00412930744511
 20
1163.135832291588
 30
0.0
 40
6.1735558560873356
 50
359.73194707825371
 51
88.389671030274656
  0
LINE
  5
74
  8
DRG
 10
449.17761760185539
 20
1460.7867189886899
 30
0.0
 11
449.17761760185562
 21
1163.164714588163
 31
0.0
  0
LINE
  5
75
  8
DRG
 10
437.17761760185539
 20
1328.606949995856
 30
0.0
 11
437.17761760185539
 21
1245.306949995856
 31
0.0
  0
LINE
  5
76
  8
DRG
 10
419.17761760185539
 20
1239.306949995856
 30
0.0
 11
443.17761760185539
 21
1239.306949995856
 31
0.0
  0
LINE
  5
77
  8
DRG
 10
413.17761760185539
 20
1233.306949995856
 30
0.0
 11
413.17761760185539
 21
1229.342249995856
 31
0.0
  0
ARC
  5
78
  8
DRG
 10
419.17761760185539
 20
1233.306949995856
 30
0.0
 40
6.0
 50
90.0
 51
180.0
  0
ARC
  5
79
  8
DRG
 10
431.17761760185539
 20
1245.306949995856
 30
0.0
 40
6.0
 50
270.00000000000011
 51
0.0
  0
ARC
  5
7A
  8
DRG
 10
443.17761760185539
 20
1245.306949995856
 30
0.0
 40
6.0
 50
270.00000000000051
 51
0.0
  0
LINE
  5
7B
  8
DRG
 10
432.17761760185539
 20
1334.606949995856
 30
0.0
 11
443.17761760185539
 21
1334.606949995856
 31
0.0
  0
ARC
  5
7C
  8
DRG
 10
431.17761760185539
 20
1328.606949995856
 30
0.0
 40
6.0
 50
0.0000000000000127
 51
80.405931773145014
  0
LINE
  5
7D
  8
DRG
 10
432.17761760185539
 20
1341.606949995856
 30
0.0
 11
432.17761760185539
 21
1334.5230297789581
 31
0.0
  0
ARC
  5
7E
  8
DRG
 10
443.17761760185539
 20
1328.606949995856
 30
0.0
 40
6.0
 50
0.0000000000000127
 51
90.000000000000256
  0
LINE
  5
7F
  8
DRG
 10
579.17761760185545
 20
1460.786718988805
 30
0.0
 11
579.17761760185545
 21
1123.1249576119969
 31
0.0
  0
ARC
  5
80
  8
DRG
 10
463.17761760185539
 20
1463.1069499958551
 30
0.0
 40
14.0
 50
90.0
 51
184.3012223046702
  0
LINE
  5
81
  8
DRG
 10
432.17761760185539
 20
1455.606949995856
 30
0.0
 11
443.23394692667642
 21
1455.606949995856
 31
0.0
  0
LINE
  5
82
  8
DRG
 10
432.17761760185539
 20
1455.606949995856
 30
0.0
 11
432.17761760185539
 21
1448.606949995856
 31
0.0
  0
ARC
  5
83
  8
DRG
 10
443.23394692667642
 20
1461.6069499958551
 30
0.0
 40
6.0
 50
270.0
 51
4.3012223046698157
  0
LINE
  5
84
  8
DRG
 10
463.17761760185539
 20
1477.106949995856
 30
0.0
 11
565.17761760185545
 21
1477.106949995856
 31
0.0
  0
ARC
  5
85
  8
DRG
 10
565.17761760185545
 20
1463.1069499958551
 30
0.0
 40
14.0
 50
355.69877769532928
 51
90.0
  0
LINE
  5
86
  8
DRG
 10
723.17761760185545
 20
1162.39797539964
 30
0.0
 11
723.17761760185567
 21
1036.5479824542481
 31
0.0
  0
LINE
  5
87
  8
DRG
 10
723.17761760185545
 20
720.61592459207168
 30
0.0
 11
723.17761760185567
 21
842.50197408009114
 31
0.0
  0
LINE
  5
88
  8
DRG
 10
695.17761760185556
 20
681.50694999585619
 30
0.0
 11
738.17761760185522
 21
681.50694999585608
 31
0.0
  0
LINE
  5
89
  8
DRG
 10
683.17761760185556
 20
693.50694999585619
 30
0.0
 11
683.17761760185556
 21
844.69872107189781
 31
0.0
  0
ARC
  5
8A
  8
DRG
 10
695.17761760185556
 20
693.50694999585619
 30
0.0
 40
12.0
 50
180.0
 51
269.99999999999989
  0
ARC
  5
8B
  8
DRG
 10
671.17761760185556
 20
713.50694999585619
 30
0.0
 40
12.0
 50
0.0
 51
90.0
  0
LINE
  5
8C
  8
DRG
 10
723.17761760185545
 20
681.50694999585608
 30
0.0
 11
723.17761760185567
 21
720.61592459207168
 31
0.0
  0
LINE
  5
8D
  8
DRG
 10
596.17761760185545
 20
1448.606949995856
 30
0.0
 11
596.17761760185545
 21
1341.606949995856
 31
0.0
  0
LINE
  5
8E
  8
DRG
 10
723.17761760185545
 20
1234.3319499958559
 30
0.0
 11
723.17761760185522
 21
1174.2819499958559
 31
0.0
  0
LINE
  5
8F
  8
CRS
 10
672.14209700720721
 20
1204.306949995856
 30
0.0
 11
734.14133812837315
 21
1204.306949995856
 31
0.0
  0
LINE
  5
90
  8
DRG
 10
723.17761760185545
 20
1174.2819499958559
 30
0.0
 11
723.17761760185522
 21
1162.39797539964
 31
0.0
  0
LINE
  5
91
  8
DRG
 10
697.17761760185567
 20
1242.3319499958559
 30
0.0
 11
723.17761760185567
 21
1242.3319499958559
 31
0.0
  0
ARC
  5
92
  8
DRG
 10
677.17761760185545
 20
1296.306949995856
 30
0.0
 40
14.0
 50
0.0
 51
89.999999999999986
  0
LINE
  5
93
  8
DRG
 10
691.17761760185556
 20
1296.306949995856
 30
0.0
 11
691.17761760185556
 21
1248.3319499958559
 31
0.0
  0
ARC
  5
94
  8
DRG
 10
697.17761760185567
 20
1248.3319499958559
 30
0.0
 40
6.0
 50
180.0
 51
270.0
  0
LINE
  5
95
  8
DRG
 10
585.17761760185545
 20
1310.306949995856
 30
0.0
 11
677.17761760185545
 21
1310.306949995856
 31
0.0
  0
LINE
  5
96
  8
DRG
 10
591.17761760185545
 20
1328.606949995856
 30
0.0
 11
591.17761760185545
 21
1316.306949995856
 31
0.0
  0
ARC
  5
97
  8
DRG
 10
597.17761760185545
 20
1316.306949995856
 30
0.0
 40
6.0
 50
180.0
 51
270.0
  0
LINE
  5
98
  8
DRG
 10
585.17761760185545
 20
1334.606949995856
 30
0.0
 11
596.17761760185545
 21
1334.606949995856
 31
0.0
  0
ARC
  5
99
  8
DRG
 10
597.17761760185545
 20
1328.606949995856
 30
0.0
 40
6.0
 50
99.594068226853935
 51
180.0
  0
LINE
  5
9A
  8
DRG
 10
596.17761760185545
 20
1341.606949995856
 30
0.0
 11
596.17761760185545
 21
1334.523029778959
 31
0.0
  0
LINE
  5
9B
  8
DRG
 10
723.17761760185545
 20
1242.3319499958559
 30
0.0
 11
723.17761760185545
 21
1234.3319499958559
 31
0.0
  0
LINE
  5
9C
  8
DRG
 10
585.12128827703214
 20
1455.606949995856
 30
0.0
 11
596.17761760185545
 21
1455.606949995856
 31
0.0
  0
LINE
  5
9D
  8
DRG
 10
596.17761760185545
 20
1455.606949995856
 30
0.0
 11
596.17761760185545
 21
1448.606949995856
 31
0.0
  0
ARC
  5
9E
  8
DRG
 10
1370.6451614324869
 20
941.50694999585619
 30
0.0
 40
260.0
 50
90.0
 51
270.0
  0
LINE
  5
9F
  8
CRS
 10
1370.6451614324869
 20
1486.313194026231
 30
0.0
 11
1370.6451614324869
 21
677.17347961716973
 31
0.0
  0
LINE
  5
A0
  8
CRS
 10
1102.1263000303279
 20
941.50694999585619
 30
0.0
 11
1390.734717820691
 21
941.50694999585619
 31
0.0
  0
LINE
  5
A1
  8
CRS
 10
1260.651795510177
 20
1204.306949995856
 30
0.0
 11
1382.5895786710921
 21
1204.306949995856
 31
0.0
  0
LINE
  5
A2
  8
DRG
 10
1298.1451614324869
 20
1449.606949995856
 30
0.0
 11
1298.1451614324869
 21
1340.606949995856
 31
0.0
  0
ARC
  5
A3
  8
DRG
 10
1370.6451614324869
 20
1204.306949995856
 30
0.0
 40
40.0
 50
90.0
 51
181.0044622775481
  0
LINE
  5
A4
  8
DRG
 10
1316.1451614324869
 20
1322.606949995856
 30
0.0
 11
1360.6451614324869
 21
1322.606949995856
 31
0.0
  0
ARC
  5
A5
  8
DRG
 10
1360.6451614324869
 20
1316.606949995856
 30
0.0
 40
6.0
 50
0.0
 51
90.0
  0
LINE
  5
A6
  8
DRG
 10
1360.6451614324869
 20
1322.606949995856
 30
0.0
 11
1370.6451614324869
 21
1322.606949995856
 31
0.0
  0
ARC
  5
A7
  8
DRG
 10
1316.1451614324869
 20
1340.606949995856
 30
0.0
 40
18.0
 50
180.0
 51
270.0
  0
ARC
  5
A8
  8
DRG
 10
1370.6451614324869
 20
1395.106949995856
 30
0.0
 40
82.0
 50
90.0
 51
117.853347826968
  0
LINE
  5
A9
  8
DRG
 10
1316.1451614324869
 20
1467.606949995856
 30
0.0
 11
1370.6451614324869
 21
1467.606949995856
 31
0.0
  0
ARC
  5
AA
  8
DRG
 10
1316.1451614324869
 20
1449.606949995856
 30
0.0
 40
18.0
 50
90.0
 51
180.0
  0
ARC
  5
AB
  8
DRG
 10
1370.6451614324869
 20
1204.306949995856
 30
0.0
 40
106.0
 50
95.122516099780952
 51
180.0
  0
LINE
  5
AC
  8
DRG
 10
1264.6451614324869
 20
1204.306949995856
 30
0.0
 11
1264.6451614324869
 21
1182.778581150453
 31
0.0
  0
ARC
  5
AD
  8
DRG
 10
1258.6451614324869
 20
1182.778581150453
 30
0.0
 40
6.0
 50
294.90106237036571
 51
0.0
  0
ARC
  5
AE
  8
DRG
 10
1324.6522301188279
 20
1203.500557301792
 30
0.0
 40
6.0
 50
279.9568090743611
 51
1.0044622775487451
  0
ARC
  5
AF
  8
DRG
 10
1360.6451614324869
 20
1315.859628134931
 30
0.0
 40
6.0
 50
275.12251609978023
 51
0.0
  0
LINE
  5
B0
  8
DRG
 10
1366.6451614324869
 20
1316.606949995856
 30
0.0
 11
1366.6451614324869
 21
1315.859628134931
 31
0.0
  0
LINE
  5
B1
  8
CRS
 10
1231.527106054077
 20
1145.2244136556999
 30
0.0
 11
1237.527106054077
 21
1145.2244136556999
 31
0.0
  0
LINE
  5
B2
  8
CRS
 10
1234.527106054077
 20
1142.2244136556999
 30
0.0
 11
1234.527106054077
 21
1148.2244136556999
 31
0.0
  0
LINE
  5
B3
  8
CRS
 10
1240.527106054077
 20
1145.2244136556999
 30
0.0
 11
1247.9554135825149
 21
1145.2244136556999
 31
0.0
  0
LINE
  5
B4
  8
CRS
 10
1234.527106054077
 20
1151.2244136556999
 30
0.0
 11
1234.527106054077
 21
1158.652721184138
 31
0.0
  0
LINE
  5
B5
  8
CRS
 10
1228.527106054077
 20
1145.2244136556999
 30
0.0
 11
1221.098798525639
 21
1145.2244136556999
 31
0.0
  0
LINE
  5
B6
  8
CRS
 10
1234.527106054077
 20
1139.2244136556999
 30
0.0
 11
1234.527106054077
 21
1131.796106127262
 31
0.0
  0
ARC
  5
B7
  8
DRG
 10
1370.6451614324869
 20
1204.306949995856
 30
0.0
 40
178.0
 50
149.79173236212989
 51
172.1395094412982
  0
LINE
  5
B8
  8
DRG
 10
1298.1451614324869
 20
1433.5558130242839
 30
0.0
 11
1216.817168331193
 21
1293.866698423529
 31
0.0
  0
LINE
  5
B9
  8
DRG
 10
1194.3176484807141
 20
1228.650494853624
 30
0.0
 11
1178.9205792815881
 21
1117.1249576119969
 31
0.0
  0
ARC
  5
BA
  8
DRG
 10
561.17761760185488
 20
1111.1249576119969
 30
0.0
 40
6.0
 50
90.0
 51
180.00000000000011
  0
ARC
  5
BB
  8
DRG
 10
689.17761760185545
 20
1240.338665999798
 30
0.0
 40
6.0
 50
90.0
 51
180.0
  0
ARC
  5
BC
  8
DRG
 10
573.17761760185545
 20
1123.1249576119969
 30
0.0
 40
6.0
 50
270.0
 51
0.0
  0
ARC
  5
BD
  8
DRG
 10
443.17761760185539
 20
830.55061900407088
 30
0.0
 40
6.0
 50
270.0
 51
0.0
  0
ARC
  5
BE
  8
DRG
 10
1370.6451614324869
 20
1395.106949995856
 30
0.0
 40
40.0
 50
90.0
 51
270.0
  0
LINE
  5
BF
  8
CRS
  6
BYBLOCK
 10
1321.1476867494291
 20
1438.604424678914
 30
0.0
 11
1321.1476867494291
 21
1431.354424678914
 31
0.0
  0
POLYLINE
  5
C0
  8
DRG2
 66
     1
 10
0.0
 20
0.0
 30
0.0
 70
     1
  0
VERTEX
  5
C1
  8
DRG2
 10
1318.260935403481
 20
1449.604424678914
 30
0.0
  0
VERTEX
  5
C2
  8
DRG2
 10
1315.3741840575331
 20
1444.604424678914
 30
0.0
  0
VERTEX
  5
C3
  8
DRG2
 10
1318.260935403481
 20
1439.604424678914
 30
0.0
  0
VERTEX
  5
C4
  8
DRG2
 10
1324.034438095377
 20
1439.604424678914
 30
0.0
  0
VERTEX
  5
C5
  8
DRG2
 10
1326.9211894413249
 20
1444.604424678914
 30
0.0
  0
VERTEX
  5
C6
  8
DRG2
 10
1324.034438095377
 20
1449.604424678914
 30
0.0
  0
SEQEND
  5
C7
  8
DRG2
  0
LINE
  5
C8
  8
CRS
  6
BYBLOCK
 10
1318.1476867494291
 20
1444.604424678914
 30
0.0
 11
1324.1476867494291
 21
1444.604424678914
 31
0.0
  0
CIRCLE
  5
C9
  8
DRG2
 10
1321.1476867494291
 20
1444.604424678914
 30
0.0
 40
8.1349999999999998
  0
CIRCLE
  5
CA
  8
DRG2
 10
1321.1476867494291
 20
1444.604424678914
 30
0.0
 40
9.1349999999999998
  0
ARC
  5
CB
  8
DRG
 10
1315.6451614324869
 20
1450.106949995856
 30
0.0
 40
5.0
 50
90.0
 51
180.0
  0
LINE
  5
CC
  8
CRS
  6
BYBLOCK
 10
1315.1476867494291
 20
1444.604424678914
 30
0.0
 11
1307.897686749428
 21
1444.604424678914
 31
0.0
  0
LINE
  5
CD
  8
CRS
  6
BYBLOCK
 10
1321.1476867494291
 20
1441.604424678914
 30
0.0
 11
1321.1476867494291
 21
1447.604424678914
 31
0.0
  0
LINE
  5
CE
  8
CRS
  6
BYBLOCK
 10
1327.1476867494291
 20
1444.604424678914
 30
0.0
 11
1334.3976867494291
 21
1444.604424678914
 31
0.0
  0
LINE
  5
CF
  8
DRG
 10
1315.6451614324869
 20
1455.1069499958551
 30
0.0
 11
1370.6451614324869
 21
1455.1069499958551
 31
0.0
  0
LINE
  5
D0
  8
DRG
 10
1310.6451614324869
 20
1450.106949995856
 30
0.0
 11
1310.6451614324869
 21
1340.106949995856
 31
0.0
  0
POLYLINE
  5
D1
  8
DRG2
 66
     1
 10
0.0
 20
0.0
 30
0.0
 70
     1
  0
VERTEX
  5
D2
  8
DRG2
 10
1318.260935403481
 20
1340.6094753127979
 30
0.0
  0
VERTEX
  5
D3
  8
DRG2
 10
1315.3741840575331
 20
1345.6094753127979
 30
0.0
  0
VERTEX
  5
D4
  8
DRG2
 10
1318.260935403481
 20
1350.6094753127979
 30
0.0
  0
VERTEX
  5
D5
  8
DRG2
 10
1324.034438095377
 20
1350.6094753127979
 30
0.0
  0
VERTEX
  5
D6
  8
DRG2
 10
1326.9211894413249
 20
1345.6094753127979
 30
0.0
  0
VERTEX
  5
D7
  8
DRG2
 10
1324.034438095377
 20
1340.6094753127979
 30
0.0
  0
SEQEND
  5
D8
  8
DRG2
  0
LINE
  5
D9
  8
CRS
  6
BYBLOCK
 10
1321.1476867494291
 20
1348.6094753127979
 30
0.0
 11
1321.1476867494291
 21
1342.6094753127979
 31
0.0
  0
CIRCLE
  5
DA
  8
DRG2
 10
1321.1476867494291
 20
1345.6094753127979
 30
0.0
 40
9.1349999999999998
  0
CIRCLE
  5
DB
  8
DRG2
 10
1321.1476867494291
 20
1345.6094753127979
 30
0.0
 40
8.1349999999999998
  0
ARC
  5
DC
  8
DRG
 10
1315.6451614324869
 20
1340.106949995856
 30
0.0
 40
5.0
 50
180.0
 51
270.0
  0
LINE
  5
DD
  8
CRS
  6
BYBLOCK
 10
1321.1476867494291
 20
1339.6094753127979
 30
0.0
 11
1321.1476867494291
 21
1332.359475312797
 31
0.0
  0
LINE
  5
DE
  8
CRS
  6
BYBLOCK
 10
1318.1476867494291
 20
1345.6094753127979
 30
0.0
 11
1324.1476867494291
 21
1345.6094753127979
 31
0.0
  0
LINE
  5
DF
  8
CRS
  6
BYBLOCK
 10
1315.1476867494291
 20
1345.6094753127979
 30
0.0
 11
1307.897686749428
 21
1345.6094753127979
 31
0.0
  0
LINE
  5
E0
  8
CRS
  6
BYBLOCK
 10
1321.1476867494291
 20
1351.809475312798
 30
0.0
 11
1321.1476867494291
 21
1359.059475312798
 31
0.0
  0
LINE
  5
E1
  8
CRS
  6
BYBLOCK
 10
1327.1476867494291
 20
1345.6094753127979
 30
0.0
 11
1334.3976867494291
 21
1345.6094753127979
 31
0.0
  0
LINE
  5
E2
  8
DRG
 10
1315.6451614324869
 20
1335.106949995856
 30
0.0
 11
1358.6451614324869
 21
1335.106949995856
 31
0.0
  0
LINE
  5
E3
  8
DRG
 10
1358.6451614324869
 20
1335.106949995856
 30
0.0
 11
1370.6451614324869
 21
1335.106949995856
 31
0.0
  0
LINE
  5
E4
  8
CRS
  6
BYBLOCK
 10
1321.1476867494291
 20
1450.604424678914
 30
0.0
 11
1321.1476867494291
 21
1457.854424678914
 31
0.0
  0
LINE
  5
E5
  8
DRG
 10
263.67761760185522
 20
1370.106949995856
 30
0.0
 11
411.17761760185522
 21
1370.1069499958551
 31
0.0
  0
LINE
  5
E6
  8
DRG
 10
263.67761760185471
 20
1420.106949995856
 30
0.0
 11
411.17761760185522
 21
1420.1069499958551
 31
0.0
  0
LINE
  5
E7
  8
DRG2
 10
417.17761760185522
 20
1435.474424678913
 30
0.0
 11
406.17761760185522
 21
1435.474424678913
 31
0.0
  0
LINE
  5
E8
  8
DRG2
 10
417.17761760185522
 20
1453.734424678913
 30
0.0
 11
406.17761760185522
 21
1453.734424678913
 31
0.0
  0
LINE
  5
E9
  8
DRG2
 10
417.17761760185522
 20
1354.739475312796
 30
0.0
 11
406.17761760185522
 21
1354.739475312796
 31
0.0
  0
LINE
  5
EA
  8
DRG2
 10
417.17761760185522
 20
1336.479475312796
 30
0.0
 11
406.17761760185522
 21
1336.479475312796
 31
0.0
  0
LINE
  5
EB
  8
CRS
 10
422.23022009049731
 20
1444.6044246789129
 30
0.0
 11
397.60944786767141
 21
1444.6044246789129
 31
0.0
  0
LINE
  5
EC
  8
CRS
 10
422.23022009049731
 20
1345.6094753127959
 30
0.0
 11
397.60944786767141
 21
1345.6094753127959
 31
0.0
  0
LINE
  5
ED
  8
DRG2
 10
263.67761760185471
 20
1420.106949995856
 30
0.0
 11
263.67761760185522
 21
1370.106949995856
 31
0.0
  0
LINE
  5
EE
  8
DRG
 10
262.17761760185471
 20
1418.606949995856
 30
0.0
 11
262.17761760185522
 21
1371.606949995856
 31
0.0
  0
LINE
  5
EF
  8
DRG
 10
262.17761760185522
 20
1371.606949995856
 30
0.0
 11
263.67761760185522
 21
1370.106949995856
 31
0.0
  0
LINE
  5
F0
  8
DRG
 10
267.17761760185488
 20
1423.5069499958561
 30
0.0
 11
322.17761760185499
 21
1423.5069499958561
 31
0.0
  0
LINE
  5
F1
  8
DRG
 10
263.67761760185471
 20
1420.106949995856
 30
0.0
 11
262.17761760185471
 21
1418.606949995856
 31
0.0
  0
LINE
  5
F2
  8
DRG
 10
267.17761760185488
 20
1423.5069499958561
 30
0.0
 11
267.17761760185488
 21
1420.106949995856
 31
0.0
  0
LINE
  5
F3
  8
DRG
 10
322.17761760185499
 20
1423.5069499958561
 30
0.0
 11
322.17761760185499
 21
1420.106949995856
 31
0.0
  0
LINE
  5
F4
  8
DRG2
 10
406.17761760185522
 20
1336.479475312796
 30
0.0
 11
406.17761760185522
 21
1354.739475312796
 31
0.0
  0
LINE
  5
F5
  8
DRG2
 10
405.17761760185522
 20
1337.479475312796
 30
0.0
 11
405.17761760185522
 21
1353.739475312796
 31
0.0
  0
LINE
  5
F6
  8
DRG2
 10
406.17761760185522
 20
1336.479475312796
 30
0.0
 11
405.17761760185522
 21
1337.479475312796
 31
0.0
  0
LINE
  5
F7
  8
DRG2
 10
405.17761760185522
 20
1353.739475312796
 30
0.0
 11
406.17761760185522
 21
1354.739475312796
 31
0.0
  0
LINE
  5
F8
  8
DRG2
 10
406.17761760185522
 20
1435.474424678913
 30
0.0
 11
405.17761760185522
 21
1436.474424678913
 31
0.0
  0
LINE
  5
F9
  8
DRG2
 10
405.17761760185522
 20
1452.734424678913
 30
0.0
 11
406.17761760185522
 21
1453.734424678913
 31
0.0
  0
LINE
  5
FA
  8
DRG2
 10
405.17761760185522
 20
1436.474424678913
 30
0.0
 11
405.17761760185522
 21
1452.734424678913
 31
0.0
  0
LINE
  5
FB
  8
DRG2
 10
406.17761760185522
 20
1435.474424678913
 30
0.0
 11
406.17761760185522
 21
1453.734424678913
 31
0.0
  0
LINE
  5
FC
  8
DRG
 10
411.17761760185522
 20
1435.1069499958551
 30
0.0
 11
411.17761760185522
 21
1355.1069499958551
 31
0.0
  0
LINE
  5
FD
  8
DRG
 10
417.17761760185522
 20
1455.1069499958551
 30
0.0
 11
417.17761760185522
 21
1335.1069499958551
 31
0.0
  0
LINE
  5
FE
  8
DRG
 10
417.17761760185522
 20
1335.1069499958551
 30
0.0
 11
432.17761760185522
 21
1335.1069499958551
 31
0.0
  0
LINE
  5
FF
  8
DRG
 10
411.17761760185522
 20
1355.1069499958551
 30
0.0
 11
417.17761760185522
 21
1355.1069499958551
 31
0.0
  0
LINE
  5
100
  8
DRG
 10
417.17761760185522
 20
1455.1069499958551
 30
0.0
 11
432.17761760185522
 21
1455.1069499958551
 31
0.0
  0
LINE
  5
101
  8
DRG
 10
411.17761760185522
 20
1435.1069499958551
 30
0.0
 11
417.17761760185522
 21
1435.1069499958551
 31
0.0
  0
LINE
  5
102
  8
CRS
 10
606.12501511321204
 20
1444.604424678914
 30
0.0
 11
630.74578733603812
 21
1444.604424678914
 31
0.0
  0
LINE
  5
103
  8
DRG
 10
617.17761760185431
 20
1435.106949995856
 30
0.0
 11
617.17761760185601
 21
1355.106949995856
 31
0.0
  0
LINE
  5
104
  8
DRG
 10
611.17761760185385
 20
1455.106949995856
 30
0.0
 11
611.17761760185647
 21
1335.106949995856
 31
0.0
  0
LINE
  5
105
  8
DRG
 10
596.17761760185397
 20
1455.106949995856
 30
0.0
 11
611.17761760185385
 21
1455.106949995856
 31
0.0
  0
LINE
  5
106
  8
DRG2
 10
622.17761760185431
 20
1453.7344246789139
 30
0.0
 11
623.17761760185419
 21
1452.734424678913
 31
0.0
  0
LINE
  5
107
  8
DRG2
 10
611.17761760185431
 20
1453.734424678913
 30
0.0
 11
622.17761760185431
 21
1453.7344246789139
 31
0.0
  0
LINE
  5
108
  8
DRG2
 10
623.17761760185419
 20
1436.474424678913
 30
0.0
 11
622.17761760185431
 21
1435.474424678913
 31
0.0
  0
LINE
  5
109
  8
DRG2
 10
611.17761760185431
 20
1435.474424678913
 30
0.0
 11
622.17761760185431
 21
1435.474424678913
 31
0.0
  0
LINE
  5
10A
  8
DRG2
 10
623.17761760185419
 20
1452.734424678913
 30
0.0
 11
623.17761760185419
 21
1436.474424678913
 31
0.0
  0
LINE
  5
10B
  8
DRG2
 10
622.17761760185431
 20
1453.7344246789139
 30
0.0
 11
622.17761760185431
 21
1435.474424678913
 31
0.0
  0
LINE
  5
10C
  8
DRG
 10
611.17761760185431
 20
1435.106949995856
 30
0.0
 11
617.17761760185431
 21
1435.106949995856
 31
0.0
  0
LINE
  5
10D
  8
CRS
 10
606.12501511321204
 20
1345.6094753127959
 30
0.0
 11
630.74578733603812
 21
1345.6094753127959
 31
0.0
  0
LINE
  5
10E
  8
DRG2
 10
622.17761760185431
 20
1354.7394753127969
 30
0.0
 11
622.17761760185431
 21
1336.479475312796
 31
0.0
  0
LINE
  5
10F
  8
DRG2
 10
623.17761760185419
 20
1353.7394753127969
 30
0.0
 11
623.17761760185419
 21
1337.479475312796
 31
0.0
  0
LINE
  5
110
  8
DRG
 10
596.17761760185681
 20
1335.106949995856
 30
0.0
 11
611.17761760185647
 21
1335.106949995856
 31
0.0
  0
LINE
  5
111
  8
DRG2
 10
623.17761760185419
 20
1337.479475312796
 30
0.0
 11
622.17761760185431
 21
1336.479475312796
 31
0.0
  0
LINE
  5
112
  8
DRG2
 10
611.17761760185431
 20
1336.479475312796
 30
0.0
 11
622.17761760185431
 21
1336.479475312796
 31
0.0
  0
LINE
  5
113
  8
DRG2
 10
622.17761760185431
 20
1354.7394753127969
 30
0.0
 11
623.17761760185419
 21
1353.7394753127969
 31
0.0
  0
LINE
  5
114
  8
DRG2
 10
611.17761760185431
 20
1354.739475312796
 30
0.0
 11
622.17761760185431
 21
1354.7394753127969
 31
0.0
  0
LINE
  5
115
  8
DRG
 10
611.17761760185613
 20
1355.106949995856
 30
0.0
 11
617.17761760185601
 21
1355.106949995856
 31
0.0
  0
CIRCLE
  5
116
  8
DRG2
 10
1234.527106054077
 20
1145.2244136556999
 30
0.0
 40
12.16499999999999
  0
CIRCLE
  5
117
  8
DRG2
 10
1234.527106054077
 20
1145.2244136556999
 30
0.0
 40
11.164999999999999
  0
POLYLINE
  5
118
  8
DRG2
 66
     1
 10
0.0
 20
0.0
 30
0.0
 70
     1
  0
VERTEX
  5
119
  8
DRG2
 10
1230.4856541697491
 20
1152.2244136556999
 30
0.0
  0
VERTEX
  5
11A
  8
DRG2
 10
1226.4442022854221
 20
1145.2244136556999
 30
0.0
  0
VERTEX
  5
11B
  8
DRG2
 10
1230.4856541697491
 20
1138.2244136556999
 30
0.0
  0
VERTEX
  5
11C
  8
DRG2
 10
1238.568557938404
 20
1138.2244136556999
 30
0.0
  0
VERTEX
  5
11D
  8
DRG2
 10
1242.6100098227309
 20
1145.2244136556999
 30
0.0
  0
VERTEX
  5
11E
  8
DRG2
 10
1238.568557938404
 20
1152.2244136556999
 30
0.0
  0
SEQEND
  5
11F
  8
DRG2
  0
POLYLINE
  5
120
  8
DRG2
 66
     1
 10
0.0
 20
0.0
 30
0.0
 70
     1
  0
VERTEX
  5
121
  8
DRG2
 10
1126.30370954816
 20
996.30694999585614
 30
0.0
  0
VERTEX
  5
122
  8
DRG2
 10
1122.2622576638321
 20
989.30694999585614
 30
0.0
  0
VERTEX
  5
123
  8
DRG2
 10
1126.30370954816
 20
982.30694999585614
 30
0.0
  0
VERTEX
  5
124
  8
DRG2
 10
1134.3866133168151
 20
982.30694999585614
 30
0.0
  0
VERTEX
  5
125
  8
DRG2
 10
1138.4280652011421
 20
989.30694999585614
 30
0.0
  0
VERTEX
  5
126
  8
DRG2
 10
1134.3866133168151
 20
996.30694999585614
 30
0.0
  0
SEQEND
  5
127
  8
DRG2
  0
CIRCLE
  5
128
  8
DRG2
 10
1130.345161432487
 20
989.30694999585614
 30
0.0
 40
11.164999999999999
  0
CIRCLE
  5
129
  8
DRG2
 10
1130.345161432487
 20
989.30694999585614
 30
0.0
 40
12.16499999999999
  0
POLYLINE
  5
12A
  8
DRG2
 66
     1
 10
0.0
 20
0.0
 30
0.0
 70
     1
  0
VERTEX
  5
12B
  8
DRG2
 10
1162.886245888315
 20
812.38889461744566
 30
0.0
  0
VERTEX
  5
12C
  8
DRG2
 10
1158.844794003988
 20
805.38889461744554
 30
0.0
  0
VERTEX
  5
12D
  8
DRG2
 10
1162.886245888315
 20
798.38889461744554
 30
0.0
  0
VERTEX
  5
12E
  8
DRG2
 10
1170.9691496569701
 20
798.38889461744554
 30
0.0
  0
VERTEX
  5
12F
  8
DRG2
 10
1175.0106015412971
 20
805.38889461744554
 30
0.0
  0
VERTEX
  5
130
  8
DRG2
 10
1170.9691496569701
 20
812.38889461744566
 30
0.0
  0
SEQEND
  5
131
  8
DRG2
  0
CIRCLE
  5
132
  8
DRG2
 10
1166.927697772642
 20
805.38889461744554
 30
0.0
 40
11.164999999999999
  0
CIRCLE
  5
133
  8
DRG2
 10
1166.927697772642
 20
805.38889461744554
 30
0.0
 40
12.16499999999999
  0
POLYLINE
  5
134
  8
DRG2
 66
     1
 10
0.0
 20
0.0
 30
0.0
 70
     1
  0
VERTEX
  5
135
  8
DRG2
 10
1318.80370954816
 20
708.20694999585612
 30
0.0
  0
VERTEX
  5
136
  8
DRG2
 10
1314.762257663833
 20
701.20694999585612
 30
0.0
  0
VERTEX
  5
137
  8
DRG2
 10
1318.80370954816
 20
694.20694999585612
 30
0.0
  0
VERTEX
  5
138
  8
DRG2
 10
1326.8866133168151
 20
694.20694999585612
 30
0.0
  0
VERTEX
  5
139
  8
DRG2
 10
1330.9280652011421
 20
701.20694999585612
 30
0.0
  0
VERTEX
  5
13A
  8
DRG2
 10
1326.8866133168151
 20
708.20694999585612
 30
0.0
  0
SEQEND
  5
13B
  8
DRG2
  0
CIRCLE
  5
13C
  8
DRG2
 10
1322.845161432487
 20
701.20694999585612
 30
0.0
 40
11.164999999999999
  0
CIRCLE
  5
13D
  8
DRG2
 10
1322.845161432487
 20
701.20694999585612
 30
0.0
 40
12.16499999999999
  0
LINE
  5
13E
  8
CRS
 10
1130.345161432487
 20
995.30694999585603
 30
0.0
 11
1130.345161432487
 21
1002.735257524293
 31
0.0
  0
LINE
  5
13F
  8
CRS
 10
1130.345161432487
 20
986.30694999585614
 30
0.0
 11
1130.345161432487
 21
992.30694999585614
 31
0.0
  0
LINE
  5
140
  8
CRS
 10
1130.345161432487
 20
983.30694999585614
 30
0.0
 11
1130.345161432487
 21
975.87864246741844
 31
0.0
  0
LINE
  5
141
  8
CRS
 10
1136.345161432487
 20
989.30694999585614
 30
0.0
 11
1143.7734689609249
 21
989.30694999585614
 31
0.0
  0
LINE
  5
142
  8
CRS
 10
1127.345161432487
 20
989.30694999585614
 30
0.0
 11
1133.345161432487
 21
989.30694999585614
 31
0.0
  0
LINE
  5
143
  8
CRS
 10
1124.345161432487
 20
989.30694999585614
 30
0.0
 11
1116.916853904049
 21
989.30694999585614
 31
0.0
  0
LINE
  5
144
  8
CRS
 10
1166.927697772642
 20
811.38889461744566
 30
0.0
 11
1166.927697772642
 21
818.81720214588336
 31
0.0
  0
LINE
  5
145
  8
CRS
 10
1166.927697772642
 20
802.38889461744566
 30
0.0
 11
1166.927697772642
 21
808.38889461744554
 31
0.0
  0
LINE
  5
146
  8
CRS
 10
1166.927697772642
 20
799.38889461744566
 30
0.0
 11
1166.927697772642
 21
791.96058708900784
 31
0.0
  0
LINE
  5
147
  8
CRS
 10
1172.927697772642
 20
805.38889461744554
 30
0.0
 11
1180.3560053010799
 21
805.38889461744554
 31
0.0
  0
LINE
  5
148
  8
CRS
 10
1163.927697772642
 20
805.38889461744554
 30
0.0
 11
1169.927697772642
 21
805.38889461744554
 31
0.0
  0
LINE
  5
149
  8
CRS
 10
1160.927697772642
 20
805.38889461744554
 30
0.0
 11
1153.499390244205
 21
805.38889461744554
 31
0.0
  0
LINE
  5
14A
  8
CRS
 10
1322.845161432487
 20
707.20694999585612
 30
0.0
 11
1322.845161432487
 21
714.63525752429371
 31
0.0
  0
LINE
  5
14B
  8
CRS
 10
1322.845161432487
 20
698.20694999585612
 30
0.0
 11
1322.845161432487
 21
704.20694999585612
 31
0.0
  0
LINE
  5
14C
  8
CRS
 10
1322.845161432487
 20
695.20694999585612
 30
0.0
 11
1322.845161432487
 21
687.77864246741842
 31
0.0
  0
LINE
  5
14D
  8
CRS
 10
1328.845161432487
 20
701.20694999585612
 30
0.0
 11
1336.2734689609249
 21
701.20694999585612
 31
0.0
  0
LINE
  5
14E
  8
CRS
 10
1319.845161432487
 20
701.20694999585612
 30
0.0
 11
1325.845161432487
 21
701.20694999585612
 31
0.0
  0
LINE
  5
14F
  8
CRS
 10
1316.845161432487
 20
701.20694999585612
 30
0.0
 11
1309.41685390405
 21
701.20694999585612
 31
0.0
  0
LINE
  5
150
  8
CRS
 10
1290.761073617575
 20
1395.106949995856
 30
0.0
 11
1390.734717820691
 21
1395.106949995856
 31
0.0
  0
ARC
  5
151
  8
DRG
 10
1370.6451614324869
 20
941.50694999585619
 30
0.0
 40
150.0
 50
127.2474200261664
 51
142.75411427567701
  0
LINE
  5
152
  8
DRG
 10
1299.683592338338
 20
1152.0124668159531
 30
0.0
 11
1306.6414328675869
 21
1135.2153899657619
 31
0.0
  0
ARC
  5
153
  8
DRG
 10
1348.3830179545639
 20
1104.9982248938411
 30
0.0
 40
15.0
 50
202.5007671509214
 51
277.75411427567701
  0
LINE
  5
154
  8
DRG
 10
1277.5805524013249
 20
1095.624163329983
 30
0.0
 11
1284.635683763815
 21
1078.5922145254981
 31
0.0
  0
ARC
  5
155
  8
DRG
 10
1302.525161432487
 20
1105.9569499958559
 30
0.0
 40
27.0
 50
22.50076715092133
 51
202.5007671509214
  0
ARC
  5
156
  8
DRG
 10
1270.7775676353911
 20
1072.8517774889019
 30
0.0
 40
15.0
 50
307.24742002616631
 51
22.500767150921391
  0
ARC
  5
157
  8
DRG
 10
1273.38195415937
 20
1121.4383410779319
 30
0.0
 40
6.0
 50
332.02196350956211
 51
22.500767150920751
  0
SOLID
  5
158
  8
DIM
 10
1289.814158704954
 20
1126.998336478021
 30
0.0
 11
1293.3958508941339
 21
1128.7792017345639
 31
0.0
 12
1296.9476005691761
 22
1117.143692538752
 32
0.0
 13
1296.9476005691761
 23
1117.143692538752
 33
0.0
  0
LINE
  5
159
  8
DRG
 10
1271.9673600814911
 20
1140.5315927427609
 30
0.0
 11
1278.9252006107399
 21
1123.73451589257
 31
0.0
  0
ARC
  5
15A
  8
DRG
 10
1266.4241136301209
 20
1138.2354179281219
 30
0.0
 40
6.0
 50
22.500767150921341
 51
117.9133477884544
  0
LINE
  5
15B
  8
CRS
 10
1284.9018477587069
 20
1105.7718198381051
 30
0.0
 11
1320.3018477586979
 21
1105.7718198381051
 31
0.0
  0
LINE
  5
15C
  8
CRS
 10
1302.601847758702
 20
1088.0718198381089
 30
0.0
 11
1302.601847758702
 21
1123.4718198380999
 31
0.0
  0
LINE
  5
15D
  8
DRG
 10
1327.4697704636501
 20
1116.289736661729
 30
0.0
 11
1334.52490182614
 21
1099.257787857244
 31
0.0
  0
ARC
  5
15E
  8
DRG
 10
1312.1846793189559
 20
1137.5115647804009
 30
0.0
 40
6.0
 50
202.50076715092169
 51
252.97957079227999
  0
ARC
  5
15F
  8
DRG
 10
1305.2268387897079
 20
1154.308641630591
 30
0.0
 40
6.0
 50
107.0881865133879
 51
202.50076715092129
  0
ARC
  5
160
  8
DRG
 10
1370.6451614324869
 20
941.50694999585619
 30
0.0
 40
140.0
 50
89.999999999999943
 51
270.0
  0
ARC
  5
161
  8
DRG
 10
1370.6451614324869
 20
941.50694999585619
 30
0.0
 40
150.0
 50
89.999999999999957
 51
97.754114275677054
  0
LINE
  5
162
  8
DIM
 10
1411.801708331117
 20
911.64343023591027
 30
0.0
 11
1147.60272024235
 21
1103.348330085252
 31
0.0
  0
SOLID
  5
163
  8
DIM
 10
1213.2609120129771
 20
1053.235182930322
 30
0.0
 11
1215.610072344246
 21
1056.472689028848
 31
0.0
 12
1204.722973883034
 22
1061.9014169733921
 32
0.0
 13
1204.722973883034
 23
1061.9014169733921
 33
0.0
  0
ARC
  5
164
  8
DRG
 10
1370.6451614324869
 20
941.50694999585619
 30
0.0
 40
80.0
 50
89.999999999999915
 51
270.00000000000011
  0
SOLID
  5
165
  8
DIM
 10
1393.5512519055969
 20
927.35714527278765
 30
0.0
 11
1391.2020915743281
 21
924.11963917426147
 31
0.0
 12
1402.08919003554
 22
918.69091122971736
 32
0.0
 13
1402.08919003554
 23
918.69091122971736
 33
0.0
  0
SOLID
  5
166
  8
DIM
 10
1403.2637702011759
 20
920.30966427897977
 30
0.0
 11
1400.9146098699059
 21
917.07215818045393
 31
0.0
 12
1411.801708331119
 22
911.64343023590993
 32
0.0
 13
1411.801708331119
 23
911.64343023590993
 33
0.0
  0
LINE
  5
167
  8
DRG
 10
1171.6178763017069
 20
1040.179421706415
 30
0.0
 11
1188.4151394672349
 21
1033.2220309821801
 31
0.0
  0
LINE
  5
168
  8
DRG
 10
1216.5254560119211
 20
1034.5674319475311
 30
0.0
 11
1233.5575937369731
 21
1027.5127566796359
 31
0.0
  0
ARC
  5
169
  8
DRG
 10
1206.1933373319321
 20
1009.622546227556
 30
0.0
 40
27.0
 50
67.500767150921334
 51
247.5007671509214
  0
ARC
  5
16A
  8
DRG
 10
1174.6389812272489
 20
999.96218335554738
 30
0.0
 40
6.0
 50
17.021963509562131
 51
67.500767150920765
  0
LINE
  5
16B
  8
DRG
 10
1160.1377444350519
 20
1012.462882017554
 30
0.0
 11
1176.9350076005801
 21
1005.505491293319
 31
0.0
  0
ARC
  5
16C
  8
DRG
 10
1157.8417180617209
 20
1006.919574079782
 30
0.0
 40
6.0
 50
67.500767150921334
 51
162.91334778845439
  0
ARC
  5
16D
  8
DRG
 10
1207.153290443666
 20
963.76471539525664
 30
0.0
 40
15.0
 50
352.24742002616631
 51
67.500767150921391
  0
LINE
  5
16E
  8
DRG
 10
1195.861218651942
 20
984.67766050758155
 30
0.0
 11
1212.893356376994
 21
977.62298523968695
 31
0.0
  0
ARC
  5
16F
  8
DRG
 10
1190.7111658405661
 20
1038.765338919952
 30
0.0
 40
6.0
 50
247.50076715092169
 51
297.97957079228007
  0
ARC
  5
170
  8
DRG
 10
1239.2976596702999
 20
1041.371026524067
 30
0.0
 40
15.0
 50
247.5007671509214
 51
322.75411427567701
  0
ARC
  5
171
  8
DRG
 10
1173.9139026750379
 20
1045.722729644187
 30
0.0
 40
6.0
 50
152.0881865133878
 51
247.50076715092129
  0
ARC
  5
172
  8
DRG
 10
1207.153886534503
 20
919.24480651793249
 30
0.0
 40
15.0
 50
292.50076715092132
 51
7.7541142756770389
  0
LINE
  5
173
  8
DRG
 10
1171.6205186855821
 20
842.82914864485963
 30
0.0
 11
1188.4175955357721
 21
849.7869891741085
 31
0.0
  0
ARC
  5
174
  8
DRG
 10
1174.6405466479421
 20
883.04646788232537
 30
0.0
 40
6.0
 50
292.50076715092172
 51
342.97957079228007
  0
ARC
  5
175
  8
DRG
 10
1206.1951614324871
 20
873.38694999585607
 30
0.0
 40
27.0
 50
112.50076715092131
 51
292.50076715092138
  0
ARC
  5
176
  8
DRG
 10
1173.9166935002199
 20
837.28590219349007
 30
0.0
 40
6.0
 50
112.50076715092131
 51
207.91334778845439
  0
LINE
  5
177
  8
DRG
 10
1160.1396446123899
 20
870.54538090170718
 30
0.0
 11
1176.93672146258
 21
877.50322143095593
 31
0.0
  0
ARC
  5
178
  8
DRG
 10
1157.8434697977509
 20
876.08862735307673
 30
0.0
 40
6.0
 50
197.0881865133878
 51
292.50076715092132
  0
ARC
  5
179
  8
DRG
 10
1239.30033393944
 20
841.63935619875986
 30
0.0
 40
15.0
 50
37.247420026166367
 51
112.50076715092131
  0
LINE
  5
17A
  8
DRG
 10
1216.52794809836
 20
848.44234096469359
 30
0.0
 11
1233.559896902844
 21
855.49747232718357
 31
0.0
  0
ARC
  5
17B
  8
DRG
 10
1190.7137703504111
 20
844.24374272273906
 30
0.0
 40
6.0
 50
62.021963509562141
 51
112.50076715092069
  0
LINE
  5
17C
  8
DRG
 10
1195.862374766614
 20
898.33155902701867
 30
0.0
 11
1212.894323571099
 21
905.38669038950866
 31
0.0
  0
ARC
  5
17D
  8
DRG
 10
1370.6451614324869
 20
941.50694999585619
 30
0.0
 40
150.0
 50
172.24742002616631
 51
187.75411427567701
  0
LINE
  5
17E
  8
DRG
 10
1277.5846794808119
 20
787.38724457529042
 30
0.0
 11
1284.6393547487071
 21
804.41938230034202
 31
0.0
  0
ARC
  5
17F
  8
DRG
 10
1302.5295652007869
 20
777.05512589530065
 30
0.0
 40
27.0
 50
157.50076715092129
 51
337.50076715092138
  0
ARC
  5
180
  8
DRG
 10
1348.3873960330859
 20
778.01507900703518
 30
0.0
 40
15.0
 50
82.247420026166367
 51
157.5007671509214
  0
LINE
  5
181
  8
DRG
 10
1299.689229410789
 20
730.99953299842082
 30
0.0
 11
1306.646620135024
 21
747.79679616394856
 31
0.0
  0
ARC
  5
182
  8
DRG
 10
1266.4293817841551
 20
744.77569123840715
 30
0.0
 40
6.0
 50
242.0881865133878
 51
337.50076715092132
  0
ARC
  5
183
  8
DRG
 10
1305.232537348561
 20
728.70350662508974
 30
0.0
 40
6.0
 50
157.50076715092129
 51
252.9133477884545
  0
LINE
  5
184
  8
DRG
 10
1271.972689721928
 20
742.47966486507607
 30
0.0
 11
1278.9300804461629
 21
759.27692803060393
 31
0.0
  0
ARC
  5
185
  8
DRG
 10
1273.3867725083901
 20
761.57295440393477
 30
0.0
 40
6.0
 50
337.50076715092172
 51
27.979570792280079
  0
LINE
  5
186
  8
DRG
 10
1327.4744509207619
 20
766.7230072153111
 30
0.0
 11
1334.5291261886559
 21
783.7551449403627
 31
0.0
  0
ARC
  5
187
  8
DRG
 10
1312.1899280727951
 20
745.50076979061748
 30
0.0
 40
6.0
 50
107.0219635095621
 51
157.50076715092069
  0
ARC
  5
188
  8
DRG
 10
1270.7810849042751
 20
810.15944823366954
 30
0.0
 40
15.0
 50
337.50076715092138
 51
52.754114275677033
  0
ARC
  5
189
  8
DRG
 10
1370.6451614324869
 20
941.50694999585619
 30
0.0
 40
150.0
 50
217.24742002616631
 51
232.7541142756769
  0
ARC
  5
18A
  8
DRG
 10
1370.6451614324869
 20
941.50694999585619
 30
0.0
 40
150.0
 50
262.2474200261662
 51
270.0
  0
LINE
  5
18B
  8
DIM
 10
1118.6451614324869
 20
633.00460657921076
 30
0.0
 11
1431.424792115911
 21
633.00460657921076
 31
0.0
  0
LINE
  5
18C
  8
DIM
 10
1110.6451614324869
 20
898.68616264592924
 30
0.0
 11
1110.6451614324869
 21
631.00460657921064
 31
0.0
  0
SOLID
  5
18D
  8
DIM
 10
1122.6451614324869
 20
635.00460657921064
 30
0.0
 11
1122.6451614324869
 21
631.00460657921064
 31
0.0
 12
1110.6451614324869
 22
633.00460657921076
 32
0.0
 13
1110.6451614324869
 23
633.00460657921076
 33
0.0
  0
SOLID
  5
18E
  8
DIM
 10
1427.424792115911
 20
635.00460657921064
 30
0.0
 11
1427.424792115911
 21
631.00460657921064
 31
0.0
 12
1439.424792115911
 22
633.00460657921076
 32
0.0
 13
1439.424792115911
 23
633.00460657921076
 33
0.0
  0
SOLID
  5
18F
  8
DIM
 10
1415.424792115911
 20
635.00460657921064
 30
0.0
 11
1415.424792115911
 21
631.00460657921064
 31
0.0
 12
1427.424792115911
 22
633.00460657921076
 32
0.0
 13
1427.424792115911
 23
633.00460657921076
 33
0.0
  0
TEXT
  5
190
  8
DIM
 10
1269.6490416621409
 20
639.43060657921069
 30
0.0
 40
9.9960000000000004
  1
%%C520
 72
     4
 11
1287.0230416621409
 21
644.42860657921074
 31
0.0
  0
LINE
  5
191
  8
DIM
 10
1296.9476005691761
 20
1117.143692538752
 30
0.0
 11
1208.0681912184809
 21
1295.8987584150691
 31
0.0
  0
TEXT
  5
192
  8
DIM
 10
1044.626054927892
 20
1282.463161053648
 30
0.0
 40
9.9960000000000004
  1
HOLE DETAILS
  0
TEXT
  5
193
  8
DIM
 10
1044.626054927892
 20
1299.599161053648
 30
0.0
 40
9.9960000000000004
  1
SEE TABLE FOR
  0
TEXT
  5
194
  8
DIM
 10
925.39455955081519
 20
1210.040331500074
 30
0.0
 40
9.9960000000000004
  1

  0
ARC
  5
195
  8
DRG
 10
753.17761760185556
 20
1171.1285859607319
 30
0.0
 40
15.0
 50
180.0000000000004
 51
246.2927160848491
  0
LINE
  5
196
  8
DRG
 10
754.17761760185556
 20
1155.1300557172649
 30
0.0
 11
826.37761760185595
 21
1132.9569499958529
 31
0.0
  0
LINE
  5
197
  8
DRG
 10
754.17761760185556
 20
1139.0178446135919
 30
0.0
 11
826.37761760186265
 21
1118.623542699369
 31
0.0
  0
LINE
  5
198
  8
DRG
 10
826.37761760185595
 20
1132.9569499958529
 30
0.0
 11
826.37761760185731
 21
750.05694999585887
 31
0.0
  0
LINE
  5
199
  8
DRG
 10
831.3776176018564
 20
1049.4569499958559
 30
0.0
 11
831.37761760185685
 21
833.55694999585614
 31
0.0
  0
LINE
  5
19A
  8
DIM
 10
890.3657459747435
 20
1049.4569499958559
 30
0.0
 11
890.36574597474373
 21
833.55694999585751
 31
0.0
  0
LINE
  5
19B
  8
DRG
 10
826.37761760185606
 20
1069.3801403871689
 30
0.0
 11
753.17761760185704
 21
1069.3801403871689
 31
0.0
  0
LINE
  5
19C
  8
DIM
 10
834.38677545276039
 20
1049.4569499958559
 30
0.0
 11
892.36574597474328
 21
1049.4569499958559
 31
0.0
  0
LINE
  5
19D
  8
DRG
 10
831.37761760185617
 20
1049.4569499958559
 30
0.0
 11
826.37761760185606
 21
1049.4569499958559
 31
0.0
  0
SOLID
  5
19E
  8
DIM
 10
888.36574597474316
 20
1037.4569499958559
 30
0.0
 11
892.3657459747435
 21
1037.4569499958559
 31
0.0
 12
890.36574597474328
 22
1049.4569499958559
 32
0.0
 13
890.36574597474328
 23
1049.4569499958559
 33
0.0
  0
TEXT
  5
19F
  8
DIM
 10
906.12856954514314
 20
901.95866979948789
 30
0.0
 40
9.9960000000000004
  1
SPIGOT DIA.
 50
90.0
 72
     4
 11
901.13056954514309
 21
945.27466979948792
 31
0.0
  0
TEXT
  5
1A0
  8
DIM
 10
883.93974597474323
 20
884.2307792517903
 30
0.0
 40
9.9960000000000004
  1
SEE TABLE FOR
 50
90.0
 72
     4
 11
878.9417459747433
 21
943.01677925179024
 31
0.0
  0
LINE
  5
1A1
  8
DIM
 10
835.02538945505512
 20
833.55694999585751
 30
0.0
 11
892.36574597474362
 21
833.55694999585751
 31
0.0
  0
SOLID
  5
1A2
  8
DIM
 10
888.36574597474373
 20
845.55694999585739
 30
0.0
 11
892.36574597474362
 21
845.55694999585739
 31
0.0
 12
890.36574597474373
 22
833.55694999585751
 32
0.0
 13
890.36574597474373
 23
833.55694999585751
 33
0.0
  0
ARC
  5
1A3
  8
DRG
 10
753.17761760185681
 20
1084.3801403871689
 30
0.0
 40
15.0
 50
180.0000000000006
 51
270.0000000000004
  0
ARC
  5
1A4
  8
DRG
 10
753.17761760185681
 20
798.633759604543
 30
0.0
 40
15.0
 50
89.999999999999545
 51
179.99999999999929
  0
LINE
  5
1A5
  8
DRG
 10
826.37761760185606
 20
813.63375960454255
 30
0.0
 11
753.17761760185704
 21
813.633759604543
 31
0.0
  0
LINE
  5
1A6
  8
DRG
 10
831.37761760185708
 20
833.55694999585626
 30
0.0
 11
826.37761760185629
 21
833.55694999585614
 31
0.0
  0
ARC
  5
1A7
  8
DRG
 10
753.17761760185556
 20
711.88531403097954
 30
0.0
 40
15.0
 50
113.7072839151505
 51
179.99999999999949
  0
LINE
  5
1A8
  8
DRG
 10
754.17761760185556
 20
727.88384427444635
 30
0.0
 11
826.37761760185595
 21
750.05694999585864
 31
0.0
  0
LINE
  5
1A9
  8
DRG
 10
754.17761760185556
 20
743.99605537811965
 30
0.0
 11
826.37761760186265
 21
764.3903572923432
 31
0.0
  0
LINE
  5
1AA
  8
HID
 10
783.57761760185656
 20
1041.3869499958521
 30
0.0
 11
783.57761760185656
 21
1021.326949995852
 31
0.0
  0
LINE
  5
1AB
  8
HID
 10
756.07761760185656
 20
1041.3869499958521
 30
0.0
 11
756.07761760185656
 21
1021.326949995852
 31
0.0
  0
LINE
  5
1AC
  8
HID
 10
816.82761760185622
 20
1021.326949995852
 30
0.0
 11
816.82761760185622
 21
861.6869499958525
 31
0.0
  0
LINE
  5
1AD
  8
HID
 10
666.82761760185656
 20
1020.666949995852
 30
0.0
 11
666.82761760185656
 21
862.34694999585258
 31
0.0
  0
LINE
  5
1AE
  8
HID
 10
702.37761760185595
 20
861.6869499958525
 30
0.0
 11
756.07761760185656
 21
861.6869499958525
 31
0.0
  0
LINE
  5
1AF
  8
HID
 10
702.37761760185595
 20
864.0669499958525
 30
0.0
 11
698.37761760185595
 21
864.0669499958525
 31
0.0
  0
LINE
  5
1B0
  8
HID
 10
698.37761760185629
 20
863.58694999585248
 30
0.0
 11
666.82761760185656
 21
863.58694999585248
 31
0.0
  0
LINE
  5
1B1
  8
HID
 10
698.37761760185595
 20
862.34694999585258
 30
0.0
 11
666.82761760185656
 21
862.34694999585258
 31
0.0
  0
LINE
  5
1B2
  8
HID
 10
698.37761760185595
 20
862.34694999585258
 30
0.0
 11
698.37761760185595
 21
864.0669499958525
 31
0.0
  0
LINE
  5
1B3
  8
HID
 10
702.37761760185595
 20
861.6869499958525
 30
0.0
 11
702.37761760185595
 21
864.0669499958525
 31
0.0
  0
LINE
  5
1B4
  8
HID
 10
783.57761760185656
 20
861.6869499958525
 30
0.0
 11
783.57761760185656
 21
841.62694999585244
 31
0.0
  0
LINE
  5
1B5
  8
HID
 10
756.07761760185656
 20
861.6869499958525
 30
0.0
 11
756.07761760185656
 21
841.62694999585244
 31
0.0
  0
LINE
  5
1B6
  8
HID
 10
756.07761760185656
 20
841.62694999585244
 30
0.0
 11
783.57761760185656
 21
841.62694999585256
 31
0.0
  0
LINE
  5
1B7
  8
HID
 10
783.57761760185656
 20
861.6869499958525
 30
0.0
 11
816.82761760185622
 21
861.6869499958525
 31
0.0
  0
LINE
  5
1B8
  8
HID
 10
702.37761760185595
 20
1021.326949995852
 30
0.0
 11
756.07761760185656
 21
1021.326949995852
 31
0.0
  0
TEXT
  5
1B9
  8
DIM
 10
730.79594049683385
 20
990.66211541275925
 30
0.0
 40
9.9960000000000004
  1
150
 72
     4
 11
742.69594049683383
 21
995.66011541275952
 31
0.0
  0
LINE
  5
1BA
  8
DIM
 10
672.82761760185656
 20
984.61939149544185
 30
0.0
 11
810.82761760185565
 21
984.61939149544207
 31
0.0
  0
LINE
  5
1BB
  8
HID
 10
702.37761760185595
 20
1018.946949995852
 30
0.0
 11
698.37761760185595
 21
1018.946949995852
 31
0.0
  0
SOLID
  5
1BC
  8
DIM
 10
678.82731760185652
 20
986.61934149544197
 30
0.0
 11
678.82731760185652
 21
982.61944149544195
 31
0.0
 12
666.82761760185656
 22
984.61939149544185
 32
0.0
 13
666.82761760185656
 23
984.61939149544185
 33
0.0
  0
LINE
  5
1BD
  8
HID
 10
698.37761760185629
 20
1019.436949995852
 30
0.0
 11
666.82761760185656
 21
1019.436949995852
 31
0.0
  0
LINE
  5
1BE
  8
HID
 10
698.37761760185595
 20
1020.666949995852
 30
0.0
 11
666.82761760185656
 21
1020.666949995852
 31
0.0
  0
LINE
  5
1BF
  8
HID
 10
698.37761760185595
 20
1020.666949995852
 30
0.0
 11
698.37761760185595
 21
1018.946949995852
 31
0.0
  0
LINE
  5
1C0
  8
HID
 10
702.37761760185595
 20
1021.326949995852
 30
0.0
 11
702.37761760185595
 21
1018.946949995852
 31
0.0
  0
SOLID
  5
1C1
  8
DIM
 10
804.82791760185546
 20
986.61934149544209
 30
0.0
 11
804.82791760185546
 21
982.61944149544195
 31
0.0
 12
816.82761760185531
 22
984.61939149544219
 32
0.0
 13
816.82761760185531
 23
984.61939149544219
 33
0.0
  0
LINE
  5
1C2
  8
HID
 10
783.57761760185656
 20
1021.326949995852
 30
0.0
 11
816.82761760185622
 21
1021.326949995852
 31
0.0
  0
LINE
  5
1C3
  8
HID
 10
756.07761760185656
 20
1041.3869499958521
 30
0.0
 11
783.57761760185656
 21
1041.3869499958521
 31
0.0
  0
LINE
  5
1C4
  8
DIM
 10
663.33273244229622
 20
863.58694999585248
 30
0.0
 11
318.79542065760768
 21
863.58194999585635
 31
0.0
  0
LINE
  5
1C5
  8
DIM
 10
663.33273244229622
 20
1019.436949995852
 30
0.0
 11
318.79542065760768
 21
1019.431949995856
 31
0.0
  0
LINE
  5
1C6
  8
DIM
 10
320.46208732427431
 20
1019.431949995856
 30
0.0
 11
320.46208732427431
 21
863.58194999585635
 31
0.0
  0
SOLID
  5
1C7
  8
DIM
 10
318.46208933985503
 20
875.58193790237192
 30
0.0
 11
322.46208933985503
 21
875.58193790237192
 31
0.0
 12
320.46208933985503
 22
863.58193790237181
 32
0.0
 13
320.46208933985503
 23
863.58193790237181
 33
0.0
  0
SOLID
  5
1C8
  8
DIM
 10
318.46208732427431
 20
1007.431949995856
 30
0.0
 11
322.46208732427471
 21
1007.431949995856
 31
0.0
 12
320.46208732427431
 22
1019.431949995856
 32
0.0
 13
320.46208732427431
 23
1019.431949995856
 33
0.0
  0
TEXT
  5
1C9
  8
DIM
 10
308.5500193168113
 20
580.06355950668865
 30
0.0
 40
9.9960000000000004
  1
%%C155 (%%c6.10") ROOT OF SPLINE
 50
90.0
  0
TEXT
  5
1CA
  8
DIM
 10
342.82201931681129
 20
580.06355950668865
 30
0.0
 40
9.9960000000000004
  1
VALVE SPINDLE LOCKNUT
 50
90.0
  0
TEXT
  5
1CB
  8
DIM
 10
325.68601931681133
 20
580.06355950668865
 30
0.0
 40
9.9960000000000004
  1
MAX. PERMISSIBLE O/D OF
 50
90.0
  0
LINE
  5
1CC
  8
DIM
 10
320.46208933985503
 20
790.84930239726668
 30
0.0
 11
320.46208933985503
 21
863.58197418291275
 31
0.0
  0
LINE
  5
1CD
  8
DRG
 10
683.17761760185545
 20
1036.5479824542481
 30
0.0
 11
683.17761760185545
 21
1240.338665999798
 31
0.0
  0
LINE
  5
1CE
  8
DRG
 10
723.17761760185545
 20
1201.5069499958561
 30
0.0
 11
738.17761760185522
 21
1201.5069499958561
 31
0.0
  0
SOLID
  5
1CF
  8
DIM
 10
219.37408605298651
 20
1027.126949995856
 30
0.0
 11
223.37408605298651
 21
1027.126949995856
 31
0.0
 12
221.37408605298671
 22
1039.126949995856
 32
0.0
 13
221.37408605298671
 23
1039.126949995856
 33
0.0
  0
LINE
  5
1D0
  8
DIM
 10
221.37408605298651
 20
1039.126949995856
 30
0.0
 11
221.37408605298651
 21
843.88694999585618
 31
0.0
  0
LINE
  5
1D1
  8
DIM
 10
313.7994038876152
 20
843.88694999585618
 30
0.0
 11
219.37408605298651
 21
843.88694999585618
 31
0.0
  0
SOLID
  5
1D2
  8
DIM
 10
219.37408605298651
 20
855.88694999585607
 30
0.0
 11
223.37408605298651
 21
855.88694999585607
 31
0.0
 12
221.37408605298651
 22
843.88694999585618
 32
0.0
 13
221.37408605298651
 23
843.88694999585618
 33
0.0
  0
TEXT
  5
1D3
  8
DIM
 10
214.9480860529865
 20
925.08494999585628
 30
0.0
 40
9.9960000000000004
  1
%%C195
 50
90.0
 72
     4
 11
209.95008605298651
 21
941.50694999585642
 31
0.0
  0
LINE
  5
1D4
  8
DIM
 10
407.91600958387829
 20
1039.126949995856
 30
0.0
 11
219.37408605298651
 21
1039.126949995856
 31
0.0
  0
LINE
  5
1D5
  8
DIM
 10
407.91600958387812
 20
843.88694999585618
 30
0.0
 11
326.30144431907843
 21
843.88694999585618
 31
0.0
  0
SOLID
  5
1D6
  8
DIM
 10
408.04966880764249
 20
1062.538909983271
 30
0.0
 11
404.74892226005983
 21
1060.2794692939369
 31
0.0
 12
413.17761760185562
 22
1051.5069499958561
 32
0.0
 13
413.17761760185562
 23
1051.5069499958561
 33
0.0
  0
LINE
  5
1D7
  8
DIM
 10
408.65873622318622
 20
1058.1084430910209
 30
0.0
 11
371.63988100937507
 21
1112.1881359633389
 31
0.0
  0
TEXT
  5
1D8
  8
DIM
 10
90.559767867255914
 20
1124.178390737557
 30
0.0
 40
9.9960000000000004
  1
4 HOLES TAPPED M10x16 (0.63")
  0
TEXT
  5
1D9
  8
DIM
 10
90.559767867255914
 20
1107.0423907375571
 30
0.0
 40
9.9960000000000004
  1
DEEP EQUALLY SPACED ON
  0
TEXT
  5
1DA
  8
DIM
 10
90.559767867255914
 20
1089.9063907375571
 30
0.0
 40
9.9960000000000004
  1
CENTRES ON %%C220 (8.66") P.C.
  0
LINE
  5
1DB
  8
DIM
 10
350.77486821472837
 20
1112.1881359633389
 30
0.0
 11
371.63988100937507
 21
1112.1881359633389
 31
0.0
  0
SOLID
  5
1DC
  8
DIM
 10
420.17761760185488
 20
1634.135601335824
 30
0.0
 11
420.17761760185488
 21
1630.135601335824
 31
0.0
 12
432.17761760185488
 22
1632.135601335824
 32
0.0
 13
432.17761760185488
 23
1632.135601335824
 33
0.0
  0
LINE
  5
1DD
  8
DIM
 10
262.17761760185499
 20
1556.509068742502
 30
0.0
 11
193.9007647016048
 21
1556.509068742502
 31
0.0
  0
TEXT
  5
1DE
  8
DIM
 10
214.88769019787361
 20
1562.9350687425019
 30
0.0
 40
9.9960000000000004
  1
5
 72
     4
 11
218.2196901978736
 21
1567.933068742502
 31
0.0
  0
LINE
  5
1DF
  8
DIM
 10
267.17761760185488
 20
1427.0558435424521
 30
0.0
 11
267.17761760185488
 21
1468.1290625272709
 31
0.0
  0
SOLID
  5
1E0
  8
DIM
 10
279.17761760185488
 20
1558.509068742502
 30
0.0
 11
279.17761760185488
 21
1554.509068742502
 31
0.0
 12
267.17761760185488
 22
1556.509068742502
 32
0.0
 13
267.17761760185488
 23
1556.509068742502
 33
0.0
  0
SOLID
  5
1E1
  8
DIM
 10
250.17761760185491
 20
1558.509068742502
 30
0.0
 11
250.17761760185491
 21
1554.509068742502
 31
0.0
 12
262.17761760185499
 22
1556.509068742502
 32
0.0
 13
262.17761760185499
 23
1556.509068742502
 33
0.0
  0
LINE
  5
1E2
  8
DIM
 10
279.17761760185488
 20
1556.509068742502
 30
0.0
 11
291.17761760185499
 21
1556.509068742502
 31
0.0
  0
LINE
  5
1E3
  8
DIM
 10
270.17761760185499
 20
1632.135601335824
 30
0.0
 11
424.17761760185488
 21
1632.135601335824
 31
0.0
  0
SOLID
  5
1E4
  8
DIM
 10
274.17761760185499
 20
1634.135601335824
 30
0.0
 11
274.17761760185499
 21
1630.135601335824
 31
0.0
 12
262.17761760185499
 22
1632.135601335824
 32
0.0
 13
262.17761760185499
 23
1632.135601335824
 33
0.0
  0
TEXT
  5
1E5
  8
DIM
 10
335.27761760185501
 20
1638.561601335824
 30
0.0
 40
9.9960000000000004
  1
170
 72
     4
 11
347.17761760185499
 21
1643.559601335824
 31
0.0
  0
SOLID
  5
1E6
  8
DIM
 10
405.17761760185499
 20
1558.509068742502
 30
0.0
 11
405.17761760185499
 21
1554.509068742502
 31
0.0
 12
417.17761760185499
 22
1556.509068742502
 32
0.0
 13
417.17761760185499
 23
1556.509068742502
 33
0.0
  0
TEXT
  5
1E7
  8
DIM
 10
365.81583816859649
 20
1562.9350687425019
 30
0.0
 40
9.9960000000000004
  1
15
 72
     4
 11
372.95583816859647
 21
1567.933068742502
 31
0.0
  0
LINE
  5
1E8
  8
DIM
 10
417.17761760185499
 20
1556.509068742502
 30
0.0
 11
347.8446861554882
 21
1556.509068742502
 31
0.0
  0
LINE
  5
1E9
  8
DIM
 10
417.17761760185499
 20
1457.901281972298
 30
0.0
 11
417.17761760185499
 21
1558.509068742502
 31
0.0
  0
SOLID
  5
1EA
  8
DIM
 10
444.17761760185522
 20
1558.509068742502
 30
0.0
 11
444.17761760185522
 21
1554.509068742502
 31
0.0
 12
432.17761760185522
 22
1556.509068742502
 32
0.0
 13
432.17761760185522
 23
1556.509068742502
 33
0.0
  0
LINE
  5
1EB
  8
DIM
 10
444.17761760185522
 20
1556.509068742502
 30
0.0
 11
456.17761760185522
 21
1556.509068742502
 31
0.0
  0
LINE
  5
1EC
  8
DIM
 10
300.92406388563631
 20
1431.116804207518
 30
0.0
 11
287.83552511138691
 21
1471.4771255736821
 31
0.0
  0
SOLID
  5
1ED
  8
DIM
 10
297.78769202198049
 20
1434.3047771579791
 30
0.0
 11
301.5926191278113
 21
1435.5386854687199
 31
0.0
 12
303.39188050711658
 22
1423.506949995857
 32
0.0
 13
303.39188050711658
 23
1423.506949995857
 33
0.0
  0
LINE
  5
1EE
  8
DIM
 10
189.43070736418889
 20
1420.1069499958569
 30
0.0
 11
189.43070736418889
 21
1218.21721205267
 31
0.0
  0
SOLID
  5
1EF
  8
DIM
 10
187.4307073641894
 20
1382.1069499958569
 30
0.0
 11
191.43070736418909
 21
1382.1069499958569
 31
0.0
 12
189.43070736418889
 22
1370.1069499958569
 32
0.0
 13
189.43070736418889
 23
1370.1069499958569
 33
0.0
  0
SOLID
  5
1F0
  8
DIM
 10
187.4307073641894
 20
1408.1069499958569
 30
0.0
 11
191.43070736418909
 21
1408.1069499958569
 31
0.0
 12
189.43070736418889
 22
1420.1069499958569
 32
0.0
 13
189.43070736418889
 23
1420.1069499958569
 33
0.0
  0
TEXT
  5
1F1
  8
DIM
 10
204.47953093458869
 20
1222.6171550576189
 30
0.0
 40
9.9960000000000004
  1
(%%c1.969" -0.002")
 50
90.0
 72
     4
 11
200.1955309345887
 21
1291.8751550576189
 31
0.0
  0
TEXT
  5
1F2
  8
DIM
 10
183.0047073641889
 20
1241.429725474017
 30
0.0
 40
9.9960000000000004
  1
%%c50.00 -0.05
 50
90.0
 72
     4
 11
178.00670736418891
 21
1293.313725474017
 31
0.0
  0
LINE
  5
1F3
  8
DRG
 10
214.72445656110011
 20
2058.1630653269222
 30
0.0
 11
214.7244565611006
 21
1640.1630653269219
 31
0.0
  0
LINE
  5
1F4
  8
DRG
 10
214.72445656110011
 20
2058.1630653269222
 30
0.0
 11
288.4744565611004
 21
1921.6630653269219
 31
0.0
  0
LINE
  5
1F5
  8
DRG
 10
194.72445656110011
 20
2058.1630653269222
 30
0.0
 11
194.72445656110031
 21
1640.163065326921
 31
0.0
  0
LINE
  5
1F6
  8
DRG
 10
219.7244565611004
 20
1843.1630653269219
 30
0.0
 11
283.47445656110028
 21
1843.163065326921
 31
0.0
  0
LINE
  5
1F7
  8
DRG
 10
219.7244565611004
 20
1855.163065326921
 30
0.0
 11
283.47445656110028
 21
1855.163065326921
 31
0.0
  0
LINE
  5
1F8
  8
DRG
 10
219.7244565611004
 20
1904.163065326921
 30
0.0
 11
283.47445656110028
 21
1904.163065326921
 31
0.0
  0
LINE
  5
1F9
  8
DRG
 10
219.7244565611004
 20
1794.163065326921
 30
0.0
 11
283.47445656110028
 21
1794.163065326921
 31
0.0
  0
LINE
  5
1FA
  8
DRG
 10
214.72445656110031
 20
1640.163065326921
 30
0.0
 11
288.4744565611004
 21
1776.663065326921
 31
0.0
  0
LINE
  5
1FB
  8
CRS
 10
191.61823268269629
 20
1671.163065326921
 30
0.0
 11
216.87228207211729
 21
1671.163065326921
 31
0.0
  0
LINE
  5
1FC
  8
DRG
 10
194.72445656110031
 20
1640.163065326921
 30
0.0
 11
214.72445656110031
 21
1640.163065326921
 31
0.0
  0
LINE
  5
1FD
  8
HID
 10
194.7244565611006
 20
1741.1130653269199
 30
0.0
 11
200.9744565611006
 21
1741.1130653269199
 31
0.0
  0
ARC
  5
1FE
  8
DRG
 10
219.7244565611004
 20
1789.163065326921
 30
0.0
 40
5.0
 50
90.0
 51
180.0
  0
LINE
  5
1FF
  8
DRG
 10
86.224456561100396
 20
1824.1630653269219
 30
0.0
 11
194.72445656110031
 21
1824.163065326921
 31
0.0
  0
LINE
  5
200
  8
DRG
 10
86.224456561100155
 20
1874.163065326921
 30
0.0
 11
194.72445656110011
 21
1874.163065326921
 31
0.0
  0
LINE
  5
201
  8
DRG
 10
89.724456561100396
 20
1877.5630653269211
 30
0.0
 11
189.72445656110031
 21
1877.5630653269211
 31
0.0
  0
LINE
  5
202
  8
DRG2
 10
86.224456561100155
 20
1874.163065326921
 30
0.0
 11
86.224456561100396
 21
1824.1630653269219
 31
0.0
  0
LINE
  5
203
  8
DRG
 10
84.724456561100155
 20
1872.663065326921
 30
0.0
 11
84.724456561100396
 21
1825.663065326921
 31
0.0
  0
LINE
  5
204
  8
DRG
 10
84.724456561100396
 20
1825.663065326921
 30
0.0
 11
86.224456561100396
 21
1824.1630653269219
 31
0.0
  0
LINE
  5
205
  8
DRG
 10
86.224456561100155
 20
1874.163065326921
 30
0.0
 11
84.724456561100155
 21
1872.663065326921
 31
0.0
  0
LINE
  5
206
  8
DRG
 10
89.724456561100396
 20
1877.5630653269211
 30
0.0
 11
89.724456561100396
 21
1874.163065326921
 31
0.0
  0
ARC
  5
207
  8
DRG
 10
219.7244565611004
 20
1860.163065326921
 30
0.0
 40
5.0
 50
180.0
 51
270.0
  0
ARC
  5
208
  8
DRG
 10
219.7244565611004
 20
1838.1630653269219
 30
0.0
 40
5.0
 50
90.0
 51
180.0
  0
LINE
  5
209
  8
CRS
 10
191.6182326826949
 20
2027.163065326921
 30
0.0
 11
216.87228207211569
 21
2027.163065326921
 31
0.0
  0
LINE
  5
20A
  8
HID
 10
194.72445656110031
 20
1957.2130653269201
 30
0.0
 11
200.97445656110011
 21
1957.2130653269201
 31
0.0
  0
ARC
  5
20B
  8
DRG
 10
219.7244565611004
 20
1909.163065326921
 30
0.0
 40
5.0
 50
180.0
 51
270.0
  0
LINE
  5
20C
  8
DRG
 10
304.72445656110028
 20
1921.663065326921
 30
0.0
 11
304.72445656110028
 21
1776.663065326921
 31
0.0
  0
LINE
  5
20D
  8
DRG
 10
288.4744565611004
 20
1776.663065326921
 30
0.0
 11
304.72445656110028
 21
1776.663065326921
 31
0.0
  0
ARC
  5
20E
  8
DRG
 10
283.47445656110028
 20
1789.163065326921
 30
0.0
 40
5.0
 50
0.0
 51
90.0
  0
LINE
  5
20F
  8
DRG
 10
288.4744565611004
 20
1921.6630653269219
 30
0.0
 11
304.72445656110028
 21
1921.663065326921
 31
0.0
  0
LINE
  5
210
  8
DRG
 10
288.4744565611004
 20
1921.663065326921
 30
0.0
 11
288.4744565611004
 21
1776.6630653269219
 31
0.0
  0
ARC
  5
211
  8
DRG
 10
283.47445656110028
 20
1860.163065326921
 30
0.0
 40
5.0
 50
270.0
 51
0.0
  0
ARC
  5
212
  8
DRG
 10
283.47445656110028
 20
1838.163065326921
 30
0.0
 40
5.0
 50
0.0
 51
89.999999999999915
  0
ARC
  5
213
  8
DRG
 10
283.47445656110028
 20
1909.163065326921
 30
0.0
 40
5.0
 50
270.0
 51
0.0
  0
LINE
  5
214
  8
DRG
 10
194.72445656110011
 20
2058.1630653269222
 30
0.0
 11
214.72445656110011
 21
2058.1630653269222
 31
0.0
  0
LINE
  5
215
  8
HID
 10
194.72445656110011
 20
2038.663065326921
 30
0.0
 11
214.72445656110011
 21
2038.663065326921
 31
0.0
  0
LINE
  5
216
  8
HID
 10
194.72445656110011
 20
2015.6630653269219
 30
0.0
 11
214.72445656110011
 21
2015.6630653269219
 31
0.0
  0
LINE
  5
217
  8
HID
 10
194.7244565611017
 20
1682.663065326921
 30
0.0
 11
214.7244565611017
 21
1682.663065326921
 31
0.0
  0
LINE
  5
218
  8
HID
 10
194.7244565611017
 20
1659.663065326921
 30
0.0
 11
214.7244565611017
 21
1659.663065326921
 31
0.0
  0
LINE
  5
219
  8
HID
 10
200.97445656110011
 20
1957.2130653269201
 30
0.0
 11
200.9744565611006
 21
1741.1130653269199
 31
0.0
  0
LINE
  5
21A
  8
DIM
 10
72.724456561100624
 20
1937.5630653269211
 30
0.0
 11
57.932908099216768
 21
1937.5630653269211
 31
0.0
  0
TEXT
  5
21B
  8
DIM
 10
128.6241159422965
 20
1943.989065326921
 30
0.0
 40
9.9960000000000004
  1
5
 72
     4
 11
131.95611594229649
 21
1948.9870653269211
 31
0.0
  0
SOLID
  5
21C
  8
DIM
 10
72.724456561100624
 20
1939.563065326922
 30
0.0
 11
72.724456561100624
 21
1935.5630653269211
 31
0.0
 12
84.724456561100624
 22
1937.5630653269211
 32
0.0
 13
84.724456561100624
 23
1937.5630653269211
 33
0.0
  0
LINE
  5
21D
  8
DIM
 10
304.72445656110028
 20
1926.4619218620639
 30
0.0
 11
304.72445656110028
 21
2180.1630653269222
 31
0.0
  0
TEXT
  5
21E
  8
DIM
 10
238.77645656110059
 20
2184.5890653269221
 30
0.0
 40
9.9960000000000004
  1
110
 72
     4
 11
249.7244565611006
 21
2189.5870653269221
 31
0.0
  0
LINE
  5
21F
  8
DIM
 10
202.7244565611006
 20
2178.1630653269222
 30
0.0
 11
296.72445656110028
 21
2178.1630653269222
 31
0.0
  0
SOLID
  5
220
  8
DIM
 10
206.7244565611006
 20
2180.1630653269222
 30
0.0
 11
206.7244565611006
 21
2176.1630653269222
 31
0.0
 12
194.7244565611006
 22
2178.1630653269222
 32
0.0
 13
194.7244565611006
 23
2178.1630653269222
 33
0.0
  0
LINE
  5
221
  8
DIM
 10
194.7244565611006
 20
2063.0006088781679
 30
0.0
 11
194.7244565611006
 21
2180.1630653269222
 31
0.0
  0
LINE
  5
222
  8
DIM
 10
101.7244565611006
 20
1937.5630653269211
 30
0.0
 11
154.98198976906059
 21
1937.5630653269211
 31
0.0
  0
SOLID
  5
223
  8
DIM
 10
101.7244565611006
 20
1939.563065326922
 30
0.0
 11
101.7244565611006
 21
1935.5630653269211
 31
0.0
 12
89.724456561100624
 22
1937.5630653269211
 32
0.0
 13
89.724456561100624
 23
1937.5630653269211
 33
0.0
  0
LINE
  5
224
  8
DIM
 10
182.7244565611006
 20
2118.1630653269222
 30
0.0
 11
170.7244565611006
 21
2118.1630653269222
 31
0.0
  0
SOLID
  5
225
  8
DIM
 10
182.7244565611006
 20
2120.1630653269222
 30
0.0
 11
182.7244565611006
 21
2116.1630653269222
 31
0.0
 12
194.7244565611006
 22
2118.1630653269222
 32
0.0
 13
194.7244565611006
 23
2118.1630653269222
 33
0.0
  0
SOLID
  5
226
  8
DIM
 10
226.72445656110011
 20
2120.1630653269222
 30
0.0
 11
226.72445656110011
 21
2116.1630653269222
 31
0.0
 12
214.72445656110011
 22
2118.1630653269222
 32
0.0
 13
214.72445656110011
 23
2118.1630653269222
 33
0.0
  0
LINE
  5
227
  8
DIM
 10
214.72445656110011
 20
2063.0006088781679
 30
0.0
 11
214.72445656110011
 21
2120.1630653269222
 31
0.0
  0
LINE
  5
228
  8
DIM
 10
226.72445656110011
 20
2118.1630653269222
 30
0.0
 11
280.19672880411639
 21
2118.1630653269222
 31
0.0
  0
TEXT
  5
229
  8
DIM
 10
245.88874831624011
 20
2124.5890653269221
 30
0.0
 40
9.9960000000000004
  1
20
 72
     4
 11
253.9807483162401
 21
2129.5870653269221
 31
0.0
  0
SOLID
  5
22A
  8
DIM
 10
292.7244565611004
 20
2180.1630653269222
 30
0.0
 11
292.7244565611004
 21
2176.1630653269222
 31
0.0
 12
304.72445656110028
 22
2178.1630653269222
 32
0.0
 13
304.72445656110028
 23
2178.1630653269222
 33
0.0
  0
LINE
  5
22B
  8
DIM
 10
24.724456561101078
 20
2058.1630653269222
 30
0.0
 11
24.724456561101299
 21
1640.1630653269219
 31
0.0
  0
SOLID
  5
22C
  8
DIM
 10
22.72445656110153
 20
1652.1630653269219
 30
0.0
 11
26.72445656110153
 21
1652.1630653269219
 31
0.0
 12
24.724456561101078
 22
1640.1630653269219
 32
0.0
 13
24.724456561101078
 23
1640.1630653269219
 33
0.0
  0
TEXT
  5
22D
  8
DIM
 10
18.298456561101101
 20
1778.2390653269219
 30
0.0
 40
9.9960000000000004
  1
FOR INPUT OPTIONS
 50
90.0
 72
     4
 11
13.3004565611011
 21
1853.6850653269221
 31
0.0
  0
SOLID
  5
22E
  8
DIM
 10
22.72445656110153
 20
2046.1630653269219
 30
0.0
 11
26.72445656110153
 21
2046.1630653269219
 31
0.0
 12
24.724456561101078
 22
2058.1630653269222
 32
0.0
 13
24.724456561101078
 23
2058.1630653269222
 33
0.0
  0
LINE
  5
22F
  8
DIM
 10
84.724456561100624
 20
1876.466155588098
 30
0.0
 11
84.724456561100624
 21
1940.6308628503409
 31
0.0
  0
LINE
  5
230
  8
DIM
 10
89.724456561100624
 20
1880.9750267903869
 30
0.0
 11
89.724456561100624
 21
1942.9024284251741
 31
0.0
  0
LINE
  5
231
  8
DIM
 10
432.17761760185539
 20
1465.606949995856
 30
0.0
 11
432.17761760185539
 21
1636.135601335824
 31
0.0
  0
LINE
  5
232
  8
DIM
 10
826.37761760185595
 20
1142.9569499958529
 30
0.0
 11
826.37761760185595
 21
1636.135601335824
 31
0.0
  0
LINE
  5
233
  8
DIM
 10
444.17761760185539
 20
1632.135601335824
 30
0.0
 11
814.37761760185583
 21
1632.135601335824
 31
0.0
  0
SOLID
  5
234
  8
DIM
 10
444.17761760185539
 20
1634.135601335824
 30
0.0
 11
444.17761760185539
 21
1630.135601335824
 31
0.0
 12
432.17761760185539
 22
1632.135601335824
 32
0.0
 13
432.17761760185539
 23
1632.135601335824
 33
0.0
  0
SOLID
  5
235
  8
DIM
 10
814.37761760185583
 20
1634.135601335824
 30
0.0
 11
814.37761760185583
 21
1630.135601335824
 31
0.0
 12
826.37761760185595
 22
1632.135601335824
 32
0.0
 13
826.37761760185595
 23
1632.135601335824
 33
0.0
  0
TEXT
  5
236
  8
DIM
 10
616.18237950661774
 20
1638.559601335824
 30
0.0
 40
10.0
  1
394
 72
     4
 11
629.2776176018557
 21
1643.559601335824
 31
0.0
  0
LINE
  5
237
  8
DIM
 10
611.17761760185385
 20
1465.106949995856
 30
0.0
 11
611.17761760185385
 21
1560.509068742502
 31
0.0
  0
LINE
  5
238
  8
DIM
 10
623.17761760185385
 20
1556.509068742502
 30
0.0
 11
814.37761760185583
 21
1556.509068742502
 31
0.0
  0
SOLID
  5
239
  8
DIM
 10
623.17761760185385
 20
1558.509068742502
 30
0.0
 11
623.17761760185385
 21
1554.509068742502
 31
0.0
 12
611.17761760185385
 22
1556.509068742502
 32
0.0
 13
611.17761760185385
 23
1556.509068742502
 33
0.0
  0
SOLID
  5
23A
  8
DIM
 10
814.37761760185583
 20
1558.509068742502
 30
0.0
 11
814.37761760185583
 21
1554.509068742502
 31
0.0
 12
826.37761760185595
 22
1556.509068742502
 32
0.0
 13
826.37761760185595
 23
1556.509068742502
 33
0.0
  0
TEXT
  5
23B
  8
DIM
 10
706.87285569709309
 20
1562.933068742502
 30
0.0
 40
10.0
  1
215
 72
     4
 11
718.77761760185513
 21
1567.933068742502
 31
0.0
  0
LINE
  5
23C
  8
DIM
 10
623.17761760185419
 20
1462.7344246789139
 30
0.0
 11
623.17761760185419
 21
1509.266653062464
 31
0.0
  0
LINE
  5
23D
  8
DIM
 10
599.17761760185385
 20
1505.266653062464
 30
0.0
 11
587.17761760185385
 21
1505.266653062464
 31
0.0
  0
LINE
  5
23E
  8
DIM
 10
635.17761760185419
 20
1505.266653062464
 30
0.0
 11
690.76593217110485
 21
1505.266653062464
 31
0.0
  0
SOLID
  5
23F
  8
DIM
 10
599.17761760185385
 20
1507.266653062464
 30
0.0
 11
599.17761760185385
 21
1503.266653062464
 31
0.0
 12
611.17761760185385
 22
1505.266653062464
 32
0.0
 13
611.17761760185385
 23
1505.266653062464
 33
0.0
  0
SOLID
  5
240
  8
DIM
 10
635.17761760185419
 20
1507.266653062464
 30
0.0
 11
635.17761760185419
 21
1503.266653062464
 31
0.0
 12
623.17761760185419
 22
1505.266653062464
 32
0.0
 13
623.17761760185419
 23
1505.266653062464
 33
0.0
  0
TEXT
  5
241
  8
DIM
 10
661.02280158379449
 20
1511.690653062464
 30
0.0
 40
10.0
  1
12
 72
     4
 11
668.1656587266516
 21
1516.690653062464
 31
0.0
  0
LINE
  5
242
  8
DRG2
 10
753.17761760185556
 20
1157.3944136557
 30
0.0
 11
738.17761760185556
 21
1157.3944136557
 31
0.0
  0
LINE
  5
243
  8
DRG2
 10
753.17761760185556
 20
1133.0544136557
 30
0.0
 11
738.17761760185556
 21
1133.0544136557
 31
0.0
  0
LINE
  5
244
  8
DRG2
 10
754.17761760185556
 20
1156.3944136557
 30
0.0
 11
754.17761760185556
 21
1134.0544136557
 31
0.0
  0
LINE
  5
245
  8
DRG2
 10
753.17761760185556
 20
1157.3944136557
 30
0.0
 11
754.17761760185556
 21
1156.3944136557
 31
0.0
  0
LINE
  5
246
  8
DRG2
 10
754.17761760185556
 20
1134.0544136557
 30
0.0
 11
753.17761760185556
 21
1133.0544136557
 31
0.0
  0
LINE
  5
247
  8
DRG
 10
738.17761760185522
 20
1201.5069499958561
 30
0.0
 11
738.17761760185556
 21
1039.4769784433231
 31
0.0
  0
LINE
  5
248
  8
DRG2
 10
753.17761760185556
 20
1157.3944136557
 30
0.0
 11
753.17761760185556
 21
1133.0544136557
 31
0.0
  0
LINE
  5
249
  8
CRS
 10
755.28570282453848
 20
1145.2244136556999
 30
0.0
 11
734.76609685699077
 21
1145.2244136556999
 31
0.0
  0
LINE
  5
24A
  8
DRG
 10
738.17761760185522
 20
681.50694999585608
 30
0.0
 11
738.17761760185556
 21
843.53692154838973
 31
0.0
  0
LINE
  5
24B
  8
DRG2
 10
753.17761760185556
 20
725.61948633601185
 30
0.0
 11
753.17761760185556
 21
749.95948633601165
 31
0.0
  0
LINE
  5
24C
  8
DRG2
 10
754.17761760185556
 20
726.61948633601185
 30
0.0
 11
754.17761760185556
 21
748.95948633601165
 31
0.0
  0
LINE
  5
24D
  8
CRS
 10
755.28570282453848
 20
737.78948633601169
 30
0.0
 11
734.76609685699077
 21
737.78948633601169
 31
0.0
  0
LINE
  5
24E
  8
DRG2
 10
753.17761760185556
 20
749.95948633601165
 30
0.0
 11
738.17761760185556
 21
749.95948633601165
 31
0.0
  0
LINE
  5
24F
  8
DRG2
 10
754.17761760185556
 20
748.95948633601165
 30
0.0
 11
753.17761760185556
 21
749.95948633601165
 31
0.0
  0
LINE
  5
250
  8
DRG2
 10
753.17761760185556
 20
725.61948633601185
 30
0.0
 11
738.17761760185556
 21
725.61948633601173
 31
0.0
  0
LINE
  5
251
  8
DRG2
 10
753.17761760185556
 20
725.61948633601185
 30
0.0
 11
754.17761760185556
 21
726.61948633601185
 31
0.0
  0
LINE
  5
252
  8
DIM
 10
754.17761760185556
 20
1166.3944136557
 30
0.0
 11
754.17761760185556
 21
1341.199352719882
 31
0.0
  0
LINE
  5
253
  8
DIM
 10
766.17761760185556
 20
1337.199352719882
 30
0.0
 11
814.37761760185583
 21
1337.199352719882
 31
0.0
  0
SOLID
  5
254
  8
DIM
 10
766.17761760185556
 20
1339.199352719882
 30
0.0
 11
766.17761760185556
 21
1335.199352719882
 31
0.0
 12
754.17761760185556
 22
1337.199352719882
 32
0.0
 13
754.17761760185556
 23
1337.199352719882
 33
0.0
  0
SOLID
  5
255
  8
DIM
 10
814.37761760185583
 20
1339.199352719882
 30
0.0
 11
814.37761760185583
 21
1335.199352719882
 31
0.0
 12
826.37761760185595
 22
1337.199352719882
 32
0.0
 13
826.37761760185595
 23
1337.199352719882
 33
0.0
  0
TEXT
  5
256
  8
DIM
 10
782.18237950661774
 20
1343.623352719882
 30
0.0
 40
10.0
  1
72
 72
     4
 11
790.27761760185581
 21
1348.623352719882
 31
0.0
  0
LINE
  5
257
  8
DIM
 10
413.17761760185539
 20
814.50694999585619
 30
0.0
 11
413.17761760185539
 21
564.17463538812785
 31
0.0
  0
LINE
  5
258
  8
DIM
 10
826.37761760185731
 20
740.05694999585899
 30
0.0
 11
826.37761760185731
 21
564.17463538812785
 31
0.0
  0
LINE
  5
259
  8
DIM
 10
425.17761760185539
 20
568.17463538812785
 30
0.0
 11
814.3776176018572
 21
568.17463538812785
 31
0.0
  0
SOLID
  5
25A
  8
DIM
 10
425.17761760185539
 20
570.17463538812785
 30
0.0
 11
425.17761760185539
 21
566.17463538812785
 31
0.0
 12
413.17761760185539
 22
568.17463538812785
 32
0.0
 13
413.17761760185539
 23
568.17463538812785
 33
0.0
  0
SOLID
  5
25B
  8
DIM
 10
814.3776176018572
 20
570.17463538812785
 30
0.0
 11
814.3776176018572
 21
566.17463538812785
 31
0.0
 12
826.37761760185731
 22
568.17463538812785
 32
0.0
 13
826.37761760185731
 23
568.17463538812785
 33
0.0
  0
TEXT
  5
25C
  8
DIM
 10
607.87285569709434
 20
574.59863538812783
 30
0.0
 40
10.0
  1
413
 72
     4
 11
619.77761760185615
 21
579.59863538812783
 31
0.0
  0
LINE
  5
25D
  8
DIM
 10
666.82761760185656
 20
852.34694999585258
 30
0.0
 11
666.82761760185656
 21
629.00460657921076
 31
0.0
  0
LINE
  5
25E
  8
DIM
 10
666.82761760185656
 20
633.00460657921076
 30
0.0
 11
814.3776176018572
 21
633.00460657921076
 31
0.0
  0
SOLID
  5
25F
  8
DIM
 10
678.82761760185656
 20
635.00460657921064
 30
0.0
 11
678.82761760185656
 21
631.00460657921064
 31
0.0
 12
666.82761760185656
 22
633.00460657921076
 32
0.0
 13
666.82761760185656
 23
633.00460657921076
 33
0.0
  0
SOLID
  5
260
  8
DIM
 10
814.3776176018572
 20
635.00460657921064
 30
0.0
 11
814.3776176018572
 21
631.00460657921064
 31
0.0
 12
826.37761760185731
 22
633.00460657921076
 32
0.0
 13
826.37761760185731
 23
633.00460657921076
 33
0.0
  0
TEXT
  5
261
  8
DIM
 10
734.74785569709479
 20
639.42860657921074
 30
0.0
 40
10.0
  1
160
 72
     4
 11
746.65261760185672
 21
644.42860657921074
 31
0.0
  0
LINE
  5
262
  8
DIM
 10
831.37761760185708
 20
801.50694999585619
 30
0.0
 11
831.37761760185708
 21
629.00460657921076
 31
0.0
  0
LINE
  5
263
  8
DIM
 10
814.3776176018572
 20
633.00460657921076
 30
0.0
 11
802.37761760185731
 21
633.00460657921076
 31
0.0
  0
LINE
  5
264
  8
DIM
 10
843.37761760185697
 20
633.00460657921076
 30
0.0
 11
899.91960974427502
 21
633.00460657921076
 31
0.0
  0
SOLID
  5
265
  8
DIM
 10
814.3776176018572
 20
635.00460657921064
 30
0.0
 11
814.3776176018572
 21
631.00460657921064
 31
0.0
 12
826.37761760185731
 22
633.00460657921076
 32
0.0
 13
826.37761760185731
 23
633.00460657921076
 33
0.0
  0
SOLID
  5
266
  8
DIM
 10
843.37761760185697
 20
635.00460657921064
 30
0.0
 11
843.37761760185697
 21
631.00460657921064
 31
0.0
 12
831.37761760185708
 22
633.00460657921076
 32
0.0
 13
831.37761760185708
 23
633.00460657921076
 33
0.0
  0
TEXT
  5
267
  8
DIM
 10
871.59857763052355
 20
639.42860657921074
 30
0.0
 40
10.0
  1
5
 72
     4
 11
874.93191096385681
 21
644.42860657921074
 31
0.0
  0
LINE
  5
268
  8
DIM
 10
1400.734717820691
 20
941.50694999585619
 30
0.0
 11
1492.1907597099
 21
941.50694999585619
 31
0.0
  0
LINE
  5
269
  8
DIM
 10
1400.734717820691
 20
1395.106949995856
 30
0.0
 11
1492.1907597099
 21
1395.106949995856
 31
0.0
  0
LINE
  5
26A
  8
DIM
 10
1488.1907597099
 20
953.50694999585608
 30
0.0
 11
1488.1907597099
 21
1383.106949995856
 31
0.0
  0
SOLID
  5
26B
  8
DIM
 10
1486.1907597099
 20
953.50694999585608
 30
0.0
 11
1490.1907597099
 21
953.50694999585608
 31
0.0
 12
1488.1907597099
 22
941.50694999585619
 32
0.0
 13
1488.1907597099
 23
941.50694999585619
 33
0.0
  0
SOLID
  5
26C
  8
DIM
 10
1486.1907597099
 20
1383.106949995856
 30
0.0
 11
1490.1907597099
 21
1383.106949995856
 31
0.0
 12
1488.1907597099
 22
1395.106949995856
 32
0.0
 13
1488.1907597099
 23
1395.106949995856
 33
0.0
  0
TEXT
  5
26D
  8
DIM
 10
1481.7667597099
 20
1155.211711900618
 30
0.0
 40
10.0
  1
454
 50
90.0
 72
     4
 11
1476.7667597099
 21
1168.306949995856
 31
0.0
  0
LINE
  5
26E
  8
DIM
 10
1380.6451614324869
 20
1477.106949995856
 30
0.0
 11
1492.1907597099
 21
1477.106949995856
 31
0.0
  0
LINE
  5
26F
  8
DIM
 10
1488.1907597099
 20
1407.106949995856
 30
0.0
 11
1488.1907597099
 21
1465.106949995856
 31
0.0
  0
SOLID
  5
270
  8
DIM
 10
1486.1907597099
 20
1407.106949995856
 30
0.0
 11
1490.1907597099
 21
1407.106949995856
 31
0.0
 12
1488.1907597099
 22
1395.106949995856
 32
0.0
 13
1488.1907597099
 23
1395.106949995856
 33
0.0
  0
SOLID
  5
271
  8
DIM
 10
1486.1907597099
 20
1465.106949995856
 30
0.0
 11
1490.1907597099
 21
1465.106949995856
 31
0.0
 12
1488.1907597099
 22
1477.106949995856
 32
0.0
 13
1488.1907597099
 23
1477.106949995856
 33
0.0
  0
TEXT
  5
272
  8
DIM
 10
1481.7667597099
 20
1428.0117119006179
 30
0.0
 40
10.0
  1
82
 50
90.0
 72
     4
 11
1476.7667597099
 21
1436.106949995856
 31
0.0
  0
TEXT
  5
273
  8
DIM
 10
912.56499768964306
 20
1202.2645572584281
 30
0.0
 40
10.0
  1
8 OFF M16 BASEPLATE SECURING
  0
TEXT
  5
274
  8
DIM
 10
912.56499768964306
 20
1185.121700115571
 30
0.0
 40
10.0
  1
SCREWS EQUALLY SPACED 11.25%%D
  0
TEXT
  5
275
  8
DIM
 10
912.56499768964306
 20
1167.9788429727139
 30
0.0
 40
10.0
  1
OFF CENTRES ON %%C490 (%%c19.29")
  0
LINE
  5
276
  8
DIM
 10
1172.6576592329029
 20
1181.5430603530399
 30
0.0
 11
1184.0459213933441
 21
1181.5430603530399
 31
0.0
  0
SOLID
  5
277
  8
DIM
 10
1217.6630789510091
 20
1162.6704510640161
 30
0.0
 11
1215.526645380558
 21
1159.2887870359
 31
0.0
 12
1226.7398542501289
 22
1154.5703183386031
 32
0.0
 13
1226.7398542501289
 23
1154.5703183386031
 33
0.0
  0
LINE
  5
278
  8
DIM
 10
1216.594862165784
 20
1160.979619049958
 30
0.0
 11
1184.0459213933441
 21
1181.5430603530399
 31
0.0
  0
TEXT
  5
279
  8
DIM
 10
930.92629765368974
 20
1522.999120458393
 30
0.0
 40
10.0
  1
4 OFF M12 SCREWS EACH SIDE ON
  0
TEXT
  5
27A
  8
DIM
 10
930.92629765368974
 20
1505.856263315535
 30
0.0
 40
10.0
  1
%%C140 (%%c5.51") P.C. 
  0
SOLID
  5
27B
  8
DIM
 10
1307.671269452389
 20
1461.083621432949
 30
0.0
 11
1304.9449889693731
 21
1458.156610205104
 31
0.0
 12
1315.0891628944139
 22
1451.44127436998
 32
0.0
 13
1315.0891628944139
 23
1451.44127436998
 33
0.0
  0
LINE
  5
27C
  8
DIM
 10
1306.30812921088
 20
1459.620115819027
 30
0.0
 11
1251.681509245301
 21
1510.5005109635811
 31
0.0
  0
LINE
  5
27D
  8
DIM
 10
1251.681509245301
 20
1510.5005109635811
 30
0.0
 11
1234.806347384721
 21
1510.5005109635811
 31
0.0
  0
LINE
  5
27E
  8
DIM
 10
307.3434371689886
 20
1183.767536760442
 30
0.0
 11
297.39444056340329
 21
1183.767536760442
 31
0.0
  0
TEXT
  5
27F
  8
DIM
 10
106.2521473603676
 20
1178.881695974372
 30
0.0
 40
10.0
  1
%%C154 (%%c6.06") P.C. FOR
  0
TEXT
  5
280
  8
DIM
 10
106.2521473603676
 20
1196.0245531172291
 30
0.0
 40
10.0
  1
4 OFF M16 SCREWS ON 
  0
SOLID
  5
281
  8
DIM
 10
397.25811337137168
 20
1336.374679552014
 30
0.0
 11
400.68126357651607
 21
1334.30536984271
 31
0.0
 12
405.17761760185522
 22
1345.6094753127959
 32
0.0
 13
405.17761760185522
 23
1345.6094753127959
 33
0.0
  0
LINE
  5
282
  8
DIM
 10
398.9696884739439
 20
1335.3400246973631
 30
0.0
 11
307.3434371689886
 21
1183.767536760442
 31
0.0
  0
LINE
  5
283
  8
HID
 10
413.17761760185539
 20
1039.0069499958561
 30
0.0
 11
449.17761760185539
 21
1039.0069499958561
 31
0.0
  0
LINE
  5
284
  8
HID
 10
413.17761760185539
 20
844.00694999585608
 30
0.0
 11
449.17761760185539
 21
844.00694999585608
 31
0.0
  0
TEXT
  5
285
  8
DIM
 10
930.92629765368974
 20
1488.1838739540931
 30
0.0
 40
10.0
  1
THIS SIDE ONLY FOR G30 & ISO F30
  0
LINE
  5
286
  8
CRS
 10
406.61083271150159
 20
1051.5069499958561
 30
0.0
 11
443.07302778100347
 21
1051.5069499958561
 31
0.0
  0
LINE
  5
287
  8
CRS
 10
406.61083271150159
 20
831.50694999585608
 30
0.0
 11
443.07302778100347
 21
831.50694999585608
 31
0.0
  0
LINE
  5
288
  8
DRG
 10
189.72445656110031
 20
1877.5630653269211
 30
0.0
 11
189.72445656110031
 21
1874.163065326921
 31
0.0
  0
ARC
  5
289
  8
DRG
 10
1370.6451614324869
 20
1204.306949995856
 30
0.0
 40
30.0
 50
90.0
 51
188.62192824309639
  0
LINE
  5
28A
  8
HID
 10
430.92083403476357
 20
1047.2569499958561
 30
0.0
 11
433.17761760185562
 21
1047.2569499958561
 31
0.0
  0
LINE
  5
28B
  8
HID
 10
430.92083403476357
 20
1055.7569499958561
 30
0.0
 11
433.17761760185562
 21
1055.7569499958561
 31
0.0
  0
LINE
  5
28C
  8
HID
 10
413.17761760185562
 20
1046.5069499958561
 30
0.0
 11
416.81270244479128
 21
1046.5069499958561
 31
0.0
  0
LINE
  5
28D
  8
HID
 10
413.17761760185562
 20
1047.2569499958561
 30
0.0
 11
416.41693320256212
 21
1047.2569499958561
 31
0.0
  0
LINE
  5
28E
  8
HID
 10
413.17761760185562
 20
1056.5069499958561
 30
0.0
 11
416.81270244479128
 21
1056.5069499958561
 31
0.0
  0
LINE
  5
28F
  8
HID
 10
413.17761760185562
 20
1055.7569499958561
 30
0.0
 11
416.41693320256212
 21
1055.7569499958561
 31
0.0
  0
LINE
  5
290
  8
HID
 10
429.17761760185562
 20
1048.026568240193
 30
0.0
 11
429.17761760185562
 21
1046.5069499958561
 31
0.0
  0
LINE
  5
291
  8
HID
 10
419.81514266590602
 20
1046.5069499958561
 30
0.0
 11
424.30910146830217
 21
1046.5069499958561
 31
0.0
  0
LINE
  5
292
  8
HID
 10
426.38128246912981
 20
1046.5069499958561
 30
0.0
 11
429.17761760185562
 21
1046.5069499958561
 31
0.0
  0
LINE
  5
293
  8
HID
 10
426.55635475980938
 20
1047.2569499958561
 30
0.0
 11
429.81739433672391
 21
1047.2569499958561
 31
0.0
  0
LINE
  5
294
  8
HID
 10
419.59445380478383
 20
1047.2569499958561
 30
0.0
 11
424.09674772906283
 21
1047.2569499958561
 31
0.0
  0
LINE
  5
295
  8
HID
 10
419.81514266590602
 20
1056.5069499958561
 30
0.0
 11
424.30910146830217
 21
1056.5069499958561
 31
0.0
  0
LINE
  5
296
  8
HID
 10
419.59445380478383
 20
1055.7569499958561
 30
0.0
 11
424.09674772906283
 21
1055.7569499958561
 31
0.0
  0
LINE
  5
297
  8
HID
 10
426.38128246912981
 20
1056.5069499958561
 30
0.0
 11
429.17761760185562
 21
1056.5069499958561
 31
0.0
  0
LINE
  5
298
  8
HID
 10
426.55635475980938
 20
1055.7569499958561
 30
0.0
 11
429.81739433672391
 21
1055.7569499958561
 31
0.0
  0
LINE
  5
299
  8
HID
 10
429.17761760185562
 20
1054.9873317515189
 30
0.0
 11
429.17761760185562
 21
1056.5069499958561
 31
0.0
  0
LINE
  5
29A
  8
HID
 10
429.17761760185562
 20
1052.6341799065001
 30
0.0
 11
429.17761760185562
 21
1053.95782717727
 31
0.0
  0
LINE
  5
29B
  8
HID
 10
429.17761760185562
 20
1049.3007805488251
 30
0.0
 11
429.17761760185562
 21
1050.992107046317
 31
0.0
  0
LINE
  5
29C
  8
HID
 10
429.17761760185562
 20
1046.5069499958561
 30
0.0
 11
429.17761760185562
 21
1047.8543431105461
 31
0.0
  0
LINE
  5
29D
  8
HID
 10
429.17761760185562
 20
1048.026568240193
 30
0.0
 11
429.17761760185562
 21
1046.5069499958561
 31
0.0
  0
LINE
  5
29E
  8
HID
 10
434.89209588039552
 20
1052.7873865089509
 30
0.0
 11
435.63135624591149
 21
1051.5069499958561
 31
0.0
  0
LINE
  5
29F
  8
HID
 10
433.17761760185562
 20
1055.7569499958561
 30
0.0
 11
434.16375634479198
 21
1054.0489075897781
 31
0.0
  0
LINE
  5
2A0
  8
HID
 10
434.89209588039552
 20
1050.2265134827601
 30
0.0
 11
435.63135624591149
 21
1051.5069499958561
 31
0.0
  0
LINE
  5
2A1
  8
HID
 10
433.17761760185562
 20
1050.461236310387
 30
0.0
 11
433.17761760185562
 21
1052.5548213528709
 31
0.0
  0
LINE
  5
2A2
  8
HID
 10
433.17761760185562
 20
1047.2569499958561
 30
0.0
 11
434.16375634479198
 21
1048.9649924019341
 31
0.0
  0
LINE
  5
2A3
  8
HID
 10
433.17761760185562
 20
1054.3255064039911
 30
0.0
 11
433.17761760185562
 21
1055.7569499958561
 31
0.0
  0
LINE
  5
2A4
  8
HID
 10
433.17761760185562
 20
1047.2569499958561
 30
0.0
 11
433.17761760185562
 21
1048.2955588674679
 31
0.0
  0
LINE
  5
2A5
  8
HID
 10
433.17761760185562
 20
1047.2569499958561
 30
0.0
 11
434.16375634479198
 21
1048.9649924019341
 31
0.0
  0
LINE
  5
2A6
  8
HID
 10
430.92083403476357
 20
827.25694999585619
 30
0.0
 11
433.17761760185562
 21
827.25694999585619
 31
0.0
  0
LINE
  5
2A7
  8
HID
 10
430.92083403476357
 20
835.7569499958563
 30
0.0
 11
433.17761760185562
 21
835.7569499958563
 31
0.0
  0
LINE
  5
2A8
  8
HID
 10
413.17761760185562
 20
826.5069499958563
 30
0.0
 11
416.81270244479128
 21
826.5069499958563
 31
0.0
  0
LINE
  5
2A9
  8
HID
 10
413.17761760185562
 20
827.25694999585619
 30
0.0
 11
416.41693320256212
 21
827.25694999585619
 31
0.0
  0
LINE
  5
2AA
  8
HID
 10
413.17761760185562
 20
835.7569499958563
 30
0.0
 11
416.41693320256212
 21
835.7569499958563
 31
0.0
  0
LINE
  5
2AB
  8
HID
 10
413.17761760185562
 20
836.5069499958563
 30
0.0
 11
416.81270244479128
 21
836.5069499958563
 31
0.0
  0
LINE
  5
2AC
  8
HID
 10
429.17761760185562
 20
834.9873317515196
 30
0.0
 11
429.17761760185562
 21
836.5069499958563
 31
0.0
  0
LINE
  5
2AD
  8
HID
 10
429.17761760185562
 20
836.5069499958563
 30
0.0
 11
429.17761760185562
 21
835.15955688116674
 31
0.0
  0
LINE
  5
2AE
  8
HID
 10
429.17761760185562
 20
830.37972008521228
 30
0.0
 11
429.17761760185562
 21
829.05607281444247
 31
0.0
  0
LINE
  5
2AF
  8
HID
 10
429.17761760185562
 20
828.02656824019323
 30
0.0
 11
429.17761760185562
 21
826.5069499958563
 31
0.0
  0
LINE
  5
2B0
  8
HID
 10
419.81514266590602
 20
826.5069499958563
 30
0.0
 11
424.30910146830217
 21
826.5069499958563
 31
0.0
  0
LINE
  5
2B1
  8
HID
 10
426.38128246912981
 20
826.5069499958563
 30
0.0
 11
429.17761760185562
 21
826.5069499958563
 31
0.0
  0
LINE
  5
2B2
  8
HID
 10
426.55635475980938
 20
827.25694999585619
 30
0.0
 11
429.81739433672391
 21
827.25694999585619
 31
0.0
  0
LINE
  5
2B3
  8
HID
 10
419.59445380478383
 20
827.25694999585619
 30
0.0
 11
424.09674772906283
 21
827.25694999585619
 31
0.0
  0
LINE
  5
2B4
  8
HID
 10
419.59445380478383
 20
835.7569499958563
 30
0.0
 11
424.09674772906283
 21
835.7569499958563
 31
0.0
  0
LINE
  5
2B5
  8
HID
 10
426.55635475980938
 20
835.7569499958563
 30
0.0
 11
429.81739433672391
 21
835.7569499958563
 31
0.0
  0
LINE
  5
2B6
  8
HID
 10
426.38128246912981
 20
836.5069499958563
 30
0.0
 11
429.17761760185562
 21
836.5069499958563
 31
0.0
  0
LINE
  5
2B7
  8
HID
 10
419.81514266590602
 20
836.5069499958563
 30
0.0
 11
424.30910146830217
 21
836.5069499958563
 31
0.0
  0
LINE
  5
2B8
  8
HID
 10
429.17761760185562
 20
834.98733175151926
 30
0.0
 11
429.17761760185562
 21
836.5069499958563
 31
0.0
  0
LINE
  5
2B9
  8
HID
 10
429.17761760185562
 20
833.71311944288675
 30
0.0
 11
429.17761760185562
 21
832.02179294539485
 31
0.0
  0
LINE
  5
2BA
  8
HID
 10
433.17761760185562
 20
835.7569499958563
 30
0.0
 11
433.17761760185562
 21
834.71834112424358
 31
0.0
  0
LINE
  5
2BB
  8
HID
 10
433.17761760185562
 20
828.68839358772084
 30
0.0
 11
433.17761760185562
 21
827.25694999585619
 31
0.0
  0
LINE
  5
2BC
  8
HID
 10
433.17761760185562
 20
832.55266368132561
 30
0.0
 11
433.17761760185562
 21
830.45907863884156
 31
0.0
  0
LINE
  5
2BD
  8
HID
 10
433.17761760185562
 20
835.7569499958563
 30
0.0
 11
434.16375634479198
 21
834.04890758977854
 31
0.0
  0
LINE
  5
2BE
  8
HID
 10
433.17761760185562
 20
835.75694999585653
 30
0.0
 11
434.16375634479198
 21
834.04890758977854
 31
0.0
  0
LINE
  5
2BF
  8
HID
 10
434.89209588039552
 20
832.78738650895184
 30
0.0
 11
435.63135624591149
 21
831.50694999585619
 31
0.0
  0
LINE
  5
2C0
  8
HID
 10
433.17761760185562
 20
827.25694999585596
 30
0.0
 11
434.16375634479198
 21
828.96499240193396
 31
0.0
  0
LINE
  5
2C1
  8
HID
 10
434.89209588039552
 20
830.22651348276065
 30
0.0
 11
435.63135624591149
 21
831.50694999585619
 31
0.0
  0
LINE
  5
2C2
  8
DRG2
 10
312.0
 20
227.40046722515501
 30
0.0
 11
852.0
 21
227.40046722515501
 31
0.0
  0
LINE
  5
2C3
  8
DRG2
 10
312.0
 20
259.40046722515501
 30
0.0
 11
852.0
 21
259.40046722515501
 31
0.0
  0
LINE
  5
2C4
  8
DRG2
 10
312.0
 20
291.40046722515501
 30
0.0
 11
852.0
 21
291.40046722515501
 31
0.0
  0
LINE
  5
2C5
  8
DRG2
 10
312.0
 20
323.40046722515501
 30
0.0
 11
852.0
 21
323.40046722515501
 31
0.0
  0
LINE
  5
2C6
  8
DRG2
 10
652.0
 20
227.40046722515501
 30
0.0
 11
652.0
 21
323.40046722515501
 31
0.0
  0
LINE
  5
2C7
  8
DRG2
 10
552.0
 20
227.40046722515501
 30
0.0
 11
552.0
 21
323.40046722515501
 31
0.0
  0
LINE
  5
2C8
  8
DRG2
 10
312.0
 20
227.40046722515501
 30
0.0
 11
312.0
 21
323.40046722515501
 31
0.0
  0
TEXT
  5
2C9
  8
TXT
 10
321.52380952380958
 20
239.11475293944079
 30
0.0
 40
10.0
  1
FACTOR (MECH. ADVANTAGE)
 72
     4
 11
432.0
 21
243.40046722515501
 31
0.0
  0
TEXT
  5
2CA
  8
TXT
 10
383.42857142857139
 20
270.40046722515501
 30
0.0
 40
10.0
  1
EXACT RATIO
 72
     4
 11
432.0
 21
275.40046722515501
 31
0.0
  0
TEXT
  5
2CB
  8
TXT
 10
374.61904761904748
 20
302.40046722515501
 30
0.0
 40
10.0
  1
NOMINAL RATIO
 72
     4
 11
432.0
 21
307.40046722515501
 31
0.0
  0
TEXT
  5
2CC
  8
TXT
 10
586.76190476190482
 20
238.40046722515501
 30
0.0
 40
10.0
  1
8.87
 72
     4
 11
602.0
 21
243.40046722515501
 31
0.0
  0
TEXT
  5
2CD
  8
TXT
 10
580.57142857142856
 20
270.40046722515501
 30
0.0
 40
10.0
  1
9.86:1
 72
     4
 11
602.0
 21
275.40046722515501
 31
0.0
  0
TEXT
  5
2CE
  8
TXT
 10
588.66666666666663
 20
302.40046722515501
 30
0.0
 40
10.0
  1
10:1
 72
     4
 11
602.0
 21
307.40046722515501
 31
0.0
  0
LINE
  5
2CF
  8
DRG2
 10
852.0
 20
227.40046722515501
 30
0.0
 11
852.0
 21
323.40046722515501
 31
0.0
  0
LINE
  5
2D0
  8
DRG2
 10
752.0
 20
227.40046722515501
 30
0.0
 11
752.0
 21
323.40046722515501
 31
0.0
  0
TEXT
  5
2D1
  8
TXT
 10
676.76190476190482
 20
270.40046722515501
 30
0.0
 40
10.0
  1
12.00:1
 72
     4
 11
702.0
 21
275.40046722515501
 31
0.0
  0
TEXT
  5
2D2
  8
TXT
 10
682.95238095238085
 20
238.40046722515501
 30
0.0
 40
10.0
  1
10.80
 72
     4
 11
702.0
 21
243.40046722515501
 31
0.0
  0
TEXT
  5
2D3
  8
TXT
 10
688.66666666666663
 20
302.40046722515501
 30
0.0
 40
10.0
  1
12:1
 72
     4
 11
702.0
 21
307.40046722515501
 31
0.0
  0
TEXT
  5
2D4
  8
TXT
 10
776.76190476190482
 20
270.40046722515501
 30
0.0
 40
10.0
  1
15.00:1
 72
     4
 11
802.0
 21
275.40046722515501
 31
0.0
  0
TEXT
  5
2D5
  8
TXT
 10
788.66666666666663
 20
302.40046722515501
 30
0.0
 40
10.0
  1
15:1
 72
     4
 11
802.0
 21
307.40046722515501
 31
0.0
  0
TEXT
  5
2D6
  8
TXT
 10
782.95238095238085
 20
238.40046722515501
 30
0.0
 40
10.0
  1
13.50
 72
     4
 11
802.0
 21
243.40046722515501
 31
0.0
  0
LINE
  5
2D7
  8
CRS
 10
69.74498478274063
 20
1849.163065326921
 30
0.0
 11
323.3617882474345
 21
1849.163065326921
 31
0.0
  0
TEXT
  5
2D8
  8
DIM
 10
224.4964565611005
 20
2162.4550653269221
 30
0.0
 40
9.9960000000000004
  1
(4.33")
 72
     4
 11
249.7244565611006
 21
2166.7390653269222
 31
0.0
  0
TEXT
  5
2D9
  8
DIM
 10
228.75274831624009
 20
2102.4550653269221
 30
0.0
 40
9.9960000000000004
  1
(0.79")
 72
     4
 11
253.9807483162401
 21
2106.7390653269222
 31
0.0
  0
TEXT
  5
2DA
  8
DIM
 10
106.7281159422964
 20
1921.855065326921
 30
0.0
 40
9.9960000000000004
  1
(0.20")
 72
     4
 11
131.95611594229649
 21
1926.1390653269209
 31
0.0
  0
TEXT
  5
2DB
  8
DIM
 10
41.146456561101061
 20
1813.7010653269219
 30
0.0
 40
9.9960000000000004
  1
SEE TABLE
 50
90.0
 72
     4
 11
36.14845656110105
 21
1853.6850653269221
 31
0.0
  0
LINE
  5
2DC
  8
DIM
 10
190.1506863267941
 20
2058.1630653269222
 30
0.0
 11
22.724456561101071
 21
2058.1630653269222
 31
0.0
  0
LINE
  5
2DD
  8
DIM
 10
187.0771313633233
 20
1640.163065326921
 30
0.0
 11
22.724456561101071
 21
1640.1630653269219
 31
0.0
  0
ARC
  5
2DE
  8
DRG
 10
1370.6451614324869
 20
941.50694999585619
 30
0.0
 40
107.95
 50
90.0
 51
270.0
  0
ARC
  5
2DF
  8
DRG2
 10
1302.601847758702
 20
1105.7718198381051
 30
0.0
 40
12.699999999999999
 50
72.075236820418056
 51
11.69403250026803
  0
CIRCLE
  5
2E0
  8
DRG2
 10
1302.601847758702
 20
1105.7718198381051
 30
0.0
 40
11.144249999999991
  0
LINE
  5
2E1
  8
CRS
 10
1224.078469543166
 20
1009.545864858899
 30
0.0
 11
1188.6784695431761
 21
1009.545864858899
 31
0.0
  0
LINE
  5
2E2
  8
CRS
 10
1206.3784695431709
 20
991.84586485890395
 30
0.0
 11
1206.3784695431709
 21
1027.245864858894
 31
0.0
  0
LINE
  5
2E3
  8
CRS
 10
1224.0802915902341
 20
873.46363632207124
 30
0.0
 11
1188.6802915902431
 21
873.46363632207124
 31
0.0
  0
LINE
  5
2E4
  8
CRS
 10
1206.3802915902379
 20
855.76363632207597
 30
0.0
 11
1206.3802915902379
 21
891.16363632206651
 31
0.0
  0
LINE
  5
2E5
  8
CRS
 10
1302.606246569444
 20
794.94025810653534
 30
0.0
 11
1302.606246569444
 21
759.54025810654446
 31
0.0
  0
LINE
  5
2E6
  8
CRS
 10
1320.3062465694391
 20
777.24025810653984
 30
0.0
 11
1284.906246569449
 21
777.24025810653984
 31
0.0
  0
ARC
  5
2E7
  8
DRG2
 10
1206.3784695431709
 20
1009.545864858899
 30
0.0
 40
12.699999999999999
 50
72.075236820418056
 51
11.69403250026803
  0
CIRCLE
  5
2E8
  8
DRG2
 10
1206.3784695431709
 20
1009.545864858899
 30
0.0
 40
11.144249999999991
  0
ARC
  5
2E9
  8
DRG2
 10
1206.3802915902379
 20
873.46363632207135
 30
0.0
 40
12.699999999999999
 50
72.075236820418056
 51
11.69403250026803
  0
CIRCLE
  5
2EA
  8
DRG2
 10
1206.3802915902379
 20
873.46363632207135
 30
0.0
 40
11.144249999999991
  0
ARC
  5
2EB
  8
DRG2
 10
1302.606246569444
 20
777.24025810653995
 30
0.0
 40
12.699999999999999
 50
72.075236820418056
 51
11.69403250026803
  0
CIRCLE
  5
2EC
  8
DRG2
 10
1302.606246569444
 20
777.24025810653995
 30
0.0
 40
11.144249999999991
  0
TEXT
  5
2ED
  8
DIM
 10
925.39455955081519
 20
1158.6323315000741
 30
0.0
 40
9.9960000000000004
  1

  0
LINE
  5
2EE
  8
DIM
 10
1167.535431585608
 20
1295.8987584150691
 30
0.0
 11
1208.0681912184809
 21
1295.8987584150691
 31
0.0
  0
TEXT
  5
2EF
  8
DIM
 10
912.56499768964306
 20
1150.835985829857
 30
0.0
 40
10.0
  1
P.C.
  0
TEXT
  5
2F0
  8
DIM
 10
1503.900473995614
 20
1410.868854757761
 30
0.0
 40
10.0
  1
(3.23")
 50
90.0
 72
     4
 11
1499.6147597099
 21
1436.106949995856
 31
0.0
  0
TEXT
  5
2F1
  8
DIM
 10
1503.900473995614
 20
1139.259330948237
 30
0.0
 40
10.0
  1
(17.86")
 50
90.0
 72
     4
 11
1499.6147597099
 21
1168.306949995856
 31
0.0
  0
TEXT
  5
2F2
  8
DIM
 10
1252.5130416621409
 20
617.29660657921045
 30
0.0
 40
9.9960000000000004
  1
(%%c20.47")
 72
     4
 11
1287.0230416621409
 21
621.58060657921055
 31
0.0
  0
LINE
  5
2F3
  8
DIM
 10
1147.60272024235
 20
1103.348330085252
 30
0.0
 11
1043.2498641085101
 21
1103.3483300852511
 31
0.0
  0
TEXT
  5
2F4
  8
DIM
 10
1045.3078440951631
 20
1087.863714692023
 30
0.0
 40
9.9960000000000004
  1
(%%c16.14")
 50
359.99999999999977
 72
     4
 11
1077.9138440951619
 21
1092.1477146920231
 31
0.0
  0
TEXT
  5
2F5
  8
DIM
 10
1061.4918440951631
 20
1109.5509454784799
 30
0.0
 40
9.9960000000000004
  1
%%C410
 50
0.0000000000000799
 72
     4
 11
1077.9138440951631
 21
1114.5489454784799
 31
0.0
  0
ARC
  5
2F6
  8
DIM
 10
1370.645161432486
 20
941.50694999585392
 30
0.0
 40
205.0
 50
141.49466485139439
 51
153.9113569089979
  0
TEXT
  5
2F7
  8
DIM
 10
718.41994049683387
 20
969.29466757812452
 30
0.0
 40
9.9960000000000004
  1
(5.91")
 72
     4
 11
742.69594049683383
 21
973.57866757812451
 31
0.0
  0
TEXT
  5
2F8
  8
DIM
 10
721.41452236376153
 20
617.29489229349645
 30
0.0
 40
10.0
  1
(6.28")
 72
     4
 11
746.65261760185672
 21
621.58060657921078
 31
0.0
  0
TEXT
  5
2F9
  8
DIM
 10
849.69381572576162
 20
617.29489229349645
 30
0.0
 40
10.0
  1
(0.20")
 72
     4
 11
874.93191096385681
 21
621.58060657921078
 31
0.0
  0
TEXT
  5
2FA
  8
DIM
 10
590.72999855423723
 20
552.46492110241354
 30
0.0
 40
10.0
  1
(16.27")
 72
     4
 11
619.77761760185615
 21
556.75063538812776
 31
0.0
  0
TEXT
  5
2FB
  8
DIM
 10
237.0820860529864
 20
911.75694999585642
 30
0.0
 40
9.9960000000000004
  1
(%%c7.69")
 50
90.0
 72
     4
 11
232.79808605298641
 21
941.50694999585642
 31
0.0
  0
TEXT
  5
2FC
  8
DIM
 10
106.2521473603676
 20
1161.7388388315151
 30
0.0
 40
10.0
  1
G30 & IS0 F30 ONLY
  0
TEXT
  5
2FD
  8
DIM
 10
321.94961760185492
 20
1616.427601335824
 30
0.0
 40
9.9960000000000004
  1
(6.69")
 72
     4
 11
347.17761760185499
 21
1620.7116013358241
 31
0.0
  0
TEXT
  5
2FE
  8
DIM
 10
600.22999855423666
 20
1616.4258870501101
 30
0.0
 40
10.0
  1
(15.52")
 72
     4
 11
629.2776176018557
 21
1620.7116013358241
 31
0.0
  0
TEXT
  5
2FF
  8
DIM
 10
192.9916901978736
 20
1540.8010687425019
 30
0.0
 40
9.9960000000000004
  1
(0.20")
 72
     4
 11
218.2196901978736
 21
1545.085068742502
 31
0.0
  0
TEXT
  5
300
  8
DIM
 10
347.72783816859652
 20
1540.8010687425019
 30
0.0
 40
9.9960000000000004
  1
(0.59")
 72
     4
 11
372.95583816859647
 21
1545.085068742502
 31
0.0
  0
TEXT
  5
301
  8
DIM
 10
693.53952236375994
 20
1540.799354456788
 30
0.0
 40
10.0
  1
(8.47")
 72
     4
 11
718.77761760185513
 21
1545.085068742502
 31
0.0
  0
TEXT
  5
302
  8
DIM
 10
642.92756348855642
 20
1489.5569387767489
 30
0.0
 40
10.0
  1
(0.47")
 72
     4
 11
668.1656587266516
 21
1493.842653062464
 31
0.0
  0
TEXT
  5
303
  8
DIM
 10
765.03952236376063
 20
1321.489638434168
 30
0.0
 40
10.0
  1
(2.84")
 72
     4
 11
790.27761760185581
 21
1325.775352719882
 31
0.0
  0
TEXT
  5
304
  8
DIM
 10
128.16443976085799
 20
1483.0431195160461
 30
0.0
 40
10.0
  1
14x9x55
 72
     4
 11
157.68824928466751
 21
1488.0431195160461
 31
0.0
  0
TEXT
  5
305
  8
DIM
 10
84.831106427524688
 20
1466.614548087475
 30
0.0
 40
10.0
  1
(0.55"x0.35"x2.17")
 72
     4
 11
157.68824928466751
 21
1470.900262373189
 31
0.0
  0
TEXT
  5
306
  8
DIM
 10
144.35491595133419
 20
1448.7574052303321
 30
0.0
 40
10.0
  1
KEY
 72
     4
 11
157.68824928466751
 21
1453.7574052303321
 31
0.0
  0
LINE
  5
307
  8
DIM
 10
237.63903973244641
 20
1471.4771255736821
 30
0.0
 11
287.83552511138691
 21
1471.4771255736821
 31
0.0
  0
LINE
  5
308
  8
DIM
 10
267.17761760185488
 20
1475.638739461335
 30
0.0
 11
267.17761760185488
 21
1560.5997797550699
 31
0.0
  0
LINE
  5
309
  8
DIM
 10
262.17761760185499
 20
1475.012932372671
 30
0.0
 11
262.17761760185499
 21
1634.135601335824
 31
0.0
  0
LINE
  5
30A
  8
DIM
 10
258.60174797544931
 20
1420.1069499958569
 30
0.0
 11
187.43070736418889
 21
1420.1069499958569
 31
0.0
  0
LINE
  5
30B
  8
DIM
 10
257.97559130113808
 20
1370.1069499958569
 30
0.0
 11
187.43070736418889
 21
1370.1069499958569
 31
0.0
  0
LINE
  5
30C
  8
DIM
 10
262.17761760185499
 20
1422.75807298886
 30
0.0
 11
262.17761760185499
 21
1468.1290625272709
 31
0.0
  0
TEXT
  5
30D
  8
TXT
 10
1381.6666666666661
 20
2006.073024264942
 30
0.0
 40
10.0
  1
DETAILS
 72
     4
 11
1410.0
 21
2011.073024264942
 31
0.0
  0
TEXT
  5
30E
  8
TXT
 10
1380.4761904761899
 20
1974.073024264942
 30
0.0
 40
10.0
  1
12x8x55
 72
     4
 11
1410.0
 21
1979.073024264942
 31
0.0
  0
TEXT
  5
30F
  8
TXT
 10
1338.0952380952381
 20
1953.787309979228
 30
0.0
 40
10.0
  1
(0.47"x0.31"x2.17")
 72
     4
 11
1410.0
 21
1958.073024264942
 31
0.0
  0
TEXT
  5
310
  8
TXT
 10
1380.4761904761899
 20
1815.073024264942
 30
0.0
 40
10.0
  1
14x9x55
 72
     4
 11
1410.0
 21
1820.073024264942
 31
0.0
  0
TEXT
  5
311
  8
TXT
 10
1337.1428571428571
 20
1794.7873099792271
 30
0.0
 40
10.0
  1
(0.55"x0.35"x2.17")
 72
     4
 11
1410.0
 21
1799.073024264942
 31
0.0
  0
TEXT
  5
312
  8
TXT
 10
1337.1428571428571
 20
1847.787309979228
 30
0.0
 40
10.0
  1
(0.55"x0.35"x2.17")
 72
     4
 11
1410.0
 21
1852.073024264942
 31
0.0
  0
TEXT
  5
313
  8
TXT
 10
1380.4761904761899
 20
1868.073024264942
 30
0.0
 40
10.0
  1
14x9x55
 72
     4
 11
1410.0
 21
1873.073024264942
 31
0.0
  0
TEXT
  5
314
  8
TXT
 10
1338.0952380952381
 20
1900.787309979228
 30
0.0
 40
10.0
  1
(0.47"x0.31"x2.17")
 72
     4
 11
1410.0
 21
1905.073024264942
 31
0.0
  0
TEXT
  5
315
  8
TXT
 10
1380.4761904761899
 20
1921.073024264942
 30
0.0
 40
10.0
  1
12x8x55
 72
     4
 11
1410.0
 21
1926.073024264942
 31
0.0
  0
LINE
  5
316
  8
DRG2
 10
330.0
 20
1677.073024264942
 30
0.0
 11
1500.0
 21
1677.0730242649429
 31
0.0
  0
LINE
  5
317
  8
DRG2
 10
330.0
 20
1730.073024264942
 30
0.0
 11
1500.0
 21
1730.0730242649429
 31
0.0
  0
LINE
  5
318
  8
DRG2
 10
330.0
 20
2080.073024264942
 30
0.0
 11
1500.0
 21
2080.0730242649429
 31
0.0
  0
LINE
  5
319
  8
DRG2
 10
330.0
 20
2048.073024264942
 30
0.0
 11
1500.0
 21
2048.0730242649429
 31
0.0
  0
LINE
  5
31A
  8
DRG2
 10
330.0
 20
1942.073024264942
 30
0.0
 11
1500.0
 21
1942.0730242649429
 31
0.0
  0
LINE
  5
31B
  8
DRG2
 10
330.0
 20
1995.073024264942
 30
0.0
 11
1500.0
 21
1995.0730242649429
 31
0.0
  0
LINE
  5
31C
  8
DRG2
 10
330.0
 20
1889.073024264942
 30
0.0
 11
1500.0
 21
1889.0730242649429
 31
0.0
  0
LINE
  5
31D
  8
DRG2
 10
330.0
 20
1889.073024264942
 30
0.0
 11
1500.0
 21
1889.0730242649429
 31
0.0
  0
LINE
  5
31E
  8
DRG2
 10
330.0
 20
1836.073024264942
 30
0.0
 11
1500.0
 21
1836.0730242649429
 31
0.0
  0
LINE
  5
31F
  8
DRG2
 10
330.0
 20
1783.073024264942
 30
0.0
 11
1500.0
 21
1783.0730242649429
 31
0.0
  0
TEXT
  5
320
  8
TXT
 10
352.38095238095241
 20
1963.573024264942
 30
0.0
 40
10.0
  1
ISO F16
 72
     4
 11
380.0
 21
1968.573024264942
 31
0.0
  0
TEXT
  5
321
  8
TXT
 10
351.1904761904762
 20
1857.573024264942
 30
0.0
 40
10.0
  1
ISO F25
 72
     4
 11
380.0
 21
1862.573024264942
 31
0.0
  0
LINE
  5
322
  8
DRG2
 10
330.0
 20
1677.073024264942
 30
0.0
 11
330.0
 21
2080.073024264942
 31
0.0
  0
TEXT
  5
323
  8
TXT
 10
362.38095238095241
 20
1804.573024264942
 30
0.0
 40
10.0
  1
FA25
 72
     4
 11
380.0
 21
1809.573024264942
 31
0.0
  0
TEXT
  5
324
  8
TXT
 10
363.5714285714285
 20
1910.573024264942
 30
0.0
 40
10.0
  1
FA16
 72
     4
 11
380.0
 21
1915.573024264942
 31
0.0
  0
LINE
  5
325
  8
DRG2
 10
529.99999999999977
 20
1677.073024264942
 30
0.0
 11
529.99999999999977
 21
2048.073024264942
 31
0.0
  0
LINE
  5
326
  8
DRG2
 10
709.99999999999977
 20
1677.0730242649429
 30
0.0
 11
709.99999999999977
 21
2048.0730242649429
 31
0.0
  0
LINE
  5
327
  8
DRG2
 10
990.00000000000091
 20
1677.0730242649429
 30
0.0
 11
990.0
 21
2048.073024264942
 31
0.0
  0
LINE
  5
328
  8
DRG2
 10
1320.0000000000009
 20
1677.0730242649429
 30
0.0
 11
1320.0000000000009
 21
2048.073024264942
 31
0.0
  0
TEXT
  5
329
  8
TXT
 10
844.28571428571433
 20
1921.073024264942
 30
0.0
 40
10.0
  1
%%c126.92 +0.05
 72
     4
 11
899.99999999999977
 21
1926.073024264942
 31
0.0
  0
TEXT
  5
32A
  8
TXT
 10
568.09523809523785
 20
1921.073024264942
 30
0.0
 40
10.0
  1
%%c40.00 -0.05
 72
     4
 11
619.99999999999989
 21
1926.073024264942
 31
0.0
  0
TEXT
  5
32B
  8
TXT
 10
1107.8571428571429
 20
1921.787309979228
 30
0.0
 40
10.0
  1
4 HOLES %%c20.5 (%%c0.81")
 72
     4
 11
1200.0000000000009
 21
1926.073024264942
 31
0.0
  0
LINE
  5
32C
  8
DRG2
 10
430.0
 20
1677.073024264942
 30
0.0
 11
430.0
 21
2048.073024264942
 31
0.0
  0
TEXT
  5
32D
  8
TXT
 10
823.57142857142833
 20
1794.7873099792271
 30
0.0
 40
10.0
  1
(%%c5.999" +0.004") 
 72
     4
 11
899.99999999999977
 21
1799.073024264942
 31
0.0
  0
TEXT
  5
32E
  8
TXT
 10
845.23809523809496
 20
1815.073024264942
 30
0.0
 40
10.0
  1
%%c152.37 +0.10
 72
     4
 11
899.99999999999977
 21
1820.073024264942
 31
0.0
  0
TEXT
  5
32F
  8
TXT
 10
823.57142857142833
 20
1847.787309979228
 30
0.0
 40
10.0
  1
(%%c7.878" +0.004") 
 72
     4
 11
899.99999999999977
 21
1852.073024264942
 31
0.0
  0
TEXT
  5
330
  8
TXT
 10
845.23809523809496
 20
1868.073024264942
 30
0.0
 40
10.0
  1
%%c200.10 +0.10
 72
     4
 11
899.99999999999977
 21
1873.073024264942
 31
0.0
  0
TEXT
  5
331
  8
TXT
 10
823.57142857142833
 20
1900.787309979228
 30
0.0
 40
10.0
  1
(%%c4.997" +0.002") 
 72
     4
 11
899.99999999999977
 21
1905.073024264942
 31
0.0
  0
TEXT
  5
332
  8
TXT
 10
568.09523809523785
 20
1815.073024264942
 30
0.0
 40
10.0
  1
%%c50.00 -0.05
 72
     4
 11
619.99999999999989
 21
1820.073024264942
 31
0.0
  0
TEXT
  5
333
  8
TXT
 10
550.71428571428555
 20
1794.7873099792271
 30
0.0
 40
10.0
  1
(%%c1.969" -0.002")
 72
     4
 11
619.99999999999989
 21
1799.073024264942
 31
0.0
  0
TEXT
  5
334
  8
TXT
 10
550.71428571428555
 20
1847.787309979228
 30
0.0
 40
10.0
  1
(%%c1.969" -0.002")
 72
     4
 11
619.99999999999989
 21
1852.073024264942
 31
0.0
  0
TEXT
  5
335
  8
TXT
 10
568.09523809523785
 20
1868.073024264942
 30
0.0
 40
10.0
  1
%%c50.00 -0.05
 72
     4
 11
619.99999999999989
 21
1873.073024264942
 31
0.0
  0
TEXT
  5
336
  8
TXT
 10
550.71428571428555
 20
1900.787309979228
 30
0.0
 40
10.0
  1
(%%c1.575" -0.002")
 72
     4
 11
619.99999999999989
 21
1905.073024264942
 31
0.0
  0
TEXT
  5
337
  8
TXT
 10
462.61904761904742
 20
1868.073024264942
 30
0.0
 40
10.0
  1
%%c300
 72
     4
 11
479.99999999999977
 21
1873.073024264942
 31
0.0
  0
TEXT
  5
338
  8
TXT
 10
448.3333333333332
 20
1847.787309979228
 30
0.0
 40
10.0
  1
(%%c11.81")
 72
     4
 11
479.99999999999977
 21
1852.073024264942
 31
0.0
  0
TEXT
  5
339
  8
TXT
 10
1107.8571428571429
 20
1815.787309979228
 30
0.0
 40
10.0
  1
8 HOLES %%c16.5 (%%c0.65")
 72
     4
 11
1200.0000000000009
 21
1820.073024264942
 31
0.0
  0
TEXT
  5
33A
  8
TXT
 10
1101.9047619047619
 20
1794.7873099792271
 30
0.0
 40
10.0
  1
ON %%c254.0 (%%c10.00") P.C.
 72
     4
 11
1200.0000000000009
 21
1799.073024264942
 31
0.0
  0
TEXT
  5
33B
  8
TXT
 10
1101.9047619047619
 20
1847.787309979228
 30
0.0
 40
10.0
  1
ON %%c254.0 (%%c10.00") P.C.
 72
     4
 11
1200.0000000000009
 21
1852.073024264942
 31
0.0
  0
TEXT
  5
33C
  8
TXT
 10
1107.8571428571429
 20
1868.787309979228
 30
0.0
 40
10.0
  1
8 HOLES %%c16.5 (%%c0.65")
 72
     4
 11
1200.0000000000009
 21
1873.073024264942
 31
0.0
  0
TEXT
  5
33D
  8
TXT
 10
1106.666666666667
 20
1900.787309979228
 30
0.0
 40
10.0
  1
ON %%c165.0 (%%c6.50") P.C.
 72
     4
 11
1200.0000000000009
 21
1905.073024264942
 31
0.0
  0
TEXT
  5
33E
  8
TXT
 10
887.38095238095229
 20
2006.073024264942
 30
0.0
 40
10.0
  1
DIA.
 72
     4
 11
899.99999999999977
 21
2011.073024264942
 31
0.0
  0
TEXT
  5
33F
  8
TXT
 10
872.85714285714266
 20
2027.073024264942
 30
0.0
 40
10.0
  1
RECESS
 72
     4
 11
899.99999999999977
 21
2032.073024264942
 31
0.0
  0
TEXT
  5
340
  8
TXT
 10
827.61904761904748
 20
2059.073024264942
 30
0.0
 40
10.0
  1
INPUT FLANGE DETAILS
 72
     4
 11
915.0
 21
2064.073024264942
 31
0.0
  0
TEXT
  5
341
  8
TXT
 10
844.28571428571411
 20
1974.073024264942
 30
0.0
 40
10.0
  1
%%c130.05 +0.05
 72
     4
 11
899.99999999999977
 21
1979.073024264942
 31
0.0
  0
TEXT
  5
342
  8
TXT
 10
824.52380952380929
 20
1953.787309979228
 30
0.0
 40
10.0
  1
(%%c5.120" +0.002") 
 72
     4
 11
899.99999999999977
 21
1958.073024264942
 31
0.0
  0
TEXT
  5
343
  8
TXT
 10
568.09523809523785
 20
1974.073024264942
 30
0.0
 40
10.0
  1
%%c40.00 -0.05
 72
     4
 11
619.99999999999989
 21
1979.073024264942
 31
0.0
  0
TEXT
  5
344
  8
TXT
 10
550.71428571428555
 20
1953.787309979228
 30
0.0
 40
10.0
  1
(%%c1.575" -0.002")
 72
     4
 11
619.99999999999989
 21
1958.073024264942
 31
0.0
  0
TEXT
  5
345
  8
TXT
 10
463.57142857142838
 20
1974.073024264942
 30
0.0
 40
10.0
  1
%%c210
 72
     4
 11
479.99999999999977
 21
1979.073024264942
 31
0.0
  0
TEXT
  5
346
  8
TXT
 10
450.23809523809513
 20
1953.787309979228
 30
0.0
 40
10.0
  1
(%%c8.27")
 72
     4
 11
479.99999999999977
 21
1958.073024264942
 31
0.0
  0
TEXT
  5
347
  8
TXT
 10
456.9047619047617
 20
2006.787309979228
 30
0.0
 40
10.0
  1
O/DIA.
 72
     4
 11
479.99999999999977
 21
2011.073024264942
 31
0.0
  0
TEXT
  5
348
  8
TXT
 10
453.0952380952379
 20
2027.073024264942
 30
0.0
 40
10.0
  1
FLANGE
 72
     4
 11
479.99999999999977
 21
2032.073024264942
 31
0.0
  0
TEXT
  5
349
  8
TXT
 10
607.38095238095218
 20
2006.073024264942
 30
0.0
 40
10.0
  1
DIA.
 72
     4
 11
619.99999999999989
 21
2011.073024264942
 31
0.0
  0
TEXT
  5
34A
  8
TXT
 10
597.14285714285688
 20
2027.073024264942
 30
0.0
 40
10.0
  1
SHAFT
 72
     4
 11
619.99999999999989
 21
2032.073024264942
 31
0.0
  0
TEXT
  5
34B
  8
TXT
 10
1143.3333333333339
 20
2006.787309979228
 30
0.0
 40
10.0
  1
(OFF CENTRES)
 72
     4
 11
1200.0000000000009
 21
2011.073024264942
 31
0.0
  0
TEXT
  5
34C
  8
TXT
 10
1148.0952380952381
 20
2027.073024264942
 30
0.0
 40
10.0
  1
HOLE DETAILS
 72
     4
 11
1200.0000000000009
 21
2032.073024264942
 31
0.0
  0
TEXT
  5
34D
  8
TXT
 10
1106.666666666667
 20
1953.787309979228
 30
0.0
 40
10.0
  1
ON %%c165.0 (%%c6.50") P.C.
 72
     4
 11
1200.0000000000009
 21
1958.073024264942
 31
0.0
  0
TEXT
  5
34E
  8
TXT
 10
1107.8571428571429
 20
1974.787309979228
 30
0.0
 40
10.0
  1
4 HOLES %%c20.5 (%%c0.81")
 72
     4
 11
1200.0000000000009
 21
1979.073024264942
 31
0.0
  0
TEXT
  5
34F
  8
TXT
 10
1396.6666666666661
 20
2027.073024264942
 30
0.0
 40
10.0
  1
KEY
 72
     4
 11
1410.0
 21
2032.073024264942
 31
0.0
  0
LINE
  5
350
  8
DRG2
 10
1500.0
 20
1677.0730242649429
 30
0.0
 11
1500.0
 21
2080.0730242649429
 31
0.0
  0
TEXT
  5
351
  8
TXT
 10
1008.9172121571009
 20
384.72878679576928
 30
0.0
 40
10.0
  1
(%%c8.496" -0.008") 
 72
     4
 11
1085.345783585673
 21
389.01450108148367
 31
0.0
  0
TEXT
  5
352
  8
TXT
 10
1029.631497871387
 20
405.01450108148362
 30
0.0
 40
10.0
  1
%%c215.80 -0.20
 72
     4
 11
1085.345783585673
 21
410.01450108148362
 31
0.0
  0
TEXT
  5
353
  8
TXT
 10
1005.107688347578
 20
437.72878679576939
 30
0.0
 40
10.0
  1
(%%c10.234" -0.002") 
 72
     4
 11
1085.345783585673
 21
442.01450108148367
 31
0.0
  0
TEXT
  5
354
  8
TXT
 10
1028.679116919006
 20
458.01450108148362
 30
0.0
 40
10.0
  1
%%c259.95 -0.05
 72
     4
 11
1085.345783585673
 21
463.0145010814835
 31
0.0
  0
TEXT
  5
355
  8
TXT
 10
1042.0124502523399
 20
490.01450108148367
 30
0.0
 40
10.0
  1
SPIGOT DIA.
 72
     4
 11
1085.345783585673
 21
495.01450108148367
 31
0.0
  0
LINE
  5
356
  8
DRG2
 10
885.3457835856733
 20
543.01450108148356
 30
0.0
 11
1485.3457835856709
 21
543.01450108148356
 31
0.0
  0
LINE
  5
357
  8
DRG2
 10
885.3457835856733
 20
373.01450108148367
 30
0.0
 11
1485.3457835856709
 21
373.01450108148367
 31
0.0
  0
LINE
  5
358
  8
DRG2
 10
885.3457835856733
 20
426.01450108148362
 30
0.0
 11
1485.3457835856709
 21
426.01450108148362
 31
0.0
  0
LINE
  5
359
  8
DRG2
 10
885.3457835856733
 20
479.01450108148362
 30
0.0
 11
1485.3457835856709
 21
479.01450108148362
 31
0.0
  0
LINE
  5
35A
  8
DRG2
 10
885.3457835856733
 20
511.01450108148367
 30
0.0
 11
1485.3457835856709
 21
511.01450108148367
 31
0.0
  0
LINE
  5
35B
  8
DRG2
 10
985.3457835856733
 20
373.01450108148379
 30
0.0
 11
985.3457835856733
 21
511.01450108148367
 31
0.0
  0
LINE
  5
35C
  8
DRG2
 10
885.3457835856733
 20
373.01450108148367
 30
0.0
 11
885.3457835856733
 21
543.01450108148356
 31
0.0
  0
TEXT
  5
35D
  8
TXT
 10
917.72673596662582
 20
394.51450108148362
 30
0.0
 40
10.0
  1
FA35
 72
     4
 11
935.3457835856733
 21
399.51450108148362
 31
0.0
  0
TEXT
  5
35E
  8
TXT
 10
906.53625977614945
 20
447.51450108148362
 30
0.0
 40
10.0
  1
ISO F35
 72
     4
 11
935.3457835856733
 21
452.51450108148367
 31
0.0
  0
TEXT
  5
35F
  8
TXT
 10
1237.250545490434
 20
384.72878679576928
 30
0.0
 40
10.0
  1
ON %%c355.6 (%%c14.00") P.C.
 72
     4
 11
1335.3457835856721
 21
389.01450108148367
 31
0.0
  0
TEXT
  5
360
  8
TXT
 10
1208.9172121571
 20
405.72878679576928
 30
0.0
 40
10.0
  1
8 HOLES 1"UNCx40 (1.57") DEEP
 72
     4
 11
1335.3457835856721
 21
410.01450108148362
 31
0.0
  0
TEXT
  5
361
  8
TXT
 10
1237.250545490434
 20
437.72878679576939
 30
0.0
 40
10.0
  1
ON %%c356.0 (%%c14.02") P.C.
 72
     4
 11
1335.3457835856721
 21
442.01450108148367
 31
0.0
  0
TEXT
  5
362
  8
TXT
 10
1216.536259776148
 20
458.72878679576928
 30
0.0
 40
10.0
  1
8 HOLES M30x40 (1.57") DEEP
 72
     4
 11
1335.3457835856721
 21
463.0145010814835
 31
0.0
  0
TEXT
  5
363
  8
TXT
 10
1197.7267359666239
 20
490.72878679576939
 30
0.0
 40
10.0
  1
HOLE DETAILS (22.5%%d OFF CENTRES)
 72
     4
 11
1335.3457835856721
 21
495.01450108148367
 31
0.0
  0
LINE
  5
364
  8
DRG2
 10
1185.345783585673
 20
373.0145010814839
 30
0.0
 11
1185.345783585673
 21
511.01450108148367
 31
0.0
  0
TEXT
  5
365
  8
TXT
 10
1109.869593109481
 20
522.01450108148356
 30
0.0
 40
10.0
  1
BASEPLATE DETAILS
 72
     4
 11
1185.3457835856721
 21
527.01450108148356
 31
0.0
  0
LINE
  5
366
  8
DRG2
 10
1485.3457835856709
 20
373.0145010814843
 30
0.0
 11
1485.3457835856709
 21
543.01450108148413
 31
0.0
  0
TEXT
  5
367
  8
TXT
 10
351.1904761904762
 20
1751.573024264942
 30
0.0
 40
10.0
  1
ISO F30
 72
     4
 11
380.0
 21
1756.573024264942
 31
0.0
  0
TEXT
  5
368
  8
TXT
 10
823.57142857142833
 20
1688.787309979228
 30
0.0
 40
10.0
  1
(%%c8.508" +0.004") 
 72
     4
 11
899.99999999999977
 21
1693.073024264942
 31
0.0
  0
TEXT
  5
369
  8
TXT
 10
823.57142857142833
 20
1741.787309979228
 30
0.0
 40
10.0
  1
(%%c9.059" +0.004") 
 72
     4
 11
899.99999999999977
 21
1746.073024264942
 31
0.0
  0
TEXT
  5
36A
  8
TXT
 10
568.09523809523785
 20
1709.073024264942
 30
0.0
 40
10.0
  1
%%c50.00 -0.05
 72
     4
 11
619.99999999999989
 21
1714.073024264942
 31
0.0
  0
TEXT
  5
36B
  8
TXT
 10
550.71428571428555
 20
1688.787309979228
 30
0.0
 40
10.0
  1
(%%c1.969" -0.002")
 72
     4
 11
619.99999999999989
 21
1693.073024264942
 31
0.0
  0
TEXT
  5
36C
  8
TXT
 10
550.71428571428555
 20
1741.787309979228
 30
0.0
 40
10.0
  1
(%%c1.969" -0.002")
 72
     4
 11
619.99999999999989
 21
1746.073024264942
 31
0.0
  0
TEXT
  5
36D
  8
TXT
 10
568.09523809523785
 20
1762.073024264942
 30
0.0
 40
10.0
  1
%%c50.00 -0.05
 72
     4
 11
619.99999999999989
 21
1767.073024264942
 31
0.0
  0
TEXT
  5
36E
  8
TXT
 10
462.61904761904742
 20
1762.073024264942
 30
0.0
 40
10.0
  1
%%c350
 72
     4
 11
479.99999999999977
 21
1767.073024264942
 31
0.0
  0
TEXT
  5
36F
  8
TXT
 10
446.42857142857127
 20
1741.787309979228
 30
0.0
 40
10.0
  1
(%%c13.78")
 72
     4
 11
479.99999999999977
 21
1746.073024264942
 31
0.0
  0
TEXT
  5
370
  8
TXT
 10
846.19047619047603
 20
1709.073024264942
 30
0.0
 40
10.0
  1
%%c216.10 +0.10
 72
     4
 11
899.99999999999977
 21
1714.073024264942
 31
0.0
  0
TEXT
  5
371
  8
TXT
 10
845.23809523809496
 20
1762.073024264942
 30
0.0
 40
10.0
  1
%%c230.10 +0.10
 72
     4
 11
899.99999999999977
 21
1767.073024264942
 31
0.0
  0
TEXT
  5
372
  8
TXT
 10
1107.8571428571429
 20
1709.787309979228
 30
0.0
 40
10.0
  1
8 HOLES %%c23.0 (%%c0.91")
 72
     4
 11
1200.0000000000009
 21
1714.073024264942
 31
0.0
  0
TEXT
  5
373
  8
TXT
 10
1101.9047619047619
 20
1688.787309979228
 30
0.0
 40
10.0
  1
ON %%c356.0 (%%c14.02") P.C.
 72
     4
 11
1200.0000000000009
 21
1693.073024264942
 31
0.0
  0
TEXT
  5
374
  8
TXT
 10
1102.8571428571429
 20
1741.787309979228
 30
0.0
 40
10.0
  1
ON %%c298.0 (%%c11.73") P.C.
 72
     4
 11
1200.0000000000009
 21
1746.073024264942
 31
0.0
  0
TEXT
  5
375
  8
TXT
 10
1107.8571428571429
 20
1762.7873099792271
 30
0.0
 40
10.0
  1
8 HOLES %%c20.5 (%%c0.81")
 72
     4
 11
1200.0000000000009
 21
1767.073024264942
 31
0.0
  0
TEXT
  5
376
  8
TXT
 10
351.90476190476193
 20
1709.073024264942
 30
0.0
 40
10.0
  1
ROTORK
 72
     4
 11
380.0
 21
1714.073024264942
 31
0.0
  0
TEXT
  5
377
  8
TXT
 10
366.90476190476193
 20
1688.073024264942
 30
0.0
 40
10.0
  1
G30
 72
     4
 11
380.0
 21
1693.073024264942
 31
0.0
  0
TEXT
  5
378
  8
TXT
 10
446.42857142857127
 20
1688.787309979228
 30
0.0
 40
10.0
  1
(%%c16.46")
 72
     4
 11
479.99999999999977
 21
1693.073024264942
 31
0.0
  0
TEXT
  5
379
  8
TXT
 10
463.57142857142838
 20
1709.0730242649429
 30
0.0
 40
10.0
  1
%%c418
 72
     4
 11
479.99999999999977
 21
1714.073024264942
 31
0.0
  0
TEXT
  5
37A
  8
TXT
 10
462.61904761904742
 20
1815.073024264942
 30
0.0
 40
10.0
  1
%%c300
 72
     4
 11
479.99999999999977
 21
1820.073024264942
 31
0.0
  0
TEXT
  5
37B
  8
TXT
 10
448.3333333333332
 20
1794.787309979228
 30
0.0
 40
10.0
  1
(%%c11.81")
 72
     4
 11
479.99999999999977
 21
1799.073024264942
 31
0.0
  0
TEXT
  5
37C
  8
TXT
 10
450.23809523809513
 20
1900.787309979228
 30
0.0
 40
10.0
  1
(%%c8.27")
 72
     4
 11
479.99999999999977
 21
1905.073024264942
 31
0.0
  0
TEXT
  5
37D
  8
TXT
 10
463.57142857142838
 20
1921.073024264942
 30
0.0
 40
10.0
  1
%%c210
 72
     4
 11
479.99999999999977
 21
1926.073024264942
 31
0.0
  0
TEXT
  5
37E
  8
TXT
 10
751.90476190476181
 20
1974.073024264942
 30
0.0
 40
10.0
  1
60
 72
     4
 11
759.99999999999977
 21
1979.073024264942
 31
0.0
  0
TEXT
  5
37F
  8
TXT
 10
721.42857142857133
 20
2006.073024264942
 30
0.0
 40
10.0
  1
EXTENSION
 72
     4
 11
759.99999999999977
 21
2011.073024264942
 31
0.0
  0
TEXT
  5
380
  8
TXT
 10
734.7619047619047
 20
1953.787309979228
 30
0.0
 40
10.0
  1
(2.36")
 72
     4
 11
759.99999999999977
 21
1958.073024264942
 31
0.0
  0
TEXT
  5
381
  8
TXT
 10
737.142857142857
 20
2027.073024264942
 30
0.0
 40
10.0
  1
SHAFT
 72
     4
 11
759.99999999999977
 21
2032.073024264942
 31
0.0
  0
LINE
  5
382
  8
DRG2
 10
809.99999999999989
 20
1677.073024264942
 30
0.0
 11
809.99999999999989
 21
2048.073024264942
 31
0.0
  0
TEXT
  5
383
  8
TXT
 10
751.90476190476181
 20
1921.073024264942
 30
0.0
 40
10.0
  1
60
 72
     4
 11
759.99999999999977
 21
1926.0730242649429
 31
0.0
  0
TEXT
  5
384
  8
TXT
 10
734.7619047619047
 20
1900.7873099792289
 30
0.0
 40
10.0
  1
(2.36")
 72
     4
 11
759.99999999999977
 21
1905.073024264942
 31
0.0
  0
TEXT
  5
385
  8
TXT
 10
751.90476190476181
 20
1868.0730242649429
 30
0.0
 40
10.0
  1
60
 72
     4
 11
759.99999999999977
 21
1873.0730242649429
 31
0.0
  0
TEXT
  5
386
  8
TXT
 10
734.7619047619047
 20
1847.7873099792289
 30
0.0
 40
10.0
  1
(2.36")
 72
     4
 11
759.99999999999977
 21
1852.0730242649429
 31
0.0
  0
TEXT
  5
387
  8
TXT
 10
751.90476190476181
 20
1815.0730242649429
 30
0.0
 40
10.0
  1
60
 72
     4
 11
759.99999999999977
 21
1820.0730242649429
 31
0.0
  0
TEXT
  5
388
  8
TXT
 10
734.7619047619047
 20
1794.7873099792289
 30
0.0
 40
10.0
  1
(2.36")
 72
     4
 11
759.99999999999977
 21
1799.0730242649429
 31
0.0
  0
TEXT
  5
389
  8
TXT
 10
1009.761904761904
 20
1741.787309979228
 30
0.0
 40
10.0
  1
(0.24")
 72
     4
 11
1035.0
 21
1746.073024264942
 31
0.0
  0
TEXT
  5
38A
  8
TXT
 10
1031.9047619047619
 20
1762.073024264942
 30
0.0
 40
10.0
  1
6
 72
     4
 11
1035.0
 21
1767.073024264942
 31
0.0
  0
TEXT
  5
38B
  8
TXT
 10
1012.857142857143
 20
2006.073024264942
 30
0.0
 40
10.0
  1
DEPTH
 72
     4
 11
1035.0
 21
2011.073024264942
 31
0.0
  0
TEXT
  5
38C
  8
TXT
 10
1009.761904761904
 20
1953.787309979228
 30
0.0
 40
10.0
  1
(0.20")
 72
     4
 11
1035.0
 21
1958.073024264942
 31
0.0
  0
TEXT
  5
38D
  8
TXT
 10
1031.6666666666661
 20
1974.073024264942
 30
0.0
 40
10.0
  1
5
 72
     4
 11
1035.0
 21
1979.073024264942
 31
0.0
  0
TEXT
  5
38E
  8
TXT
 10
1007.857142857143
 20
2027.073024264942
 30
0.0
 40
10.0
  1
RECESS
 72
     4
 11
1035.0
 21
2032.073024264942
 31
0.0
  0
LINE
  5
38F
  8
DRG2
 10
1080.0
 20
1677.0730242649429
 30
0.0
 11
1080.0
 21
2048.073024264942
 31
0.0
  0
TEXT
  5
390
  8
TXT
 10
1009.761904761904
 20
1900.787309979228
 30
0.0
 40
10.0
  1
(0.20")
 72
     4
 11
1035.0
 21
1905.073024264942
 31
0.0
  0
TEXT
  5
391
  8
TXT
 10
1031.6666666666661
 20
1921.073024264942
 30
0.0
 40
10.0
  1
5
 72
     4
 11
1035.0
 21
1926.073024264942
 31
0.0
  0
TEXT
  5
392
  8
TXT
 10
1009.761904761904
 20
1847.787309979228
 30
0.0
 40
10.0
  1
(0.20")
 72
     4
 11
1035.0
 21
1852.073024264942
 31
0.0
  0
TEXT
  5
393
  8
TXT
 10
1031.6666666666661
 20
1868.073024264942
 30
0.0
 40
10.0
  1
5
 72
     4
 11
1035.0
 21
1873.073024264942
 31
0.0
  0
TEXT
  5
394
  8
TXT
 10
1009.761904761904
 20
1794.787309979228
 30
0.0
 40
10.0
  1
(0.20")
 72
     4
 11
1035.0
 21
1799.073024264942
 31
0.0
  0
TEXT
  5
395
  8
TXT
 10
1031.6666666666661
 20
1815.073024264942
 30
0.0
 40
10.0
  1
5
 72
     4
 11
1035.0
 21
1820.073024264942
 31
0.0
  0
TEXT
  5
396
  8
TXT
 10
1009.761904761904
 20
1688.787309979228
 30
0.0
 40
10.0
  1
(0.24")
 72
     4
 11
1035.0
 21
1693.073024264942
 31
0.0
  0
TEXT
  5
397
  8
TXT
 10
1031.9047619047619
 20
1709.0730242649429
 30
0.0
 40
10.0
  1
6
 72
     4
 11
1035.0
 21
1714.073024264942
 31
0.0
  0
TEXT
  5
398
  8
BORT
 10
26.80952380952381
 20
484.40046722515501
 30
0.0
 40
10.0
  1
1
 72
     4
 11
28.0
 21
489.40046722515513
 31
0.0
  0
TEXT
  5
399
  8
BORT
 10
110.4285714285714
 20
484.40046722515501
 30
0.0
 40
10.0
  1
CN915 JMO 19.6.97
 72
     4
 11
184.0
 21
489.40046722515513
 31
0.0
  0
TEXT
  5
39A
  8
BORT
 10
24.666666666666661
 20
512.40046722515501
 30
0.0
 40
10.0
  1
2
 72
     4
 11
28.0
 21
517.40046722515501
 31
0.0
  0
TEXT
  5
39B
  8
BORT
 10
106.38095238095229
 20
512.40046722515501
 30
0.0
 40
10.0
  1
CN959 B.T. 20.11.97
 72
     4
 11
184.0
 21
517.40046722515501
 31
0.0
  0
LINE
  5
39C
  8
BORT
 39
3.6000000000000001
 10
312.0
 20
531.40046722515501
 30
0.0
 11
0.0
 21
531.40046722515501
 31
0.0
  0
LINE
  5
39D
  8
BORT
 39
3.6000000000000001
 10
312.0
 20
503.4004672251549
 30
0.0
 11
0.0
 21
503.4004672251549
 31
0.0
  0
LINE
  5
39E
  8
BORT
 39
3.6000000000000001
 10
56.000000000000007
 20
475.40046722515501
 30
0.0
 11
56.0
 21
531.40046722515513
 31
0.0
  0
TEXT
  5
39F
  8
TXT
 10
1337.1428571428571
 20
1741.787309979228
 30
0.0
 40
10.0
  1
(0.55"x0.35"x2.17")
 72
     4
 11
1410.0
 21
1746.073024264942
 31
0.0
  0
TEXT
  5
3A0
  8
TXT
 10
1337.1428571428571
 20
1688.787309979228
 30
0.0
 40
10.0
  1
(0.55"x0.35"x2.17")
 72
     4
 11
1410.0
 21
1693.073024264942
 31
0.0
  0
TEXT
  5
3A1
  8
TXT
 10
1380.4761904761899
 20
1762.073024264942
 30
0.0
 40
10.0
  1
14x9x55
 72
     4
 11
1410.0
 21
1767.073024264942
 31
0.0
  0
TEXT
  5
3A2
  8
TXT
 10
1380.4761904761899
 20
1709.073024264942
 30
0.0
 40
10.0
  1
14x9x55
 72
     4
 11
1410.0
 21
1714.073024264942
 31
0.0
  0
LINE
  5
3A3
  8
BORT
 39
3.6000000000000001
 10
312.0
 20
391.40046722515501
 30
0.0
 11
0.0000000000000071
 21
391.40046722515501
 31
0.0
  0
TEXT
  5
3A4
  8
TXT
 10
751.90476190476181
 20
1762.0730242649429
 30
0.0
 40
10.0
  1
60
 72
     4
 11
759.99999999999977
 21
1767.0730242649429
 31
0.0
  0
TEXT
  5
3A5
  8
TXT
 10
734.7619047619047
 20
1741.7873099792289
 30
0.0
 40
10.0
  1
(2.36")
 72
     4
 11
759.99999999999977
 21
1746.0730242649429
 31
0.0
  0
TEXT
  5
3A6
  8
TXT
 10
751.90476190476181
 20
1709.0730242649429
 30
0.0
 40
10.0
  1
60
 72
     4
 11
759.99999999999977
 21
1714.0730242649429
 31
0.0
  0
TEXT
  5
3A7
  8
TXT
 10
734.7619047619047
 20
1688.7873099792289
 30
0.0
 40
10.0
  1
(2.36")
 72
     4
 11
759.99999999999977
 21
1693.0730242649429
 31
0.0
  0
INSERT
  5
59C
  8
0
  2
ROTORK_GEARS_LOGO
 10
-10.08081567443144
 20
159.5633482353214
 30
0.0
 41
1.5750000000000171
 42
1.5750000000000171
 43
1.575
  0
ENDSEC
  0
EOF
