  0
SECTION
  2
HEADER
  9
$ACADVER
  1
AC1009
  9
$INSBASE
 10
10.0
 20
14.0
 30
0.0
  9
$EXTMIN
 10
0.0
 20
46.723449124704821
 30
0.0
  9
$EXTMAX
 10
1510.9641977267811
 20
2084.6448146164648
 30
3.6000000000000001
  9
$LIMMIN
 10
0.0
 20
0.0
  9
$LIMMAX
 10
1525.0
 20
2200.0
  9
$ORTHOMODE
 70
     0
  9
$REGENMODE
 70
     1
  9
$FILLMODE
 70
     1
  9
$QTEXTMODE
 70
     0
  9
$MIRRTEXT
 70
     0
  9
$DRAGMODE
 70
     2
  9
$LTSCALE
 40
2.0
  9
$OSMODE
 70
    47
  9
$ATTMODE
 70
     1
  9
$TEXTSIZE
 40
10.0
  9
$TRACEWID
 40
10.0
  9
$TEXTSTYLE
  7
STANDARD
  9
$CLAYER
  8
DIM
  9
$CELTYPE
  6
BYLAYER
  9
$CECOLOR
 62
   256
  9
$DIMSCALE
 40
2.0
  9
$DIMASZ
 40
6.0
  9
$DIMEXO
 40
5.0
  9
$DIMDLI
 40
10.0
  9
$DIMRND
 40
0.0
  9
$DIMDLE
 40
1.25
  9
$DIMEXE
 40
2.0
  9
$DIMTP
 40
0.0
  9
$DIMTM
 40
0.0
  9
$DIMTXT
 40
5.0
  9
$DIMCEN
 40
-3.0
  9
$DIMTSZ
 40
0.0
  9
$DIMTOL
 70
     0
  9
$DIMLIM
 70
     0
  9
$DIMTIH
 70
     0
  9
$DIMTOH
 70
     0
  9
$DIMSE1
 70
     0
  9
$DIMSE2
 70
     0
  9
$DIMTAD
 70
     0
  9
$DIMZIN
 70
     0
  9
$DIMBLK
  1

  9
$DIMASO
 70
     0
  9
$DIMSHO
 70
     0
  9
$DIMPOST
  1

  9
$DIMAPOST
  1

  9
$DIMALT
 70
     0
  9
$DIMALTD
 70
     2
  9
$DIMALTF
 40
0.039
  9
$DIMLFAC
 40
1.0
  9
$DIMTOFL
 70
     0
  9
$DIMTVP
 40
1.1424000000000001
  9
$DIMTIX
 70
     0
  9
$DIMSOXD
 70
     0
  9
$DIMSAH
 70
     0
  9
$DIMBLK1
  1

  9
$DIMBLK2
  1

  9
$DIMSTYLE
  2
STD
  9
$DIMCLRD
 70
   256
  9
$DIMCLRE
 70
   256
  9
$DIMCLRT
 70
   256
  9
$DIMTFAC
 40
0.75
  9
$DIMGAP
 40
1.5
  9
$LUNITS
 70
     2
  9
$LUPREC
 70
     2
  9
$SKETCHINC
 40
1.0
  9
$FILLETRAD
 40
12.0
  9
$AUNITS
 70
     0
  9
$AUPREC
 70
     2
  9
$MENU
  1
ACAD
  9
$ELEVATION
 40
0.0
  9
$PELEVATION
 40
0.0
  9
$THICKNESS
 40
0.0
  9
$LIMCHECK
 70
     0
  9
$BLIPMODE
 70
     0
  9
$CHAMFERA
 40
0.0
  9
$CHAMFERB
 40
0.0
  9
$SKPOLY
 70
     1
  9
$TDCREATE
 40
2449751.5565376151
  9
$TDUPDATE
 40
2452817.4678298612
  9
$TDINDWG
 40
0.1903152662
  9
$TDUSRTIMER
 40
0.1903152662
  9
$USRTIMER
 70
     1
  9
$ANGBASE
 50
0.0
  9
$ANGDIR
 70
     0
  9
$PDMODE
 70
     3
  9
$PDSIZE
 40
0.0
  9
$PLINEWID
 40
0.0
  9
$COORDS
 70
     1
  9
$SPLFRAME
 70
     0
  9
$SPLINETYPE
 70
     6
  9
$SPLINESEGS
 70
     6
  9
$ATTDIA
 70
     0
  9
$ATTREQ
 70
     1
  9
$HANDLING
 70
  4097
  9
$HANDSEED
  5
7D6
  9
$SURFTAB1
 70
    18
  9
$SURFTAB2
 70
    18
  9
$SURFTYPE
 70
     6
  9
$SURFU
 70
    18
  9
$SURFV
 70
    18
  9
$UCSNAME
  2

  9
$UCSORG
 10
0.0
 20
0.0
 30
0.0
  9
$UCSXDIR
 10
1.0
 20
0.0
 30
0.0
  9
$UCSYDIR
 10
0.0
 20
1.0
 30
0.0
  9
$PUCSNAME
  2

  9
$PUCSORG
 10
0.0
 20
0.0
 30
0.0
  9
$PUCSXDIR
 10
1.0
 20
0.0
 30
0.0
  9
$PUCSYDIR
 10
0.0
 20
1.0
 30
0.0
  9
$USERI1
 70
     0
  9
$USERI2
 70
     0
  9
$USERI3
 70
     0
  9
$USERI4
 70
     0
  9
$USERI5
 70
     0
  9
$USERR1
 40
0.0
  9
$USERR2
 40
0.0
  9
$USERR3
 40
0.0
  9
$USERR4
 40
0.0
  9
$USERR5
 40
0.0
  9
$WORLDVIEW
 70
     0
  9
$SHADEDGE
 70
     3
  9
$SHADEDIF
 70
    70
  9
$TILEMODE
 70
     1
  9
$MAXACTVP
 70
    16
  9
$PLIMCHECK
 70
     0
  9
$PEXTMIN
 10
1.0000000000000000E+020
 20
1.0000000000000000E+020
 30
1.0000000000000000E+020
  9
$PEXTMAX
 10
-1.0000000000000000E+020
 20
-1.0000000000000000E+020
 30
-1.0000000000000000E+020
  9
$PLIMMIN
 10
0.0
 20
0.0
  9
$PLIMMAX
 10
420.0
 20
297.0
  9
$UNITMODE
 70
     0
  9
$VISRETAIN
 70
     0
  9
$PLINEGEN
 70
     0
  9
$PSLTSCALE
 70
     0
  0
ENDSEC
  0
SECTION
  2
TABLES
  0
TABLE
  2
VPORT
 70
     2
  0
VPORT
  2
*ACTIVE
 70
     0
 10
0.0
 20
0.0
 11
1.0
 21
1.0
 12
322.9059879178414
 22
0.0
 13
0.0
 23
0.0
 14
5.0
 24
5.0
 15
50.0
 25
50.0
 16
0.0
 26
0.0
 36
1.0
 17
802.86920960763598
 27
1065.6753590862211
 37
0.0
 40
2054.2768935617651
 41
1.7512195121951211
 42
50.0
 43
0.0
 44
0.0
 50
0.0
 51
0.0
 71
     0
 72
  2000
 73
     1
 74
     2
 75
     0
 76
     0
 77
     0
 78
     1
  0
ENDTAB
  0
TABLE
  2
LTYPE
 70
    13
  0
LTYPE
  2
CONTINUOUS
 70
     0
  3
Solid line
 72
    65
 73
     0
 40
0.0
  0
LTYPE
  2
CENTER
 70
     0
  3
____ _ ____ _ ____ _ ____ _ ____ _ ____ _ ____ 
 72
    65
 73
     4
 40
50.0
 49
31.25
 49
-6.25
 49
6.25
 49
-6.25
  0
LTYPE
  2
HIDDEN
 70
     0
  3
_ _ _ _ _ _ _ _ _ _ _ _ _ _ _ _ _ _ _ _ _ _ _ _
 72
    65
 73
     2
 40
9.375
 49
6.25
 49
-3.125
  0
LTYPE
  2
PHANTOM2
 70
     0
  3
Phantom (.5x) ___ _ _ ___ _ _ ___ _ _ ___ _ _
 72
    65
 73
     6
 40
1.25
 49
0.625
 49
-0.125
 49
0.125
 49
-0.125
 49
0.125
 49
-0.125
  0
LTYPE
  2
ASULTYPE
 70
     0
  3
Solid line
 72
    65
 73
     2
 40
3.0
 49
2.5
 49
0.5
  0
LTYPE
  2
ASVLTYPE
 70
     0
  3
__ __ __ __ __ __ __ __ __ __ __ __ __ __ __ __ __ __ __ __ __
 72
    65
 73
     2
 40
0.75
 49
0.5
 49
-0.25
  0
LTYPE
  2
AM_ISO02W050
 70
     0
  3
__ __ __ __ __ __ __ __ __ __ __ __ __ __ __
 72
    65
 73
     2
 40
7.5
 49
6.0
 49
-1.5
  0
LTYPE
  2
AM_ISO08W050
 70
     0
  3
____ . ____ . ____ . ____ . ____ . ____ . ____
 72
    65
 73
     4
 40
18.0
 49
12.0
 49
-1.5
 49
3.0
 49
-1.5
  0
LTYPE
  2
AM_ISO09W050
 70
     0
  3
_____ . . _____ . . _____ . . ____ .. ____
 72
    65
 73
     6
 40
22.5
 49
12.0
 49
-1.5
 49
3.0
 49
-1.5
 49
3.0
 49
-1.5
  0
LTYPE
  2
AMCONSTR
 70
     0
  3
_______________________
 72
    65
 73
     2
 40
9999.0
 49
9999.0
 49
0.0
  0
LTYPE
  2
AM_ISO08W050X2
 70
     0
  3
__ . __ . __ . __ . __ . __
 72
    65
 73
     4
 40
9.0
 49
6.0
 49
-0.75
 49
1.5
 49
-0.75
  0
LTYPE
  2
AM_ISO02W050X2
 70
     0
  3
 _ _ _ _ _ _ _ _ _ _ _ _
 72
    65
 73
     2
 40
3.75
 49
3.0
 49
-0.75
  0
LTYPE
  2
AMZIGZAG
 70
     0
  3
/\/-/\/-/\/-/\/-/\/-/\/
 72
    65
 73
     2
 40
11.000099999999991
 49
0.0001
 49
-11.0
  0
ENDTAB
  0
TABLE
  2
LAYER
 70
    10
  0
LAYER
  2
0
 70
     0
 62
     7
  6
CONTINUOUS
  0
LAYER
  2
BORT
 70
     0
 62
     7
  6
CONTINUOUS
  0
LAYER
  2
DRG
 70
     0
 62
     1
  6
CONTINUOUS
  0
LAYER
  2
CRS
 70
     0
 62
     3
  6
CENTER
  0
LAYER
  2
HID
 70
     0
 62
     6
  6
HIDDEN
  0
LAYER
  2
DRG2
 70
     0
 62
     8
  6
CONTINUOUS
  0
LAYER
  2
DIM
 70
     0
 62
     2
  6
CONTINUOUS
  0
LAYER
  2
TXT
 70
     0
 62
     4
  6
CONTINUOUS
  0
LAYER
  2
BOR
 70
     0
 62
     1
  6
CONTINUOUS
  0
LAYER
  2
HATCH
 70
     0
 62
     7
  6
CONTINUOUS
  0
ENDTAB
  0
TABLE
  2
STYLE
 70
     2
  0
STYLE
  2
STANDARD
 70
     0
 40
0.0
 41
1.0
 50
0.0
 71
     0
 42
10.0
  3
SIMPLEX
  4

  0
STYLE
  2

 70
     1
 40
0.0
 41
1.0
 50
0.0
 71
     0
 42
10.0
  3
ltypeshp.shx
  4

  0
ENDTAB
  0
TABLE
  2
VIEW
 70
     0
  0
ENDTAB
  0
TABLE
  2
UCS
 70
     0
  0
ENDTAB
  0
TABLE
  2
APPID
 70
    12
  0
APPID
  2
ACAD
 70
     0
  0
APPID
  2
GENIUS_GENDIM_13
 70
     0
  0
APPID
  2
GENIUS_GENDTOL_13
 70
     0
  0
APPID
  2
GENIUS_GE3DTOL_13
 70
     0
  0
APPID
  2
MCAD_NO_VIS
 70
     0
  0
APPID
  2
ACAD_TEMP_GRAPHIC
 70
     0
  0
APPID
  2
AD_DRAW
 70
     0
  0
APPID
  2
ACATTRIBSERVICES
 70
     0
  0
APPID
  2
ASURF_PCURVE_APPNAME
 70
     0
  0
APPID
  2
DESIGNERASSEMBLIES
 70
     0
  0
APPID
  2
ACADM_DIM_EDIT
 70
     0
  0
APPID
  2
CONTENTBLOCKICON
 70
     0
  0
ENDTAB
  0
TABLE
  2
DIMSTYLE
 70
     1
  0
DIMSTYLE
  2
STD
 70
     0
  3

  4

  5

  6

  7

 40
2.0
 41
6.0
 42
5.0
 43
10.0
 44
2.0
 45
0.0
 46
1.25
 47
0.0
 48
0.0
140
5.0
141
-3.0
142
0.0
143
0.039
144
1.0
145
1.1424000000000001
146
0.75
147
1.5
 71
     0
 72
     0
 73
     0
 74
     0
 75
     0
 76
     0
 77
     0
 78
     0
170
     0
171
     2
172
     0
173
     0
174
     0
175
     0
176
   256
177
   256
178
   256
  0
ENDTAB
  0
ENDSEC
  0
SECTION
  2
BLOCKS
  0
BLOCK
  8
0
  2
$MODEL_SPACE
 70
     0
 10
0.0
 20
0.0
 30
0.0
  3
$MODEL_SPACE
  1

  0
ENDBLK
  5
3E9
  8
0
  0
BLOCK
 67
     1
  8
0
  2
$PAPER_SPACE
 70
     0
 10
0.0
 20
0.0
 30
0.0
  3
$PAPER_SPACE
  1

  0
ENDBLK
  5
3E7
 67
     1
  8
0
  0
BLOCK
  8
0
  2
A$C54DE3186
 70
     0
 10
0.0
 20
0.0
 30
0.0
  3
A$C54DE3186
  1

  0
TEXT
  5
406
  8
DIM
 10
33.417932485324613
 20
29.717818090628839
 30
0.0
 40
7.0
  1
ALUMINIUM BRONZE ONLY
 72
     4
 11
101.5845991519912
 21
33.217818090628832
 31
0.0
  0
LINE
  5
407
  8
DIM
 10
25.000000467296779
 20
13.106040107019901
 30
0.0
 11
153.02339251468331
 21
13.106040107019901
 31
0.0
  0
TEXT
  5
408
  8
DIM
 10
32.620905209162977
 20
16.776569301989522
 30
0.0
 40
7.0
  1
%%C60 CAST PILOT BORE
 72
     4
 11
92.62090520916297
 21
20.276569301989522
 31
0.0
  0
LINE
  5
409
  8
DIM
 10
0.0000004672967862
 20
72.419423930543644
 30
0.0
 11
0.0000004672967862
 21
9.1060401070199077
 31
0.0
  0
LINE
  5
40A
  8
DIM
 10
25.000000467296779
 20
72.419423930543644
 30
0.0
 11
25.000000467296779
 21
9.1060401070199077
 31
0.0
  0
TEXT
  5
40B
  8
DIM
 10
31.759234460564318
 20
2.333334871856434
 30
0.0
 40
7.0
  1
(2.36")
 72
     4
 11
49.425901127230993
 21
5.3333348718564357
 31
0.0
  0
LINE
  5
40C
  8
DIM
 10
8.0000004672967862
 20
13.106040107019901
 30
0.0
 11
17.000000467296779
 21
13.106040107019901
 31
0.0
  0
SOLID
  5
40D
  8
DIM
 10
8.0000004672967862
 20
14.439373440353281
 30
0.0
 11
8.0000004672967862
 21
11.772706773686529
 31
0.0
 12
0.0000004672967862
 22
13.106040107019901
 32
0.0
 13
0.0000004672967862
 23
13.106040107019901
 33
0.0
  0
SOLID
  5
40E
  8
DIM
 10
17.000000467296779
 20
14.439373440353281
 30
0.0
 11
17.000000467296779
 21
11.772706773686529
 31
0.0
 12
25.000000467296779
 22
13.106040107019901
 32
0.0
 13
25.000000467296779
 23
13.106040107019901
 33
0.0
  0
ENDBLK
  5
410
  8
0
  0
BLOCK
  8
0
  2
*U1
 70
     1
 10
0.0
 20
0.0
 30
0.0
  3
*U1
  1

  0
ENDBLK
  5
4E5
  8
0
  0
BLOCK
  8
0
  2
LOGO
 70
     0
 10
0.0
 20
0.0
 30
0.0
  3
LOGO
  1

  0
INSERT
  5
510
  8
DRG
  6
CONTINUOUS
 62
     7
  2
*U4
 10
0.0
 20
0.0
 30
0.0
1001
ACAD
1002
{
1000
R14_HATCH_DATA
1000
510
1011
1.0
1021
0.0
1031
0.0
1021
0.0
1031
0.0
1011
0.0
1021
0.0
1031
0.0
1021
1.0
1031
0.0
1011
0.0
1021
0.0
1031
0.0
1021
0.0
1031
1.0
1040
0.0
1010
0.0
1020
0.0
1030
1.0
1000
SOLID
1070
     1
1070
     1
1071
       17
1071
        7
1070
     1
1070
     1
1071
        9
1040
18.821661727211438
1040
85.569427875032716
1040
-0.4142135623730951
1040
26.821661727211438
1040
93.569427875032716
1040
0.0
1040
28.191279411133561
1040
93.56942787503273
1040
0.0
1040
28.191279411133561
1040
102.0369718403326
1040
0.2674368359602434
1040
18.821661727211438
1040
97.915857504065912
1040
0.0
1040
18.821661727211438
1040
102.0369718403326
1040
0.0
1040
7.7802673214059723
1040
102.0369718403326
1040
0.0
1040
7.7802673214059723
1040
62.115696081838671
1040
0.0
1040
18.821661727211438
1040
62.115696081838678
1040
0.0
1071
        9
1005
533
1005
53A
1005
539
1005
538
1005
537
1005
532
1005
522
1005
524
1005
520
1071
        7
1070
     1
1070
     1
1071
        8
1040
29.838142899665851
1040
72.897331735467191
1040
0.4142135623730863
1040
41.838142899665847
1040
60.89733173546756
1040
0.0
1040
47.650196927116667
1040
60.89733173546756
1040
0.4142126981028046
1040
59.650196927064421
1040
72.897296325816569
1040
0.0348233422700972
1040
59.650196927064421
1040
90.096337111694368
1040
0.4142126981028142
1040
47.650196927116667
1040
102.0963017020437
1040
0.0
1040
41.838142899665847
1040
102.0963017020437
1040
0.4142135623730893
1040
29.838142899665851
1040
90.096301702044016
1040
0.0348231985322414
1071
        8
1005
514
1005
53B
1005
536
1005
535
1005
521
1005
531
1005
513
1005
572
1071
       22
1070
     1
1070
     1
1071
        4
1040
40.882971825549703
1040
90.337990088334166
1040
-1.0
1040
48.605370470334492
1040
90.337990088334735
1040
-0.0248818291691539
1040
48.605370470334492
1040
72.655643349175492
1040
-1.0
1040
40.882971825549703
1040
72.655643349177595
1040
-0.0248818291691501
1071
        4
1005
516
1005
571
1005
515
1005
534
1071
        7
1070
     1
1070
     1
1071
       18
1040
67.331191210151701
1040
68.89733173546756
1040
0.4142135623730951
1040
75.331191210151701
1040
60.89733173546756
1040
0.0
1040
80.675802928262684
1040
60.89733173546756
1040
0.1450058980834471
1040
84.501142256151084
1040
62.072518178885289
1040
0.0
1040
84.501142256151084
1040
70.214764581409185
1040
-0.0833071563303517
1040
83.501142256151255
1040
69.876055965300111
1040
0.0
1040
80.482556033578916
1040
69.876055965300111
1040
-0.4142135623730951
1040
77.482556033578931
1040
72.876055965300111
1040
0.0
1040
77.482556033578931
1040
94.593352860836134
1040
0.0
1040
84.553623006881026
1040
94.593352860836134
1040
0.0
1040
84.553623006881026
1040
101.9948050433795
1040
0.0
1040
77.482556033578931
1040
101.9948050433795
1040
0.0
1040
77.482556033578931
1040
107.1280725498991
1040
0.0
1040
67.331191210151701
1040
107.1280725498991
1040
0.0
1040
67.331191210151701
1040
101.9948050433795
1040
0.0
1040
62.478989637268562
1040
101.9948050433795
1040
0.0
1040
62.478989637268569
1040
94.593352860836134
1040
0.0
1040
67.331191210151687
1040
94.593352860836134
1040
0.0
1071
       18
1005
56F
1005
583
1005
570
1005
57B
1005
579
1005
57A
1005
576
1005
578
1005
577
1005
573
1005
545
1005
559
1005
548
1005
546
1005
580
1005
56E
1005
575
1005
574
1071
        7
1070
     1
1070
     1
1071
        8
1040
85.849782736700035
1040
72.897331735467475
1040
0.4142135623730931
1040
97.849782736700035
1040
60.89733173546756
1040
0.0
1040
103.66183676415081
1040
60.89733173546756
1040
0.4142126981028048
1040
115.6618367640986
1040
72.897296325816569
1040
0.0348233422700971
1040
115.6618367640986
1040
90.096337111694325
1040
0.4142126981028151
1040
103.66183676415081
1040
102.0963017020437
1040
0.0
1040
97.849782736700035
1040
102.0963017020437
1040
0.4142135623730893
1040
85.849782736700035
1040
90.096301702044016
1040
0.0348231985322409
1071
        8
1005
544
1005
584
1005
582
1005
57E
1005
547
1005
56D
1005
543
1005
5AB
1071
       22
1070
     1
1070
     1
1071
        4
1040
96.894611662583884
1040
90.337990088335033
1040
-1.0
1040
104.6170103073686
1040
90.337990088334763
1040
-0.0248818291691539
1040
104.6170103073686
1040
72.655643349175506
1040
-1.0
1040
96.894611662583884
1040
72.655643349177595
1040
-0.0248818291691514
1071
        4
1005
581
1005
57C
1005
57F
1005
57D
1071
        7
1070
     1
1070
     1
1071
        9
1040
119.0096173095521
1040
62.115696081838678
1040
0.0
1040
130.05101171535759
1040
62.115696081838671
1040
0.0
1040
130.05101171535759
1040
85.569427875032716
1040
-0.4142135623730946
1040
138.05101171535759
1040
93.569427875032716
1040
0.0
1040
139.4206293992797
1040
93.56942787503273
1040
0.0
1040
139.4206293992797
1040
102.0369718403325
1040
0.2674368359602435
1040
130.05101171535759
1040
97.915857504065855
1040
0.0
1040
130.05101171535759
1040
102.0369718403326
1040
0.0
1040
119.0096173095521
1040
102.0369718403326
1040
0.0
1071
        9
1005
5AA
1005
5B0
1005
5AF
1005
5AC
1005
5AE
1005
5AD
1005
586
1005
595
1005
585
1071
        7
1070
     0
1070
     1
1071
        4
1040
153.2899770207527
1040
102.0369718403326
1040
142.11987082690661
1040
102.0369718403326
1040
142.11987082690661
1040
62.115696081838678
1040
153.2899770207527
1040
62.115696081838678
1071
        4
1005
5A9
1005
58A
1005
58E
1005
589
1071
        7
1070
     0
1070
     1
1071
        9
1040
161.3332883364622
1040
62.115696081838678
1040
171.78072804963571
1040
62.115696081838678
1040
165.4162645291251
1040
78.311404477182364
1040
176.9709164189357
1040
78.31140447718235
1040
176.9709164189357
1040
86.855763084496857
1040
165.4162645291251
1040
86.855763084496886
1040
171.38205787173379
1040
102.0369718403326
1040
160.9346181585602
1040
102.0369718403326
1040
153.2899770207527
1040
82.583583780839575
1071
        9
1005
5B6
1005
5B5
1005
5B4
1005
5B1
1005
588
1005
5A4
1005
587
1005
5B3
1005
5B2
1071
        7
1070
     1
1070
     1
1071
       21
1040
152.52515784094209
1040
47.648154099737518
1040
-0.8501159182110916
1040
160.04745823702251
1040
46.421288526219293
1040
0.0
1040
160.04745823702251
1040
45.21828747592599
1040
0.0
1040
171.0912486890569
1040
45.21828747592599
1040
0.4103700463812956
1040
159.0922846938046
1040
57.06060729124669
1040
0.0
1040
153.28023066635379
1040
57.06060729124669
1040
0.3231315706904765
1040
141.8917942032017
1040
48.84260609145101
1040
0.1954153765693974
1040
142.3184035466634
1040
43.115005509834923
1040
0.2113556324406552
1040
155.72873071743231
1040
33.145354604103439
1040
-0.2264685134690167
1040
160.04745823702251
1040
29.300230626583549
1040
0.0
1040
160.04745823702251
1040
27.619948938379359
1040
-1.0
1040
152.32505959223769
1040
27.619948938379359
1040
0.0
1040
152.32505959223769
1040
29.959298931438969
1040
0.0
1040
141.28023066635379
1040
29.95929893143898
1040
0.0
1040
141.28023066635379
1040
27.861637324670479
1040
0.4142135623730951
1040
153.28023066635379
1040
15.861637324670481
1040
0.0
1040
159.0922846938046
1040
15.861637324670481
1040
0.4142135623730951
1040
171.0922846938046
1040
27.861637324670479
1040
0.0
1040
171.0922846938046
1040
29.95929893143904
1040
0.3201720163042325
1040
161.4128172083947
1040
39.98989916707626
1040
-0.1549843570040388
1040
153.4809683549079
1040
44.585756161105429
1040
-0.2969707756967668
1071
       21
1005
5A5
1005
5A7
1005
5A2
1005
5A3
1005
5A8
1005
58D
1005
59A
1005
58B
1005
5A0
1005
59D
1005
59F
1005
59E
1005
58C
1005
592
1005
53D
1005
541
1005
53E
1005
5A1
1005
59C
1005
59B
1005
5A6
1071
        7
1070
     1
1070
     1
1071
        9
1040
116.19314081319391
1040
17.28637227261407
1040
0.0
1040
127.2345352189994
1040
17.28637227261407
1040
0.0
1040
127.2345352189994
1040
40.740104065808097
1040
-0.4142135623730953
1040
135.23453521899941
1040
48.740104065808111
1040
0.0
1040
136.6041529029215
1040
48.740104065808111
1040
0.0
1040
136.6041529029215
1040
57.207648031108022
1040
0.2674368359602446
1040
127.2345352189994
1040
53.086533694841222
1040
0.0
1040
127.2345352189994
1040
57.207648031108022
1040
0.0
1040
116.19314081319391
1040
57.207648031108022
1040
0.0
1071
        9
1005
593
1005
597
1005
596
1005
590
1005
591
1005
58F
1005
594
1005
599
1005
598
1071
        7
1070
     1
1070
     1
1071
       18
1040
111.2523129779601
1040
45.06060729124669
1040
0.4142135623730951
1040
99.252312977960173
1040
57.06060729124669
1040
0.0
1040
93.440258950509346
1040
57.06060729124669
1040
0.3935971290544443
1040
81.470405744524527
1040
45.910674481046733
1040
0.0
1040
92.485087876393209
1040
45.910674481046733
1040
0.0
1040
92.485087876393209
1040
47.313129977668268
1040
-1.0
1040
100.2074865211779
1040
47.313129977668268
1040
0.0
1040
100.207486521178
1040
42.948196427274922
1040
0.0
1040
93.358174068518778
1040
42.948196427274922
1040
0.3803366342075343
1040
81.440258950509346
1040
32.349374231810209
1040
0.0
1040
81.440258950509346
1040
27.861637324670479
1040
0.212203934851876
1040
85.398663329684837
1040
18.95474449545469
1040
0.2715779457989354
1040
94.991749269489972
1040
17.839408458597308
1040
0.2212147422997974
1040
102.1211660476033
1040
23.542010892025001
1040
0.0
1040
102.1211660476033
1040
21.102600968374279
1040
0.048558820350044
1040
102.6710305977499
1040
17.89352120355198
1040
0.0
1040
111.8021775281067
1040
17.893521203552009
1040
-0.0850534761391249
1040
111.2523129779601
1040
23.54201089202471
1040
0.0
1071
       18
1005
542
1005
569
1005
54B
1005
56A
1005
56B
1005
568
1005
56C
1005
567
1005
549
1005
55F
1005
54A
1005
53C
1005
55B
1005
563
1005
562
1005
561
1005
564
1005
55A
1071
       22
1070
     1
1070
     1
1071
        6
1040
101.5095597489034
1040
37.384730871555568
1040
0.0
1040
101.5095597489034
1040
29.984856014372749
1040
-0.4101584254678068
1040
95.863486513980718
1040
23.758749615986972
1040
-0.4142135623730822
1040
92.002287191588479
1040
27.619948938379359
1040
0.0
1040
92.002287191588479
1040
33.041326503689838
1040
-0.3592987923427892
1040
97.969021393668683
1040
37.384730871555568
1040
0.0
1071
        6
1005
565
1005
55D
1005
560
1005
55E
1005
55C
1005
566
1071
        7
1070
     1
1070
     1
1071
       14
1040
74.280536421539182
1040
35.629722934820848
1040
0.0
1040
74.280536421539182
1040
45.06060729124669
1040
0.4142135623730951
1040
62.280536421539182
1040
57.06060729124669
1040
0.0
1040
56.468482394088369
1040
57.06060729124669
1040
0.4142135623730892
1040
44.468482394088362
1040
45.060607291246939
1040
0.0348231985322411
1040
44.468482394088362
1040
27.861637324670291
1040
0.4142135623730907
1040
56.468482394088369
1040
15.861637324670481
1040
0.0
1040
62.280536421539182
1040
15.861637324670481
1040
0.4142135623730951
1040
74.280536421539182
1040
27.861637324670479
1040
0.0
1040
74.280536421539196
1040
30.816887788353831
1040
0.0
1040
63.235709964757
1040
30.81688778835381
1040
0.0
1040
63.235709964757007
1040
27.61994893837937
1040
-1.0
1040
55.513311319972217
1040
27.61994893837937
1040
0.0
1040
55.513311319972232
1040
35.629722934820848
1040
0.0
1071
       14
1005
553
1005
558
1005
512
1005
526
1005
511
1005
540
1005
53F
1005
552
1005
54D
1005
54F
1005
551
1005
550
1005
54E
1005
54C
1071
       22
1070
     1
1070
     1
1071
        4
1040
63.235709964756971
1040
41.923431282527652
1040
0.0
1040
55.51331131997221
1040
41.923431282527638
1040
0.0
1040
55.513311319972217
1040
46.690614073903141
1040
-1.0
1040
63.235709964757007
1040
46.690614073903127
1040
0.0
1071
        4
1005
554
1005
556
1005
555
1005
557
1071
        7
1070
     1
1070
     1
1071
       15
1040
37.639779947293832
1040
57.06060729124669
1040
0.0
1040
27.267121908897028
1040
57.06060729124669
1040
0.0
1040
27.267121908897021
1040
51.255838552818979
1040
0.3392741364964821
1040
18.58303542025671
1040
58.127888502333931
1040
0.3975671648689696
1040
7.030577403887583
1040
46.170226698962978
1040
0.0322586733839356
1040
7.0565934473582743
1040
30.23514359210488
1040
0.381674351628262
1040
18.58303542025671
1040
18.945146626805109
1040
0.3392741364964824
1040
27.267121908897021
1040
25.817196576320061
1040
0.0
1040
27.267121908897021
1040
13.51984597021351
1040
-1.0
1040
19.544723264112228
1040
13.51984597021351
1040
0.0
1040
19.544723264112239
1040
14.846027306936771
1040
0.0
1040
7.7279273094568479
1040
14.846027306936771
1040
0.435111756420548
1040
18.100585347853119
1040
3.392610111620797
1040
0.0
1040
25.69916102541525
1040
3.392610111620797
1040
0.3589835117613411
1040
37.639779947293839
1040
13.760967175618781
1040
0.0
1071
       15
1005
52C
1005
530
1005
52F
1005
523
1005
525
1005
517
1005
52B
1005
518
1005
51E
1005
51F
1005
51A
1005
51B
1005
51D
1005
51C
1005
519
1071
       22
1070
     1
1070
     1
1071
        6
1040
27.387732575171409
1040
32.086434320449378
1040
-0.3635850888704513
1040
22.683854862926161
1040
25.455509253088579
1040
-0.4081657147783189
1040
17.256300807526252
1040
30.5191262631974
1040
0.0
1040
17.256300807526252
1040
46.312783983787632
1040
-0.4081657147783226
1040
22.683854862926282
1040
51.376400993896397
1040
-0.3635850888704468
1040
27.387732575171409
1040
44.745475926535612
1040
0.0
1071
        6
1005
52A
1005
529
1005
528
1005
52D
1005
52E
1005
527
1070
     0
1070
     1
1040
0.2228598800114194
1071
       17
1040
17.63743802729277
1040
76.626905651017751
1040
0.0
1040
33.91754890401171
1040
77.741205688022092
1040
0.0
1040
33.91754890401171
1040
77.741205688022092
1040
0.0
1040
69.153945982282949
1040
79.301225382558854
1040
0.0
1040
91.455465417142008
1040
80.861243290751887
1040
0.0
1040
91.455465417142008
1040
80.861243290751887
1040
0.0
1040
120.67045393727309
1040
80.861243290751887
1040
0.0
1040
151.44655150816561
1040
79.746945040091759
1040
0.0
1040
157.69097519808881
1040
82.198402263350317
1040
0.0
1040
149.43941532211869
1040
47.209401108474808
1040
0.0
1040
122.2315629880345
1040
49.21514046054449
1040
0.0
1040
107.73557316557979
1040
43.19792419067948
1040
0.0
1040
107.73557316557979
1040
43.19792419067948
1040
0.0
1040
69.376961114066034
1040
40.30074552354403
1040
0.0
1040
69.376961114066034
1040
40.30074552354403
1040
0.0
1040
30.572318798986078
1040
42.306483089269697
1040
0.0
1040
30.572318798986078
1040
42.306483089269697
1040
0.0
1002
}
  0
ARC
  5
511
  8
DRG
 62
     7
 10
56.468482394088369
 20
27.861637324670479
 30
0.0
 40
12.0
 50
180.0
 51
270.0
  0
ARC
  5
512
  8
DRG
 62
     7
 10
56.468482394088369
 20
45.06060729124669
 30
0.0
 40
12.0
 50
90.0
 51
180.0
  0
ARC
  5
513
  8
DRG
 62
     7
 10
47.650196927116667
 20
72.89733173546756
 30
0.0
 40
12.0
 50
270.0
 51
0.0
  0
ARC
  5
514
  8
DRG
 62
     7
 10
47.650196927116667
 20
90.096301702043775
 30
0.0
 40
12.0
 50
0.0
 51
90.0
  0
ARC
  5
515
  8
DRG
 62
     7
 10
44.74417114794209
 20
72.655643349176444
 30
0.0
 40
3.8611993223923942
 50
180.0
 51
0.0
  0
ARC
  5
516
  8
DRG
 62
     7
 10
44.74417114794209
 20
90.337990088334877
 30
0.0
 40
3.8611993223923942
 50
0.0
 51
180.0
  0
ARC
  5
517
  8
DRG
 62
     7
 10
19.137584483414571
 20
31.0402274344309
 30
0.0
 40
12.107786932649869
 50
183.81258486583951
 51
267.37487616930952
  0
LINE
  5
518
  8
DRG
 62
     7
 10
27.267121908897021
 20
13.51984597021351
 30
0.0
 11
27.267121908897021
 21
25.817196576319979
 31
0.0
  0
LINE
  5
519
  8
DRG
 62
     7
 10
37.639779947293839
 20
13.760967175618591
 30
0.0
 11
37.639779947293839
 21
57.06060729124669
 31
0.0
  0
LINE
  5
51A
  8
DRG
 62
     7
 10
7.7279273094568453
 20
14.846027306936771
 30
0.0
 11
19.544723264112228
 21
14.846027306936771
 31
0.0
  0
ARC
  5
51B
  8
DRG
 62
     7
 10
18.249110221157022
 20
13.95076893658401
 30
0.0
 40
10.559203445863639
 50
175.13635846835899
 51
269.19405577571678
  0
ARC
  5
51C
  8
DRG
 62
     7
 10
25.379351800633462
 20
15.82074347040526
 30
0.0
 40
12.432247452652581
 50
271.47404887186468
 51
350.4632534986161
  0
LINE
  5
51D
  8
DRG
 62
     7
 10
18.100585347854121
 20
3.392610111620797
 30
0.0
 11
25.699161025414639
 21
3.392610111620797
 31
0.0
  0
ARC
  5
51E
  8
DRG
 62
     7
 10
23.40592258650463
 20
13.51984597021351
 30
0.0
 40
3.8611993223923942
 50
180.0
 51
0.0
  0
LINE
  5
51F
  8
DRG
 62
     7
 10
19.544723264112228
 20
13.51984597021351
 30
0.0
 11
19.544723264112228
 21
14.846027306936771
 31
0.0
  0
LINE
  5
520
  8
DRG
 62
     7
 10
18.821661727211438
 20
62.115696081838678
 30
0.0
 11
18.821661727211438
 21
85.569427875032716
 31
0.0
  0
ARC
  5
521
  8
DRG
 62
     7
 10
41.838142899665847
 20
72.89733173546756
 30
0.0
 40
12.0
 50
180.0
 51
270.0
  0
LINE
  5
522
  8
DRG
 62
     7
 10
7.7802673214059723
 20
102.0369718403326
 30
0.0
 11
7.7802673214059723
 21
62.115696081838678
 31
0.0
  0
ARC
  5
523
  8
DRG
 62
     7
 10
19.137584483414571
 20
46.032807694708133
 30
0.0
 40
12.107786932649869
 50
92.625123830690427
 51
179.34969965531249
  0
LINE
  5
524
  8
DRG
 62
     7
 10
7.7802673214059723
 20
62.115696081838678
 30
0.0
 11
18.821661727211438
 21
62.115696081838678
 31
0.0
  0
ARC
  5
525
  8
DRG
 62
     7
 10
130.4096373956734
 20
38.404095866101891
 30
0.0
 40
123.62323904739679
 50
176.39825231050591
 51
183.7888327716102
  0
ARC
  5
526
  8
DRG
 62
     7
 10
167.7922598686371
 20
36.46112230795859
 30
0.0
 40
123.62323904739679
 50
176.01116722839041
 51
183.98883277160959
  0
LINE
  5
527
  8
DRG
 62
     7
 10
27.387732575171409
 20
32.086434320449371
 30
0.0
 11
27.387732575171409
 21
44.745475926535619
 31
0.0
  0
LINE
  5
528
  8
DRG
 62
     7
 10
17.256300807526252
 20
30.519126263197901
 30
0.0
 11
17.256300807526252
 21
46.312783983787199
 31
0.0
  0
ARC
  5
529
  8
DRG
 62
     7
 10
22.554825927420261
 20
30.757839296791811
 30
0.0
 40
5.3038997311936118
 50
182.57958705316651
 51
271.39398239048438
  0
ARC
  5
52A
  8
DRG
 62
     7
 10
21.079116203706629
 20
31.577778829510549
 30
0.0
 40
6.3290892655085571
 50
284.68766481341447
 51
4.6097118352224014
  0
ARC
  5
52B
  8
DRG
 62
     7
 10
18.444167318675341
 20
28.04361904615444
 30
0.0
 40
9.0995321151857773
 50
270.87442572940842
 51
345.83740798549388
  0
LINE
  5
52C
  8
DRG
 62
     7
 10
37.639779947293839
 20
57.06060729124669
 30
0.0
 11
27.267121908897021
 21
57.06060729124669
 31
0.0
  0
ARC
  5
52D
  8
DRG
 62
     7
 10
22.554825927420261
 20
46.074070950193168
 30
0.0
 40
5.3038997311936118
 50
88.606017609515575
 51
177.42041294683341
  0
ARC
  5
52E
  8
DRG
 62
     7
 10
21.079116203706629
 20
45.254131417474468
 30
0.0
 40
6.3290892655085571
 50
355.39028816477759
 51
75.312335186585557
  0
ARC
  5
52F
  8
DRG
 62
     7
 10
18.444167318675341
 20
49.029416082984589
 30
0.0
 40
9.0995321151857773
 50
14.16259201450603
 51
89.125574270591571
  0
LINE
  5
530
  8
DRG
 62
     7
 10
27.267121908897021
 20
51.255838552819107
 30
0.0
 11
27.267121908897021
 21
57.06060729124669
 31
0.0
  0
LINE
  5
531
  8
DRG
 62
     7
 10
41.838142899665847
 20
60.89733173546756
 30
0.0
 11
47.650196927116667
 21
60.89733173546756
 31
0.0
  0
LINE
  5
532
  8
DRG
 62
     7
 10
7.7802673214059723
 20
102.0369718403326
 30
0.0
 11
18.821661727211438
 21
102.0369718403326
 31
0.0
  0
ARC
  5
533
  8
DRG
 62
     7
 10
26.821661727211438
 20
85.569427875032716
 30
0.0
 40
8.0
 50
90.0
 51
180.0
  0
ARC
  5
534
  8
DRG
 62
     7
 10
218.4362314981995
 20
81.496816718755667
 30
0.0
 40
177.77324423808651
 50
177.14934059322539
 51
182.85065940677461
  0
ARC
  5
535
  8
DRG
 62
     7
 10
153.16192037421459
 20
81.496816718755667
 30
0.0
 40
123.62323904739679
 50
176.01116722839041
 51
183.98883277160959
  0
ARC
  5
536
  8
DRG
 62
     7
 10
41.838142899665847
 20
90.096301702043775
 30
0.0
 40
12.0
 50
90.0
 51
180.0
  0
LINE
  5
537
  8
DRG
 62
     7
 10
18.821661727211438
 20
97.915857504065912
 30
0.0
 11
18.821661727211438
 21
102.0369718403326
 31
0.0
  0
ARC
  5
538
  8
DRG
 62
     7
 10
27.083354510939952
 20
91.844139685506846
 30
0.0
 40
10.2528691067876
 50
83.7965056449153
 51
143.68693404466879
  0
LINE
  5
539
  8
DRG
 62
     7
 10
28.191279411133561
 20
102.0369718403326
 30
0.0
 11
28.191279411133561
 21
93.569427875032716
 31
0.0
  0
LINE
  5
53A
  8
DRG
 62
     7
 10
28.191279411133561
 20
93.569427875032716
 30
0.0
 11
26.821661727211438
 21
93.569427875032716
 31
0.0
  0
LINE
  5
53B
  8
DRG
 62
     7
 10
41.838142899665847
 20
102.0963017020437
 30
0.0
 11
47.650196927116667
 21
102.0963017020437
 31
0.0
  0
ARC
  5
53C
  8
DRG
 62
     7
 10
91.146199293645054
 20
26.576636016635941
 30
0.0
 40
9.5460672539884595
 50
232.98068850611
 51
293.75592135571679
  0
ARC
  5
53D
  8
DRG
 62
     7
 10
153.28023066635379
 20
27.861637324670479
 30
0.0
 40
12.0
 50
180.0
 51
270.0
  0
ARC
  5
53E
  8
DRG
 62
     7
 10
159.0922846938046
 20
27.861637324670479
 30
0.0
 40
12.0
 50
270.0
 51
0.0
  0
ARC
  5
53F
  8
DRG
 62
     7
 10
62.280536421539182
 20
27.861637324670479
 30
0.0
 40
12.0
 50
270.0
 51
0.0
  0
LINE
  5
540
  8
DRG
 62
     7
 10
56.468482394088369
 20
15.861637324670481
 30
0.0
 11
62.280536421539182
 21
15.861637324670481
 31
0.0
  0
LINE
  5
541
  8
DRG
 62
     7
 10
153.28023066635379
 20
15.861637324670481
 30
0.0
 11
159.0922846938046
 21
15.861637324670481
 31
0.0
  0
ARC
  5
542
  8
DRG
 62
     7
 10
99.252312977960173
 20
45.06060729124669
 30
0.0
 40
12.0
 50
0.0
 51
90.0
  0
ARC
  5
543
  8
DRG
 62
     7
 10
103.66183676415081
 20
72.89733173546756
 30
0.0
 40
12.0
 50
270.0
 51
0.0
  0
ARC
  5
544
  8
DRG
 62
     7
 10
103.66183676415081
 20
90.096301702043775
 30
0.0
 40
12.0
 50
0.0
 51
90.0
  0
ARC
  5
545
  8
DRG
 62
     7
 10
75.331191210151701
 20
68.89733173546756
 30
0.0
 40
8.0
 50
180.0
 51
270.0
  0
LINE
  5
546
  8
DRG
 62
     7
 10
84.501142256151084
 20
62.072518178885268
 30
0.0
 11
84.501142256151084
 21
70.214764581409213
 31
0.0
  0
ARC
  5
547
  8
DRG
 62
     7
 10
97.849782736700035
 20
72.89733173546756
 30
0.0
 40
12.0
 50
180.0
 51
270.0
  0
ARC
  5
548
  8
DRG
 62
     7
 10
80.604973725058926
 20
67.941395133310024
 30
0.0
 40
7.044419488421358
 50
270.57609896713558
 51
303.5789717876612
  0
ARC
  5
549
  8
DRG
 62
     7
 10
93.358174068518778
 20
30.948196427274919
 30
0.0
 40
12.0
 50
90.0
 51
173.29457252003729
  0
ARC
  5
54A
  8
DRG
 62
     7
 10
93.44025895050936
 20
27.861637324670479
 30
0.0
 40
12.0
 50
180.0
 51
227.9226718038604
  0
ARC
  5
54B
  8
DRG
 62
     7
 10
93.44025895050936
 20
45.06060729124669
 30
0.0
 40
12.0
 50
90.0
 51
175.93782586434531
  0
LINE
  5
54C
  8
DRG
 62
     7
 10
74.280536421539182
 20
45.06060729124669
 30
0.0
 11
74.280536421539182
 21
35.629722934820848
 31
0.0
  0
LINE
  5
54D
  8
DRG
 62
     7
 10
63.235709964757007
 20
30.816887788353821
 30
0.0
 11
74.280536421539182
 21
30.816887788353821
 31
0.0
  0
LINE
  5
54E
  8
DRG
 62
     7
 10
55.513311319972217
 20
35.629722934820848
 30
0.0
 11
74.280536421539182
 21
35.629722934820848
 31
0.0
  0
LINE
  5
54F
  8
DRG
 62
     7
 10
63.235709964757007
 20
30.816887788353821
 30
0.0
 11
63.235709964757007
 21
27.619948938379359
 31
0.0
  0
LINE
  5
550
  8
DRG
 62
     7
 10
55.513311319972217
 20
35.629722934820848
 30
0.0
 11
55.513311319972217
 21
27.619948938379359
 31
0.0
  0
ARC
  5
551
  8
DRG
 62
     7
 10
59.374510642364612
 20
27.619948938379359
 30
0.0
 40
3.8611993223923942
 50
180.0
 51
0.0
  0
LINE
  5
552
  8
DRG
 62
     7
 10
74.280536421539182
 20
30.816887788353821
 30
0.0
 11
74.280536421539182
 21
27.861637324670479
 31
0.0
  0
ARC
  5
553
  8
DRG
 62
     7
 10
62.280536421539182
 20
45.06060729124669
 30
0.0
 40
12.0
 50
0.0
 51
90.0
  0
LINE
  5
554
  8
DRG
 62
     7
 10
55.513311319972217
 20
41.923431282527652
 30
0.0
 11
63.235709964757007
 21
41.923431282527652
 31
0.0
  0
ARC
  5
555
  8
DRG
 62
     7
 10
59.374510642364612
 20
46.690614073903127
 30
0.0
 40
3.8611993223923942
 50
0.0
 51
180.0
  0
LINE
  5
556
  8
DRG
 62
     7
 10
55.513311319972217
 20
46.690614073903127
 30
0.0
 11
55.513311319972217
 21
41.923431282527652
 31
0.0
  0
LINE
  5
557
  8
DRG
 62
     7
 10
63.235709964757007
 20
46.690614073903127
 30
0.0
 11
63.235709964757007
 21
41.923431282527652
 31
0.0
  0
LINE
  5
558
  8
DRG
 62
     7
 10
56.468482394088369
 20
57.06060729124669
 30
0.0
 11
62.280536421539182
 21
57.06060729124669
 31
0.0
  0
LINE
  5
559
  8
DRG
 62
     7
 10
75.331191210151701
 20
60.89733173546756
 30
0.0
 11
80.675802928264815
 21
60.89733173546756
 31
0.0
  0
LINE
  5
55A
  8
DRG
 62
     7
 10
111.2523129779601
 20
45.06060729124669
 30
0.0
 11
111.2523129779601
 21
21.10260096837424
 31
0.0
  0
ARC
  5
55B
  8
DRG
 62
     7
 10
92.427187023305351
 20
28.353548776339029
 30
0.0
 40
10.822390038051561
 50
283.70766965543032
 51
333.6028219757398
  0
ARC
  5
55C
  8
DRG
 62
     7
 10
97.617648860406234
 20
31.597336783954741
 30
0.0
 40
5.7980507916306081
 50
86.525641605078704
 51
165.57884810514051
  0
ARC
  5
55D
  8
DRG
 62
     7
 10
95.530005668639475
 20
29.734254501986349
 30
0.0
 40
5.9848030975807349
 50
273.19424815916329
 51
2.3998464036014582
  0
LINE
  5
55E
  8
DRG
 62
     7
 10
92.002287191588479
 20
27.619948938379359
 30
0.0
 11
92.002287191588479
 21
33.041326503689788
 31
0.0
  0
LINE
  5
55F
  8
DRG
 62
     7
 10
81.440258950509346
 20
32.349374231809861
 30
0.0
 11
81.440258950509346
 21
27.861637324670479
 31
0.0
  0
ARC
  5
560
  8
DRG
 62
     7
 10
95.863486513980874
 20
27.619948938379359
 30
0.0
 40
3.8611993223923942
 50
180.0
 51
270.0
  0
LINE
  5
561
  8
DRG
 62
     7
 10
102.6710305977499
 20
17.89352120355198
 30
0.0
 11
111.8021775281067
 21
17.893521203552009
 31
0.0
  0
ARC
  5
562
  8
DRG
 62
     7
 10
118.87875205644769
 20
22.322305930199491
 30
0.0
 40
16.801915635954131
 50
175.83705377070211
 51
195.28307330703629
  0
LINE
  5
563
  8
DRG
 62
     7
 10
102.1211660476033
 20
23.542010892025068
 30
0.0
 11
102.1211660476033
 21
21.102600968374329
 31
0.0
  0
ARC
  5
564
  8
DRG
 62
     7
 10
128.00989898680459
 20
22.322305930199519
 30
0.0
 40
16.801915635954131
 50
175.83705377070211
 51
195.28307330703629
  0
LINE
  5
565
  8
DRG
 62
     7
 10
101.5095597489034
 20
37.384730871555568
 30
0.0
 11
101.5095597489034
 21
29.483652989600269
 31
0.0
  0
LINE
  5
566
  8
DRG
 62
     7
 10
101.5095597489034
 20
37.384730871555568
 30
0.0
 11
97.266276327143615
 21
37.384730871555568
 31
0.0
  0
LINE
  5
567
  8
DRG
 62
     7
 10
100.2074865211779
 20
42.948196427274922
 30
0.0
 11
93.358174068518778
 21
42.948196427274922
 31
0.0
  0
ARC
  5
568
  8
DRG
 62
     7
 10
96.346287198785603
 20
47.313129977668268
 30
0.0
 40
3.8611993223923942
 50
0.0
 51
180.0
  0
LINE
  5
569
  8
DRG
 62
     7
 10
93.44025895050936
 20
57.06060729124669
 30
0.0
 11
99.252312977960173
 21
57.06060729124669
 31
0.0
  0
LINE
  5
56A
  8
DRG
 62
     7
 10
92.485087876393209
 20
45.910674481046733
 30
0.0
 11
81.470405744524555
 21
45.910674481046733
 31
0.0
  0
LINE
  5
56B
  8
DRG
 62
     7
 10
92.485087876393209
 20
47.313129977668268
 30
0.0
 11
92.485087876393209
 21
45.910674481046733
 31
0.0
  0
LINE
  5
56C
  8
DRG
 62
     7
 10
100.2074865211779
 20
47.313129977668268
 30
0.0
 11
100.2074865211779
 21
42.948196427274922
 31
0.0
  0
LINE
  5
56D
  8
DRG
 62
     7
 10
97.849782736700035
 20
60.89733173546756
 30
0.0
 11
103.66183676415081
 21
60.89733173546756
 31
0.0
  0
LINE
  5
56E
  8
DRG
 62
     7
 10
80.482556033578916
 20
69.876055965300111
 30
0.0
 11
83.501142256151056
 21
69.876055965300111
 31
0.0
  0
LINE
  5
56F
  8
DRG
 62
     7
 10
77.482556033578931
 20
94.593352860836134
 30
0.0
 11
84.553623006881026
 21
94.593352860836134
 31
0.0
  0
LINE
  5
570
  8
DRG
 62
     7
 10
77.482556033578931
 20
101.9948050433795
 30
0.0
 11
84.553623006881026
 21
101.9948050433795
 31
0.0
  0
ARC
  5
571
  8
DRG
 62
     7
 10
-128.9478892023152
 20
81.496816718755667
 30
0.0
 40
177.77324423808651
 50
357.1493405932253
 51
2.8506594067746178
  0
ARC
  5
572
  8
DRG
 62
     7
 10
-63.673578078330422
 20
81.496816718755667
 30
0.0
 40
123.62323904739679
 50
356.01116722839038
 51
3.9888327716095779
  0
LINE
  5
573
  8
DRG
 62
     7
 10
67.331191210151701
 20
94.593352860836134
 30
0.0
 11
67.331191210151701
 21
68.89733173546756
 31
0.0
  0
LINE
  5
574
  8
DRG
 62
     7
 10
77.482556033578931
 20
94.593352860836134
 30
0.0
 11
77.482556033578931
 21
72.876055965300111
 31
0.0
  0
ARC
  5
575
  8
DRG
 62
     7
 10
80.482556033578916
 20
72.876055965300111
 30
0.0
 40
3.0
 50
180.0
 51
270.0
  0
LINE
  5
576
  8
DRG
 62
     7
 10
62.478989637268569
 20
101.9948050433795
 30
0.0
 11
67.331191210151701
 21
101.9948050433795
 31
0.0
  0
LINE
  5
577
  8
DRG
 62
     7
 10
62.478989637268569
 20
94.593352860836134
 30
0.0
 11
67.331191210151701
 21
94.593352860836134
 31
0.0
  0
LINE
  5
578
  8
DRG
 62
     7
 10
62.478989637268569
 20
94.593352860836134
 30
0.0
 11
62.478989637268569
 21
101.9948050433795
 31
0.0
  0
LINE
  5
579
  8
DRG
 62
     7
 10
67.331191210151701
 20
107.1280725498991
 30
0.0
 11
77.482556033578931
 21
107.1280725498991
 31
0.0
  0
LINE
  5
57A
  8
DRG
 62
     7
 10
67.331191210151701
 20
107.1280725498991
 30
0.0
 11
67.331191210151701
 21
101.9948050433795
 31
0.0
  0
LINE
  5
57B
  8
DRG
 62
     7
 10
77.482556033578931
 20
101.9948050433795
 30
0.0
 11
77.482556033578931
 21
107.1280725498991
 31
0.0
  0
ARC
  5
57C
  8
DRG
 62
     7
 10
-72.936249365281071
 20
81.496816718755667
 30
0.0
 40
177.77324423808651
 50
357.1493405932253
 51
2.8506594067746178
  0
ARC
  5
57D
  8
DRG
 62
     7
 10
274.44787133523357
 20
81.496816718755667
 30
0.0
 40
177.77324423808651
 50
177.14934059322539
 51
182.85065940677461
  0
ARC
  5
57E
  8
DRG
 62
     7
 10
209.1735602112488
 20
81.496816718755667
 30
0.0
 40
123.62323904739679
 50
176.01116722839041
 51
183.98883277160959
  0
ARC
  5
57F
  8
DRG
 62
     7
 10
100.75581098497619
 20
72.655643349176444
 30
0.0
 40
3.8611993223923942
 50
180.0
 51
0.0
  0
ARC
  5
580
  8
DRG
 62
     7
 10
82.991751330883176
 20
73.025526152493626
 30
0.0
 40
3.1903983410800212
 50
279.18737892597682
 51
298.2359877234839
  0
ARC
  5
581
  8
DRG
 62
     7
 10
100.75581098497619
 20
90.337990088334877
 30
0.0
 40
3.8611993223923942
 50
0.0
 51
180.0
  0
ARC
  5
582
  8
DRG
 62
     7
 10
97.849782736700035
 20
90.096301702043775
 30
0.0
 40
12.0
 50
90.0
 51
180.0
  0
LINE
  5
583
  8
DRG
 62
     7
 10
84.553623006881026
 20
101.9948050433795
 30
0.0
 11
84.553623006881026
 21
94.593352860836134
 31
0.0
  0
LINE
  5
584
  8
DRG
 62
     7
 10
97.849782736700035
 20
102.0963017020437
 30
0.0
 11
103.66183676415081
 21
102.0963017020437
 31
0.0
  0
LINE
  5
585
  8
DRG
 62
     7
 10
130.05101171535759
 20
62.115696081838678
 30
0.0
 11
130.05101171535759
 21
85.569427875032716
 31
0.0
  0
LINE
  5
586
  8
DRG
 62
     7
 10
119.0096173095521
 20
102.0369718403326
 30
0.0
 11
119.0096173095521
 21
62.115696081838678
 31
0.0
  0
LINE
  5
587
  8
DRG
 62
     7
 10
165.4162645291251
 20
78.31140447718235
 30
0.0
 11
171.78072804963571
 21
62.115696081838678
 31
0.0
  0
LINE
  5
588
  8
DRG
 62
     7
 10
153.2899770207527
 20
82.583583780839604
 30
0.0
 11
161.3332883364622
 21
62.115696081838678
 31
0.0
  0
LINE
  5
589
  8
DRG
 62
     7
 10
153.2899770207527
 20
102.0369718403326
 30
0.0
 11
153.2899770207527
 21
62.115696081838678
 31
0.0
  0
LINE
  5
58A
  8
DRG
 62
     7
 10
142.11987082690661
 20
102.0369718403326
 30
0.0
 11
142.11987082690661
 21
62.115696081838678
 31
0.0
  0
ARC
  5
58B
  8
DRG
 62
     7
 10
160.28928843394391
 20
53.283870983727013
 30
0.0
 40
20.648450998997479
 50
209.50344874889601
 51
257.2400493880096
  0
LINE
  5
58C
  8
DRG
 62
     7
 10
141.28023066635379
 20
29.95929893143898
 30
0.0
 11
152.32505959223769
 21
29.95929893143898
 31
0.0
  0
ARC
  5
58D
  8
DRG
 62
     7
 10
153.28023066635379
 20
45.06060729124669
 30
0.0
 40
12.0
 50
90.0
 51
161.62913043773071
  0
LINE
  5
58E
  8
DRG
 62
     7
 10
153.2899770207527
 20
62.115696081838678
 30
0.0
 11
142.11987082690661
 21
62.115696081838678
 31
0.0
  0
LINE
  5
58F
  8
DRG
 62
     7
 10
127.2345352189994
 20
17.28637227261407
 30
0.0
 11
127.2345352189994
 21
40.740104065808111
 31
0.0
  0
LINE
  5
590
  8
DRG
 62
     7
 10
116.19314081319391
 20
57.207648031108022
 30
0.0
 11
116.19314081319391
 21
17.28637227261407
 31
0.0
  0
LINE
  5
591
  8
DRG
 62
     7
 10
116.19314081319391
 20
17.28637227261407
 30
0.0
 11
127.2345352189994
 21
17.28637227261407
 31
0.0
  0
LINE
  5
592
  8
DRG
 62
     7
 10
141.28023066635379
 20
29.95929893143898
 30
0.0
 11
141.28023066635379
 21
27.861637324670479
 31
0.0
  0
ARC
  5
593
  8
DRG
 62
     7
 10
135.496228002728
 20
47.014815876282221
 30
0.0
 40
10.2528691067876
 50
83.7965056449153
 51
143.68693404466879
  0
ARC
  5
594
  8
DRG
 62
     7
 10
135.23453521899941
 20
40.740104065808111
 30
0.0
 40
8.0
 50
90.0
 51
180.0
  0
LINE
  5
595
  8
DRG
 62
     7
 10
119.0096173095521
 20
62.115696081838678
 30
0.0
 11
130.05101171535759
 21
62.115696081838678
 31
0.0
  0
LINE
  5
596
  8
DRG
 62
     7
 10
116.19314081319391
 20
57.207648031108022
 30
0.0
 11
127.2345352189994
 21
57.207648031108022
 31
0.0
  0
LINE
  5
597
  8
DRG
 62
     7
 10
127.2345352189994
 20
53.0865336948413
 30
0.0
 11
127.2345352189994
 21
57.207648031108079
 31
0.0
  0
LINE
  5
598
  8
DRG
 62
     7
 10
136.6041529029215
 20
57.207648031108022
 30
0.0
 11
136.6041529029215
 21
48.740104065808111
 31
0.0
  0
LINE
  5
599
  8
DRG
 62
     7
 10
136.6041529029215
 20
48.740104065808111
 30
0.0
 11
135.23453521899941
 21
48.740104065808111
 31
0.0
  0
ARC
  5
59A
  8
DRG
 62
     7
 10
149.15275272984229
 20
46.50373678022958
 30
0.0
 40
7.6283568598071962
 50
162.14543119997589
 51
216.29372603558031
  0
ARC
  5
59B
  8
DRG
 62
     7
 10
164.68224204875119
 20
54.775095406185869
 30
0.0
 40
15.14236331012172
 50
222.29150451995909
 51
257.53093545652467
  0
ARC
  5
59C
  8
DRG
 62
     7
 10
159.223234097084
 20
28.191351553125511
 30
0.0
 40
12.0
 50
8.4721667757414814
 51
79.486612768212169
  0
LINE
  5
59D
  8
DRG
 62
     7
 10
160.04745823702251
 20
29.300230626583438
 30
0.0
 11
160.04745823702251
 21
27.619948938379359
 31
0.0
  0
LINE
  5
59E
  8
DRG
 62
     7
 10
152.32505959223769
 20
27.619948938379359
 30
0.0
 11
152.32505959223769
 21
29.95929893143898
 31
0.0
  0
ARC
  5
59F
  8
DRG
 62
     7
 10
156.18625891463009
 20
27.619948938379359
 30
0.0
 40
3.8611993223923942
 50
180.0
 51
0.0
  0
ARC
  5
5A0
  8
DRG
 62
     7
 10
153.8611380906755
 20
26.699836406787622
 30
0.0
 40
6.7106338785129491
 50
22.799249772319211
 51
73.841024038773142
  0
LINE
  5
5A1
  8
DRG
 62
     7
 10
171.0922846938046
 20
29.95929893143915
 30
0.0
 11
171.0922846938046
 21
27.861637324670479
 31
0.0
  0
LINE
  5
5A2
  8
DRG
 62
     7
 10
171.0912486890569
 20
45.21828747592599
 30
0.0
 11
160.04745823702251
 21
45.21828747592599
 31
0.0
  0
ARC
  5
5A3
  8
DRG
 62
     7
 10
159.0922846938046
 20
45.06060729124669
 30
0.0
 40
12.0
 50
0.7528890912800703
 51
90.0
  0
LINE
  5
5A4
  8
DRG
 62
     7
 10
161.3332883364622
 20
62.115696081838678
 30
0.0
 11
171.78072804963571
 21
62.115696081838678
 31
0.0
  0
ARC
  5
5A5
  8
DRG
 62
     7
 10
156.18625891463009
 20
46.421288526219307
 30
0.0
 40
3.8611993223923942
 50
0.0
 51
161.4735686305323
  0
ARC
  5
5A6
  8
DRG
 62
     7
 10
155.35373214152469
 20
46.850626662257177
 30
0.0
 40
2.938857360854815
 50
164.25399710017811
 51
230.4135202949499
  0
LINE
  5
5A7
  8
DRG
 62
     7
 10
160.04745823702251
 20
46.421288526219307
 30
0.0
 11
160.04745823702251
 21
45.21828747592599
 31
0.0
  0
LINE
  5
5A8
  8
DRG
 62
     7
 10
153.28023066635379
 20
57.06060729124669
 30
0.0
 11
159.0922846938046
 21
57.06060729124669
 31
0.0
  0
LINE
  5
5A9
  8
DRG
 62
     7
 10
142.11987082690661
 20
102.0369718403326
 30
0.0
 11
153.2899770207527
 21
102.0369718403326
 31
0.0
  0
ARC
  5
5AA
  8
DRG
 62
     7
 10
138.05101171535759
 20
85.569427875032716
 30
0.0
 40
8.0
 50
90.0
 51
180.0
  0
ARC
  5
5AB
  8
DRG
 62
     7
 10
-7.66193824129624
 20
81.496816718755667
 30
0.0
 40
123.62323904739679
 50
356.01116722839038
 51
3.9888327716095779
  0
ARC
  5
5AC
  8
DRG
 62
     7
 10
138.3127044990861
 20
91.844139685506775
 30
0.0
 40
10.2528691067876
 50
83.7965056449153
 51
143.68693404466879
  0
LINE
  5
5AD
  8
DRG
 62
     7
 10
119.0096173095521
 20
102.0369718403326
 30
0.0
 11
130.05101171535759
 21
102.0369718403326
 31
0.0
  0
LINE
  5
5AE
  8
DRG
 62
     7
 10
130.05101171535759
 20
97.915857504065855
 30
0.0
 11
130.05101171535759
 21
102.0369718403326
 31
0.0
  0
LINE
  5
5AF
  8
DRG
 62
     7
 10
139.4206293992797
 20
102.0369718403326
 30
0.0
 11
139.4206293992797
 21
93.569427875032716
 31
0.0
  0
LINE
  5
5B0
  8
DRG
 62
     7
 10
139.4206293992797
 20
93.569427875032716
 30
0.0
 11
138.05101171535759
 21
93.569427875032716
 31
0.0
  0
LINE
  5
5B1
  8
DRG
 62
     7
 10
153.2899770207527
 20
82.583583780839604
 30
0.0
 11
160.9346181585602
 21
102.0369718403326
 31
0.0
  0
LINE
  5
5B2
  8
DRG
 62
     7
 10
176.9709164189357
 20
78.31140447718235
 30
0.0
 11
176.9709164189357
 21
86.855763084496857
 31
0.0
  0
LINE
  5
5B3
  8
DRG
 62
     7
 10
176.9709164189357
 20
78.31140447718235
 30
0.0
 11
165.4162645291251
 21
78.31140447718235
 31
0.0
  0
LINE
  5
5B4
  8
DRG
 62
     7
 10
160.9346181585602
 20
102.0369718403326
 30
0.0
 11
171.38205787173379
 21
102.0369718403326
 31
0.0
  0
LINE
  5
5B5
  8
DRG
 62
     7
 10
165.4162645291251
 20
86.855763084496857
 30
0.0
 11
171.38205787173379
 21
102.0369718403326
 31
0.0
  0
LINE
  5
5B6
  8
DRG
 62
     7
 10
176.9709164189357
 20
86.855763084496857
 30
0.0
 11
165.4162645291251
 21
86.855763084496857
 31
0.0
  0
ENDBLK
  5
5B8
  8
0
  0
BLOCK
  8
0
  2
ROTORK_GEARS_LOGO
 70
     0
 10
0.0
 20
0.0
 30
0.0
  3
ROTORK_GEARS_LOGO
  1

  0
INSERT
  5
5BA
  8
0
  2
LOGO
 10
16.592937132437999
 20
3.1720898939720419
 30
0.0
  0
ENDBLK
  5
5BC
  8
0
  0
BLOCK
  8
0
  2
*U4
 70
     1
 10
0.0
 20
0.0
 30
0.0
  3
*U4
  1

  0
SOLID
  5
60A
  8
DRG
  6
CONTINUOUS
 62
     7
 10
28.521311246702879
 20
3.7920749005575649
 30
0.0
 11
18.100585347853119
 21
3.392610111620797
 31
0.0
 12
25.69916102541524
 22
3.392610111620797
 32
0.0
 13
25.69916102541524
 23
3.392610111620797
 33
0.0
210
0.0
220
0.0
230
1.0
  0
SOLID
  5
60B
  8
DRG
  6
CONTINUOUS
 62
     7
 10
15.253275093427559
 20
3.825466506601944
 30
0.0
 11
18.100585347853119
 21
3.392610111620797
 31
0.0
 12
28.521311246702879
 22
3.7920749005575649
 32
0.0
 13
28.521311246702879
 23
3.7920749005575649
 33
0.0
210
0.0
220
0.0
230
1.0
  0
SOLID
  5
60C
  8
DRG
  6
CONTINUOUS
 62
     7
 10
31.178312160316999
 20
4.8237968273226679
 30
0.0
 11
15.253275093427559
 21
3.825466506601944
 31
0.0
 12
28.521311246702879
 22
3.7920749005575649
 32
0.0
 13
28.521311246702879
 23
3.7920749005575649
 33
0.0
210
0.0
220
0.0
230
1.0
  0
SOLID
  5
60D
  8
DRG
  6
CONTINUOUS
 62
     7
 10
12.628832942518519
 20
5.011570945580659
 30
0.0
 11
15.253275093427559
 21
3.825466506601944
 31
0.0
 12
31.178312160316999
 22
4.8237968273226679
 32
0.0
 13
31.178312160316999
 23
4.8237968273226679
 33
0.0
  0
SOLID
  5
60E
  8
DRG
  6
CONTINUOUS
 62
     7
 10
33.5305051013693
 20
6.4335459870298406
 30
0.0
 11
12.628832942518519
 21
5.011570945580659
 31
0.0
 12
31.178312160316999
 22
4.8237968273226679
 32
0.0
 13
31.178312160316999
 23
4.8237968273226679
 33
0.0
210
0.0
220
0.0
230
1.0
  0
SOLID
  5
60F
  8
DRG
  6
CONTINUOUS
 62
     7
 10
10.42249809221936
 20
6.8626859803606264
 30
0.0
 11
12.628832942518519
 21
5.011570945580659
 31
0.0
 12
33.5305051013693
 22
6.4335459870298406
 32
0.0
 13
33.5305051013693
 23
6.4335459870298406
 33
0.0
210
0.0
220
0.0
230
1.0
  0
SOLID
  5
610
  8
DRG
  6
CONTINUOUS
 62
     7
 10
35.454252880266083
 20
8.5367099065339431
 30
0.0
 11
10.42249809221936
 21
6.8626859803606264
 31
0.0
 12
33.5305051013693
 22
6.4335459870298406
 32
0.0
 13
33.5305051013693
 23
6.4335459870298406
 33
0.0
210
0.0
220
0.0
230
1.0
  0
SOLID
  5
611
  8
DRG
  6
CONTINUOUS
 62
     7
 10
8.7984056310258474
 20
9.2411022645984033
 30
0.0
 11
10.42249809221936
 21
6.8626859803606264
 31
0.0
 12
35.454252880266083
 22
8.5367099065339431
 32
0.0
 13
35.454252880266083
 23
8.5367099065339431
 33
0.0
210
0.0
220
0.0
230
1.0
  0
SOLID
  5
612
  8
DRG
  6
CONTINUOUS
 62
     7
 10
23.40592258650463
 20
9.658646647821115
 30
0.0
 11
8.7984056310258474
 21
9.2411022645984033
 31
0.0
 12
35.454252880266083
 22
8.5367099065339431
 32
0.0
 13
35.454252880266083
 23
8.5367099065339431
 33
0.0
210
0.0
220
0.0
230
1.0
  0
SOLID
  5
613
  8
DRG
  6
CONTINUOUS
 62
     7
 10
21.928305576765752
 20
9.9525629453087276
 30
0.0
 11
8.7984056310258474
 21
9.2411022645984033
 31
0.0
 12
23.40592258650463
 22
9.658646647821115
 32
0.0
 13
23.40592258650463
 23
9.658646647821115
 33
0.0
210
0.0
220
0.0
230
1.0
  0
SOLID
  5
614
  8
DRG
  6
CONTINUOUS
 62
     7
 10
24.883539596243509
 20
9.9525629453087276
 30
0.0
 11
23.40592258650463
 21
9.658646647821115
 31
0.0
 12
35.454252880266083
 22
8.5367099065339431
 32
0.0
 13
35.454252880266083
 23
8.5367099065339431
 33
0.0
210
0.0
220
0.0
230
1.0
  0
SOLID
  5
615
  8
DRG
  6
CONTINUOUS
 62
     7
 10
20.675642362128059
 20
10.78956574583694
 30
0.0
 11
8.7984056310258474
 21
9.2411022645984033
 31
0.0
 12
21.928305576765752
 22
9.9525629453087276
 32
0.0
 13
21.928305576765752
 23
9.9525629453087276
 33
0.0
210
0.0
220
0.0
230
1.0
  0
SOLID
  5
616
  8
DRG
  6
CONTINUOUS
 62
     7
 10
26.136202810881191
 20
10.78956574583694
 30
0.0
 11
24.883539596243509
 21
9.9525629453087276
 31
0.0
 12
35.454252880266083
 22
8.5367099065339431
 32
0.0
 13
35.454252880266083
 23
8.5367099065339431
 33
0.0
210
0.0
220
0.0
230
1.0
  0
SOLID
  5
617
  8
DRG
  6
CONTINUOUS
 62
     7
 10
36.848438465016159
 20
11.022740989281949
 30
0.0
 11
26.136202810881191
 21
10.78956574583694
 31
0.0
 12
35.454252880266083
 22
8.5367099065339431
 32
0.0
 13
35.454252880266083
 23
8.5367099065339431
 33
0.0
210
0.0
220
0.0
230
1.0
  0
SOLID
  5
618
  8
DRG
  6
CONTINUOUS
 62
     7
 10
7.8773760952256326
 20
11.969883116520499
 30
0.0
 11
8.7984056310258474
 21
9.2411022645984033
 31
0.0
 12
20.675642362128059
 22
10.78956574583694
 32
0.0
 13
20.675642362128059
 23
10.78956574583694
 33
0.0
210
0.0
220
0.0
230
1.0
  0
SOLID
  5
619
  8
DRG
  6
CONTINUOUS
 62
     7
 10
19.838639561599841
 20
12.042228960474629
 30
0.0
 11
7.8773760952256326
 21
11.969883116520499
 31
0.0
 12
20.675642362128059
 22
10.78956574583694
 32
0.0
 13
20.675642362128059
 23
10.78956574583694
 33
0.0
210
0.0
220
0.0
230
1.0
  0
SOLID
  5
61A
  8
DRG
  6
CONTINUOUS
 62
     7
 10
26.973205611409409
 20
12.042228960474629
 30
0.0
 11
26.136202810881191
 21
10.78956574583694
 31
0.0
 12
36.848438465016159
 22
11.022740989281949
 32
0.0
 13
36.848438465016159
 23
11.022740989281949
 33
0.0
210
0.0
220
0.0
230
1.0
  0
SOLID
  5
61B
  8
DRG
  6
CONTINUOUS
 62
     7
 10
19.544723264112228
 20
13.51984597021351
 30
0.0
 11
7.8773760952256326
 21
11.969883116520499
 31
0.0
 12
19.838639561599841
 22
12.042228960474629
 32
0.0
 13
19.838639561599841
 23
12.042228960474629
 33
0.0
210
0.0
220
0.0
230
1.0
  0
SOLID
  5
61C
  8
DRG
  6
CONTINUOUS
 62
     7
 10
27.267121908897021
 20
13.51984597021351
 30
0.0
 11
26.973205611409409
 21
12.042228960474629
 31
0.0
 12
36.848438465016159
 22
11.022740989281949
 32
0.0
 13
36.848438465016159
 23
11.022740989281949
 33
0.0
210
0.0
220
0.0
230
1.0
  0
SOLID
  5
61D
  8
DRG
  6
CONTINUOUS
 62
     7
 10
37.639779947293839
 20
13.760967175618781
 30
0.0
 11
27.267121908897021
 21
13.51984597021351
 31
0.0
 12
36.848438465016159
 22
11.022740989281949
 32
0.0
 13
36.848438465016159
 23
11.022740989281949
 33
0.0
  0
SOLID
  5
61E
  8
DRG
  6
CONTINUOUS
 62
     7
 10
19.544723264112228
 20
13.51984597021351
 30
0.0
 11
19.544723264112239
 21
14.846027306936771
 31
0.0
 12
7.7279273094568479
 22
14.846027306936771
 32
0.0
 13
7.7279273094568479
 23
14.846027306936771
 33
0.0
210
0.0
220
0.0
230
1.0
  0
SOLID
  5
61F
  8
DRG
  6
CONTINUOUS
 62
     7
 10
7.7279273094568479
 20
14.846027306936771
 30
0.0
 11
7.8773760952256326
 21
11.969883116520499
 31
0.0
 12
19.544723264112228
 22
13.51984597021351
 32
0.0
 13
19.544723264112228
 23
13.51984597021351
 33
0.0
210
0.0
220
0.0
230
1.0
  0
SOLID
  5
620
  8
DRG
  6
CONTINUOUS
 62
     7
 10
64.950787629014954
 20
16.16250237848859
 30
0.0
 11
56.468482394088369
 21
15.861637324670481
 31
0.0
 12
62.280536421539182
 22
15.861637324670481
 32
0.0
 13
62.280536421539182
 23
15.861637324670481
 33
0.0
210
0.0
220
0.0
230
1.0
  0
SOLID
  5
621
  8
DRG
  6
CONTINUOUS
 62
     7
 10
161.76253590128039
 20
16.16250237848859
 30
0.0
 11
153.28023066635379
 21
15.861637324670481
 31
0.0
 12
159.0922846938046
 22
15.861637324670481
 32
0.0
 13
159.0922846938046
 23
15.861637324670481
 33
0.0
210
0.0
220
0.0
230
1.0
  0
SOLID
  5
622
  8
DRG
  6
CONTINUOUS
 62
     7
 10
150.609979458878
 20
16.16250237848859
 30
0.0
 11
153.28023066635379
 21
15.861637324670481
 31
0.0
 12
161.76253590128039
 22
16.16250237848859
 32
0.0
 13
161.76253590128039
 23
16.16250237848859
 33
0.0
210
0.0
220
0.0
230
1.0
  0
SOLID
  5
623
  8
DRG
  6
CONTINUOUS
 62
     7
 10
53.798231186612632
 20
16.16250237848859
 30
0.0
 11
56.468482394088369
 21
15.861637324670481
 31
0.0
 12
64.950787629014954
 22
16.16250237848859
 32
0.0
 13
64.950787629014954
 23
16.16250237848859
 33
0.0
210
0.0
220
0.0
230
1.0
  0
SOLID
  5
624
  8
DRG
  6
CONTINUOUS
 62
     7
 10
51.261877524677722
 20
17.050010909841429
 30
0.0
 11
53.798231186612632
 21
16.16250237848859
 31
0.0
 12
64.950787629014954
 22
16.16250237848859
 32
0.0
 13
64.950787629014954
 23
16.16250237848859
 33
0.0
210
0.0
220
0.0
230
1.0
  0
SOLID
  5
625
  8
DRG
  6
CONTINUOUS
 62
     7
 10
164.29888956321531
 20
17.050010909841451
 30
0.0
 11
150.609979458878
 21
16.16250237848859
 31
0.0
 12
161.76253590128039
 22
16.16250237848859
 32
0.0
 13
161.76253590128039
 23
16.16250237848859
 33
0.0
210
0.0
220
0.0
230
1.0
  0
SOLID
  5
626
  8
DRG
  6
CONTINUOUS
 62
     7
 10
67.487141290949879
 20
17.050010909841451
 30
0.0
 11
51.261877524677722
 21
17.050010909841429
 31
0.0
 12
64.950787629014954
 22
16.16250237848859
 32
0.0
 13
64.950787629014954
 23
16.16250237848859
 33
0.0
210
0.0
220
0.0
230
1.0
  0
SOLID
  5
627
  8
DRG
  6
CONTINUOUS
 62
     7
 10
148.07362579694311
 20
17.050010909841451
 30
0.0
 11
150.609979458878
 21
16.16250237848859
 31
0.0
 12
164.29888956321531
 22
17.050010909841451
 32
0.0
 13
164.29888956321531
 23
17.050010909841451
 33
0.0
210
0.0
220
0.0
230
1.0
  0
SOLID
  5
628
  8
DRG
  6
CONTINUOUS
 62
     7
 10
87.597152072902304
 20
17.71482672944132
 30
0.0
 11
90.043755964704772
 21
17.09444119032354
 31
0.0
 12
92.567432060215296
 22
17.13695925093587
 32
0.0
 13
92.567432060215296
 23
17.13695925093587
 33
0.0
210
0.0
220
0.0
230
1.0
  0
SOLID
  5
629
  8
DRG
  6
CONTINUOUS
 62
     7
 10
94.991749269489972
 20
17.839408458597301
 30
0.0
 11
87.597152072902304
 21
17.71482672944132
 31
0.0
 12
92.567432060215296
 22
17.13695925093587
 32
0.0
 13
92.567432060215296
 23
17.13695925093587
 33
0.0
210
0.0
220
0.0
230
1.0
  0
SOLID
  5
62A
  8
DRG
  6
CONTINUOUS
 62
     7
 10
48.986604771783632
 20
18.479659535054068
 30
0.0
 11
51.261877524677722
 21
17.050010909841429
 31
0.0
 12
67.487141290949879
 22
17.050010909841451
 32
0.0
 13
67.487141290949879
 23
17.050010909841451
 33
0.0
210
0.0
220
0.0
230
1.0
  0
SOLID
  5
62B
  8
DRG
  6
CONTINUOUS
 62
     7
 10
166.57416231610941
 20
18.479659535054122
 30
0.0
 11
148.07362579694311
 21
17.050010909841451
 31
0.0
 12
164.29888956321531
 22
17.050010909841451
 32
0.0
 13
164.29888956321531
 23
17.050010909841451
 33
0.0
210
0.0
220
0.0
230
1.0
  0
SOLID
  5
62C
  8
DRG
  6
CONTINUOUS
 62
     7
 10
69.762414043843989
 20
18.479659535054122
 30
0.0
 11
48.986604771783632
 21
18.479659535054068
 31
0.0
 12
67.487141290949879
 22
17.050010909841451
 32
0.0
 13
67.487141290949879
 23
17.050010909841451
 33
0.0
210
0.0
220
0.0
230
1.0
  0
SOLID
  5
62D
  8
DRG
  6
CONTINUOUS
 62
     7
 10
145.79835304404901
 20
18.479659535054122
 30
0.0
 11
148.07362579694311
 21
17.050010909841451
 31
0.0
 12
166.57416231610941
 22
18.479659535054122
 32
0.0
 13
166.57416231610941
 23
18.479659535054122
 33
0.0
210
0.0
220
0.0
230
1.0
  0
SOLID
  5
62E
  8
DRG
  6
CONTINUOUS
 62
     7
 10
97.202192775961791
 20
18.641522921873062
 30
0.0
 11
87.597152072902304
 21
17.71482672944132
 31
0.0
 12
94.991749269489972
 22
17.839408458597301
 32
0.0
 13
94.991749269489972
 23
17.839408458597301
 33
0.0
210
0.0
220
0.0
230
1.0
  0
SOLID
  5
62F
  8
DRG
  6
CONTINUOUS
 62
     7
 10
85.398663329684837
 20
18.95474449545469
 30
0.0
 11
87.597152072902304
 21
17.71482672944132
 31
0.0
 12
97.202192775961791
 22
18.641522921873062
 32
0.0
 13
97.202192775961791
 23
18.641522921873062
 33
0.0
210
0.0
220
0.0
230
1.0
  0
SOLID
  5
630
  8
DRG
  6
CONTINUOUS
 62
     7
 10
15.68821754148445
 20
19.434178489748358
 30
0.0
 11
18.58303542025671
 21
18.945146626805109
 31
0.0
 12
20.932030560438331
 22
19.29078972041172
 32
0.0
 13
20.932030560438331
 23
19.29078972041172
 33
0.0
210
0.0
220
0.0
230
1.0
  0
SOLID
  5
631
  8
DRG
  6
CONTINUOUS
 62
     7
 10
102.3181837587821
 20
19.484710699009419
 30
0.0
 11
102.6710305977499
 21
17.89352120355198
 31
0.0
 12
111.8021775281067
 22
17.893521203552009
 32
0.0
 13
111.8021775281067
 23
17.893521203552009
 33
0.0
210
0.0
220
0.0
230
1.0
  0
SOLID
  5
632
  8
DRG
  6
CONTINUOUS
 62
     7
 10
99.18720752242109
 20
19.902143627652059
 30
0.0
 11
85.398663329684837
 21
18.95474449545469
 31
0.0
 12
97.202192775961791
 22
18.641522921873062
 32
0.0
 13
97.202192775961791
 23
18.641522921873062
 33
0.0
210
0.0
220
0.0
230
1.0
  0
SOLID
  5
633
  8
DRG
  6
CONTINUOUS
 62
     7
 10
23.111648298363178
 20
20.232338356053141
 30
0.0
 11
15.68821754148445
 21
19.434178489748358
 31
0.0
 12
20.932030560438331
 22
19.29078972041172
 32
0.0
 13
20.932030560438331
 23
19.29078972041172
 33
0.0
210
0.0
220
0.0
230
1.0
  0
SOLID
  5
634
  8
DRG
  6
CONTINUOUS
 62
     7
 10
47.086504604472083
 20
20.37975970236559
 30
0.0
 11
48.986604771783632
 21
18.479659535054068
 31
0.0
 12
69.762414043843989
 22
18.479659535054122
 32
0.0
 13
69.762414043843989
 23
18.479659535054122
 33
0.0
210
0.0
220
0.0
230
1.0
  0
SOLID
  5
635
  8
DRG
  6
CONTINUOUS
 62
     7
 10
168.474262483421
 20
20.379759702365671
 30
0.0
 11
145.79835304404901
 21
18.479659535054122
 31
0.0
 12
166.57416231610941
 22
18.479659535054122
 32
0.0
 13
166.57416231610941
 23
18.479659535054122
 33
0.0
210
0.0
220
0.0
230
1.0
  0
SOLID
  5
636
  8
DRG
  6
CONTINUOUS
 62
     7
 10
71.662514211155525
 20
20.379759702365671
 30
0.0
 11
47.086504604472083
 21
20.37975970236559
 31
0.0
 12
69.762414043843989
 22
18.479659535054122
 32
0.0
 13
69.762414043843989
 23
18.479659535054122
 33
0.0
210
0.0
220
0.0
230
1.0
  0
SOLID
  5
637
  8
DRG
  6
CONTINUOUS
 62
     7
 10
143.89825287673739
 20
20.379759702365678
 30
0.0
 11
145.79835304404901
 21
18.479659535054122
 31
0.0
 12
168.474262483421
 22
20.379759702365671
 32
0.0
 13
168.474262483421
 23
20.379759702365671
 33
0.0
  0
SOLID
  5
638
  8
DRG
  6
CONTINUOUS
 62
     7
 10
12.996201983781489
 20
20.605577205523002
 30
0.0
 11
15.68821754148445
 21
19.434178489748358
 31
0.0
 12
23.111648298363178
 22
20.232338356053141
 32
0.0
 13
23.111648298363178
 23
20.232338356053141
 33
0.0
210
0.0
220
0.0
230
1.0
  0
SOLID
  5
639
  8
DRG
  6
CONTINUOUS
 62
     7
 10
111.2870334115631
 20
20.69438210209054
 30
0.0
 11
102.3181837587821
 21
19.484710699009419
 31
0.0
 12
111.8021775281067
 22
17.893521203552009
 32
0.0
 13
111.8021775281067
 23
17.893521203552009
 33
0.0
210
0.0
220
0.0
230
1.0
  0
SOLID
  5
63A
  8
DRG
  6
CONTINUOUS
 62
     7
 10
83.724920350627414
 20
20.818044783243639
 30
0.0
 11
85.398663329684837
 21
18.95474449545469
 31
0.0
 12
99.18720752242109
 22
19.902143627652059
 32
0.0
 13
99.18720752242109
 23
19.902143627652059
 33
0.0
210
0.0
220
0.0
230
1.0
  0
SOLID
  5
63B
  8
DRG
  6
CONTINUOUS
 62
     7
 10
102.1211660476033
 20
21.102600968374279
 30
0.0
 11
102.3181837587821
 21
19.484710699009419
 31
0.0
 12
111.2870334115631
 22
20.69438210209054
 32
0.0
 13
111.2870334115631
 23
20.69438210209054
 33
0.0
210
0.0
220
0.0
230
1.0
  0
SOLID
  5
63C
  8
DRG
  6
CONTINUOUS
 62
     7
 10
100.8530806557153
 20
21.561756477466091
 30
0.0
 11
83.724920350627414
 21
20.818044783243639
 31
0.0
 12
99.18720752242109
 22
19.902143627652059
 32
0.0
 13
99.18720752242109
 23
19.902143627652059
 33
0.0
210
0.0
220
0.0
230
1.0
  0
SOLID
  5
63D
  8
DRG
  6
CONTINUOUS
 62
     7
 10
24.97349704072932
 20
21.705690512635009
 30
0.0
 11
12.996201983781489
 21
20.605577205523002
 31
0.0
 12
23.111648298363178
 22
20.232338356053141
 32
0.0
 13
23.111648298363178
 23
20.232338356053141
 33
0.0
210
0.0
220
0.0
230
1.0
  0
SOLID
  5
63E
  8
DRG
  6
CONTINUOUS
 62
     7
 10
10.665263297999569
 20
22.390471476161601
 30
0.0
 11
12.996201983781489
 21
20.605577205523002
 31
0.0
 12
24.97349704072932
 22
21.705690512635009
 32
0.0
 13
24.97349704072932
 23
21.705690512635009
 33
0.0
210
0.0
220
0.0
230
1.0
  0
SOLID
  5
63F
  8
DRG
  6
CONTINUOUS
 62
     7
 10
45.656855979259397
 20
22.655032455259661
 30
0.0
 11
47.086504604472083
 21
20.37975970236559
 31
0.0
 12
71.662514211155525
 22
20.379759702365671
 32
0.0
 13
71.662514211155525
 23
20.379759702365671
 33
0.0
  0
SOLID
  5
640
  8
DRG
  6
CONTINUOUS
 62
     7
 10
73.092162836368203
 20
22.655032455259779
 30
0.0
 11
45.656855979259397
 21
22.655032455259661
 31
0.0
 12
71.662514211155525
 22
20.379759702365671
 32
0.0
 13
71.662514211155525
 23
20.379759702365671
 33
0.0
210
0.0
220
0.0
230
1.0
  0
SOLID
  5
641
  8
DRG
  6
CONTINUOUS
 62
     7
 10
169.90391110863371
 20
22.655032455259779
 30
0.0
 11
143.89825287673739
 21
20.379759702365678
 31
0.0
 12
168.474262483421
 22
20.379759702365671
 32
0.0
 13
168.474262483421
 23
20.379759702365671
 33
0.0
  0
SOLID
  5
642
  8
DRG
  6
CONTINUOUS
 62
     7
 10
142.46860425152479
 20
22.655032455259779
 30
0.0
 11
143.89825287673739
 21
20.379759702365678
 31
0.0
 12
169.90391110863371
 22
22.655032455259779
 32
0.0
 13
169.90391110863371
 23
22.655032455259779
 33
0.0
  0
SOLID
  5
643
  8
DRG
  6
CONTINUOUS
 62
     7
 10
82.474422287265327
 20
22.98819641756462
 30
0.0
 11
83.724920350627414
 21
20.818044783243639
 31
0.0
 12
100.8530806557153
 22
21.561756477466091
 32
0.0
 13
100.8530806557153
 23
21.561756477466091
 33
0.0
210
0.0
220
0.0
230
1.0
  0
SOLID
  5
644
  8
DRG
  6
CONTINUOUS
 62
     7
 10
111.2523129779601
 20
23.54201089202471
 30
0.0
 11
102.1211660476033
 21
21.102600968374279
 31
0.0
 12
111.2870334115631
 22
20.69438210209054
 32
0.0
 13
111.2870334115631
 23
20.69438210209054
 33
0.0
210
0.0
220
0.0
230
1.0
  0
SOLID
  5
645
  8
DRG
  6
CONTINUOUS
 62
     7
 10
102.1211660476033
 20
23.542010892025001
 30
0.0
 11
82.474422287265327
 21
22.98819641756462
 31
0.0
 12
100.8530806557153
 22
21.561756477466091
 32
0.0
 13
100.8530806557153
 23
21.561756477466091
 33
0.0
210
0.0
220
0.0
230
1.0
  0
SOLID
  5
646
  8
DRG
  6
CONTINUOUS
 62
     7
 10
102.1211660476033
 20
23.542010892025001
 30
0.0
 11
102.1211660476033
 21
21.102600968374279
 31
0.0
 12
111.2523129779601
 22
23.54201089202471
 32
0.0
 13
111.2523129779601
 23
23.54201089202471
 33
0.0
210
0.0
220
0.0
230
1.0
  0
SOLID
  5
647
  8
DRG
  6
CONTINUOUS
 62
     7
 10
26.390819376565261
 20
23.61053820027184
 30
0.0
 11
10.665263297999569
 21
22.390471476161601
 31
0.0
 12
24.97349704072932
 22
21.705690512635009
 32
0.0
 13
24.97349704072932
 23
21.705690512635009
 33
0.0
210
0.0
220
0.0
230
1.0
  0
SOLID
  5
648
  8
DRG
  6
CONTINUOUS
 62
     7
 10
156.18625891463009
 20
23.758749615986972
 30
0.0
 11
142.46860425152479
 21
22.655032455259779
 31
0.0
 12
169.90391110863371
 22
22.655032455259779
 32
0.0
 13
169.90391110863371
 23
22.655032455259779
 33
0.0
210
0.0
220
0.0
230
1.0
  0
SOLID
  5
649
  8
DRG
  6
CONTINUOUS
 62
     7
 10
95.863486513980718
 20
23.758749615986972
 30
0.0
 11
102.1211660476033
 21
23.542010892025001
 31
0.0
 12
111.2523129779601
 22
23.54201089202471
 32
0.0
 13
111.2523129779601
 23
23.54201089202471
 33
0.0
210
0.0
220
0.0
230
1.0
  0
SOLID
  5
64A
  8
DRG
  6
CONTINUOUS
 62
     7
 10
95.863486513980718
 20
23.758749615986972
 30
0.0
 11
82.474422287265327
 21
22.98819641756462
 31
0.0
 12
102.1211660476033
 22
23.542010892025001
 32
0.0
 13
102.1211660476033
 23
23.542010892025001
 33
0.0
210
0.0
220
0.0
230
1.0
  0
SOLID
  5
64B
  8
DRG
  6
CONTINUOUS
 62
     7
 10
59.374510642364612
 20
23.758749615986979
 30
0.0
 11
45.656855979259397
 21
22.655032455259661
 31
0.0
 12
73.092162836368203
 22
22.655032455259779
 32
0.0
 13
73.092162836368203
 23
22.655032455259779
 33
0.0
210
0.0
220
0.0
230
1.0
  0
SOLID
  5
64C
  8
DRG
  6
CONTINUOUS
 62
     7
 10
154.70864190489121
 20
24.052665913474581
 30
0.0
 11
142.46860425152479
 21
22.655032455259779
 31
0.0
 12
156.18625891463009
 22
23.758749615986972
 32
0.0
 13
156.18625891463009
 23
23.758749615986972
 33
0.0
210
0.0
220
0.0
230
1.0
  0
SOLID
  5
64D
  8
DRG
  6
CONTINUOUS
 62
     7
 10
157.66387592436891
 20
24.052665913474581
 30
0.0
 11
156.18625891463009
 21
23.758749615986972
 31
0.0
 12
169.90391110863371
 22
22.655032455259779
 32
0.0
 13
169.90391110863371
 23
22.655032455259779
 33
0.0
210
0.0
220
0.0
230
1.0
  0
SOLID
  5
64E
  8
DRG
  6
CONTINUOUS
 62
     7
 10
57.896893632625734
 20
24.052665913474591
 30
0.0
 11
45.656855979259397
 21
22.655032455259661
 31
0.0
 12
59.374510642364612
 22
23.758749615986979
 32
0.0
 13
59.374510642364612
 23
23.758749615986979
 33
0.0
210
0.0
220
0.0
230
1.0
  0
SOLID
  5
64F
  8
DRG
  6
CONTINUOUS
 62
     7
 10
60.852127652103491
 20
24.052665913474591
 30
0.0
 11
59.374510642364612
 21
23.758749615986979
 31
0.0
 12
73.092162836368203
 22
22.655032455259779
 32
0.0
 13
73.092162836368203
 23
22.655032455259779
 33
0.0
210
0.0
220
0.0
230
1.0
  0
SOLID
  5
650
  8
DRG
  6
CONTINUOUS
 62
     7
 10
94.385869504241896
 20
24.05266591347463
 30
0.0
 11
82.474422287265327
 21
22.98819641756462
 31
0.0
 12
95.863486513980718
 22
23.758749615986972
 32
0.0
 13
95.863486513980718
 23
23.758749615986972
 33
0.0
210
0.0
220
0.0
230
1.0
  0
SOLID
  5
651
  8
DRG
  6
CONTINUOUS
 62
     7
 10
97.67821582604607
 20
24.148284466582719
 30
0.0
 11
95.863486513980718
 21
23.758749615986972
 31
0.0
 12
111.2523129779601
 22
23.54201089202471
 32
0.0
 13
111.2523129779601
 23
23.54201089202471
 33
0.0
210
0.0
220
0.0
230
1.0
  0
SOLID
  5
652
  8
DRG
  6
CONTINUOUS
 62
     7
 10
8.8324468561460741
 20
24.6839201031652
 30
0.0
 11
10.665263297999569
 21
22.390471476161601
 31
0.0
 12
26.390819376565261
 22
23.61053820027184
 32
0.0
 13
26.390819376565261
 23
23.61053820027184
 33
0.0
210
0.0
220
0.0
230
1.0
  0
SOLID
  5
653
  8
DRG
  6
CONTINUOUS
 62
     7
 10
153.45597869025349
 20
24.889668714002799
 30
0.0
 11
142.46860425152479
 21
22.655032455259779
 31
0.0
 12
154.70864190489121
 22
24.052665913474581
 32
0.0
 13
154.70864190489121
 23
24.052665913474581
 33
0.0
210
0.0
220
0.0
230
1.0
  0
SOLID
  5
654
  8
DRG
  6
CONTINUOUS
 62
     7
 10
158.9165391390066
 20
24.889668714002799
 30
0.0
 11
157.66387592436891
 21
24.052665913474581
 31
0.0
 12
169.90391110863371
 22
22.655032455259779
 32
0.0
 13
169.90391110863371
 23
22.655032455259779
 33
0.0
210
0.0
220
0.0
230
1.0
  0
SOLID
  5
655
  8
DRG
  6
CONTINUOUS
 62
     7
 10
56.644230417988048
 20
24.889668714002809
 30
0.0
 11
45.656855979259397
 21
22.655032455259661
 31
0.0
 12
57.896893632625734
 22
24.052665913474591
 32
0.0
 13
57.896893632625734
 23
24.052665913474591
 33
0.0
210
0.0
220
0.0
230
1.0
  0
SOLID
  5
656
  8
DRG
  6
CONTINUOUS
 62
     7
 10
62.104790866741169
 20
24.889668714002809
 30
0.0
 11
60.852127652103491
 21
24.052665913474591
 31
0.0
 12
73.092162836368203
 22
22.655032455259779
 32
0.0
 13
73.092162836368203
 23
22.655032455259779
 33
0.0
210
0.0
220
0.0
230
1.0
  0
SOLID
  5
657
  8
DRG
  6
CONTINUOUS
 62
     7
 10
93.13320628960426
 20
24.889668714002859
 30
0.0
 11
82.474422287265327
 21
22.98819641756462
 31
0.0
 12
94.385869504241896
 22
24.05266591347463
 32
0.0
 13
94.385869504241896
 23
24.05266591347463
 33
0.0
210
0.0
220
0.0
230
1.0
  0
SOLID
  5
658
  8
DRG
  6
CONTINUOUS
 62
     7
 10
99.286329246363479
 20
25.075080616387432
 30
0.0
 11
97.67821582604607
 21
24.148284466582719
 31
0.0
 12
111.2523129779601
 22
23.54201089202471
 32
0.0
 13
111.2523129779601
 23
23.54201089202471
 33
0.0
210
0.0
220
0.0
230
1.0
  0
SOLID
  5
659
  8
DRG
  6
CONTINUOUS
 62
     7
 10
44.769347447906519
 20
25.191386117194551
 30
0.0
 11
45.656855979259397
 21
22.655032455259661
 31
0.0
 12
56.644230417988048
 22
24.889668714002809
 32
0.0
 13
56.644230417988048
 23
24.889668714002809
 33
0.0
210
0.0
220
0.0
230
1.0
  0
SOLID
  5
65A
  8
DRG
  6
CONTINUOUS
 62
     7
 10
170.79141963998649
 20
25.1913861171947
 30
0.0
 11
158.9165391390066
 21
24.889668714002799
 31
0.0
 12
169.90391110863371
 22
22.655032455259779
 32
0.0
 13
169.90391110863371
 23
22.655032455259779
 33
0.0
210
0.0
220
0.0
230
1.0
  0
SOLID
  5
65B
  8
DRG
  6
CONTINUOUS
 62
     7
 10
73.979671367721053
 20
25.1913861171947
 30
0.0
 11
62.104790866741169
 21
24.889668714002809
 31
0.0
 12
73.092162836368203
 22
22.655032455259779
 32
0.0
 13
73.092162836368203
 23
22.655032455259779
 33
0.0
210
0.0
220
0.0
230
1.0
  0
SOLID
  5
65C
  8
DRG
  6
CONTINUOUS
 62
     7
 10
141.5810957201719
 20
25.19138611719471
 30
0.0
 11
142.46860425152479
 21
22.655032455259779
 31
0.0
 12
153.45597869025349
 22
24.889668714002799
 32
0.0
 13
153.45597869025349
 23
24.889668714002799
 33
0.0
  0
SOLID
  5
65D
  8
DRG
  6
CONTINUOUS
 62
     7
 10
81.701646597276806
 20
25.370657593613689
 30
0.0
 11
82.474422287265327
 21
22.98819641756462
 31
0.0
 12
93.13320628960426
 22
24.889668714002859
 32
0.0
 13
93.13320628960426
 23
24.889668714002859
 33
0.0
210
0.0
220
0.0
230
1.0
  0
SOLID
  5
65E
  8
DRG
  6
CONTINUOUS
 62
     7
 10
22.683854862926161
 20
25.455509253088579
 30
0.0
 11
8.8324468561460741
 21
24.6839201031652
 31
0.0
 12
26.390819376565261
 22
23.61053820027184
 32
0.0
 13
26.390819376565261
 23
23.61053820027184
 33
0.0
210
0.0
220
0.0
230
1.0
  0
SOLID
  5
65F
  8
DRG
  6
CONTINUOUS
 62
     7
 10
21.06007747620443
 20
25.668921983045841
 30
0.0
 11
8.8324468561460741
 21
24.6839201031652
 31
0.0
 12
22.683854862926161
 22
25.455509253088579
 32
0.0
 13
22.683854862926161
 23
25.455509253088579
 33
0.0
210
0.0
220
0.0
230
1.0
  0
SOLID
  5
660
  8
DRG
  6
CONTINUOUS
 62
     7
 10
27.267121908897021
 20
25.817196576320061
 30
0.0
 11
22.683854862926161
 21
25.455509253088579
 31
0.0
 12
26.390819376565261
 22
23.61053820027184
 32
0.0
 13
26.390819376565261
 23
23.61053820027184
 33
0.0
210
0.0
220
0.0
230
1.0
  0
SOLID
  5
661
  8
DRG
  6
CONTINUOUS
 62
     7
 10
27.267121908897021
 20
25.817196576320061
 30
0.0
 11
27.267121908897021
 21
13.51984597021351
 31
0.0
 12
37.639779947293839
 22
13.760967175618781
 32
0.0
 13
37.639779947293839
 23
13.760967175618781
 33
0.0
  0
SOLID
  5
662
  8
DRG
  6
CONTINUOUS
 62
     7
 10
152.61897588972531
 20
26.14233192864048
 30
0.0
 11
141.5810957201719
 21
25.19138611719471
 31
0.0
 12
153.45597869025349
 22
24.889668714002799
 32
0.0
 13
153.45597869025349
 23
24.889668714002799
 33
0.0
210
0.0
220
0.0
230
1.0
  0
SOLID
  5
663
  8
DRG
  6
CONTINUOUS
 62
     7
 10
159.7535419395349
 20
26.14233192864048
 30
0.0
 11
158.9165391390066
 21
24.889668714002799
 31
0.0
 12
170.79141963998649
 22
25.1913861171947
 32
0.0
 13
170.79141963998649
 23
25.1913861171947
 33
0.0
210
0.0
220
0.0
230
1.0
  0
SOLID
  5
664
  8
DRG
  6
CONTINUOUS
 62
     7
 10
55.80722761745983
 20
26.142331928640491
 30
0.0
 11
44.769347447906519
 21
25.191386117194551
 31
0.0
 12
56.644230417988048
 22
24.889668714002809
 32
0.0
 13
56.644230417988048
 23
24.889668714002809
 33
0.0
210
0.0
220
0.0
230
1.0
  0
SOLID
  5
665
  8
DRG
  6
CONTINUOUS
 62
     7
 10
62.941793667269401
 20
26.142331928640491
 30
0.0
 11
62.104790866741169
 21
24.889668714002809
 31
0.0
 12
73.979671367721053
 22
25.1913861171947
 32
0.0
 13
73.979671367721053
 23
25.1913861171947
 33
0.0
210
0.0
220
0.0
230
1.0
  0
SOLID
  5
666
  8
DRG
  6
CONTINUOUS
 62
     7
 10
92.296203489076092
 20
26.14233192864052
 30
0.0
 11
81.701646597276806
 21
25.370657593613689
 31
0.0
 12
93.13320628960426
 22
24.889668714002859
 32
0.0
 13
93.13320628960426
 23
24.889668714002859
 33
0.0
210
0.0
220
0.0
230
1.0
  0
SOLID
  5
667
  8
DRG
  6
CONTINUOUS
 62
     7
 10
19.578817635304372
 20
26.367540103819518
 30
0.0
 11
8.8324468561460741
 21
24.6839201031652
 31
0.0
 12
21.06007747620443
 22
25.668921983045841
 32
0.0
 13
21.06007747620443
 23
25.668921983045841
 33
0.0
210
0.0
220
0.0
230
1.0
  0
SOLID
  5
668
  8
DRG
  6
CONTINUOUS
 62
     7
 10
24.679246464695101
 20
26.372355404399901
 30
0.0
 11
22.683854862926161
 21
25.455509253088579
 31
0.0
 12
27.267121908897021
 22
25.817196576320061
 32
0.0
 13
27.267121908897021
 23
25.817196576320061
 33
0.0
210
0.0
220
0.0
230
1.0
  0
SOLID
  5
669
  8
DRG
  6
CONTINUOUS
 62
     7
 10
100.5331576485324
 20
26.449998363542679
 30
0.0
 11
99.286329246363479
 21
25.075080616387432
 31
0.0
 12
111.2523129779601
 22
23.54201089202471
 32
0.0
 13
111.2523129779601
 23
23.54201089202471
 33
0.0
  0
SOLID
  5
66A
  8
DRG
  6
CONTINUOUS
 62
     7
 10
7.6055113962037586
 20
27.351081907662518
 30
0.0
 11
8.8324468561460741
 21
24.6839201031652
 31
0.0
 12
19.578817635304372
 22
26.367540103819518
 32
0.0
 13
19.578817635304372
 23
26.367540103819518
 33
0.0
210
0.0
220
0.0
230
1.0
  0
SOLID
  5
66B
  8
DRG
  6
CONTINUOUS
 62
     7
 10
18.3813068076863
 20
27.48475351793256
 30
0.0
 11
7.6055113962037586
 21
27.351081907662518
 31
0.0
 12
19.578817635304372
 22
26.367540103819518
 32
0.0
 13
19.578817635304372
 23
26.367540103819518
 33
0.0
  0
SOLID
  5
66C
  8
DRG
  6
CONTINUOUS
 62
     7
 10
152.32505959223769
 20
27.619948938379359
 30
0.0
 11
141.5810957201719
 21
25.19138611719471
 31
0.0
 12
152.61897588972531
 22
26.14233192864048
 32
0.0
 13
152.61897588972531
 23
26.14233192864048
 33
0.0
210
0.0
220
0.0
230
1.0
  0
SOLID
  5
66D
  8
DRG
  6
CONTINUOUS
 62
     7
 10
92.002287191588479
 20
27.619948938379359
 30
0.0
 11
81.701646597276806
 21
25.370657593613689
 31
0.0
 12
92.296203489076092
 22
26.14233192864052
 32
0.0
 13
92.296203489076092
 23
26.14233192864052
 33
0.0
210
0.0
220
0.0
230
1.0
  0
SOLID
  5
66E
  8
DRG
  6
CONTINUOUS
 62
     7
 10
160.04745823702251
 20
27.619948938379359
 30
0.0
 11
159.7535419395349
 21
26.14233192864048
 31
0.0
 12
170.79141963998649
 22
25.1913861171947
 32
0.0
 13
170.79141963998649
 23
25.1913861171947
 33
0.0
210
0.0
220
0.0
230
1.0
  0
SOLID
  5
66F
  8
DRG
  6
CONTINUOUS
 62
     7
 10
55.513311319972217
 20
27.61994893837937
 30
0.0
 11
44.769347447906519
 21
25.191386117194551
 31
0.0
 12
55.80722761745983
 22
26.142331928640491
 32
0.0
 13
55.80722761745983
 23
26.142331928640491
 33
0.0
210
0.0
220
0.0
230
1.0
  0
SOLID
  5
670
  8
DRG
  6
CONTINUOUS
 62
     7
 10
63.235709964757007
 20
27.61994893837937
 30
0.0
 11
62.941793667269401
 21
26.142331928640491
 31
0.0
 12
73.979671367721053
 22
25.1913861171947
 32
0.0
 13
73.979671367721053
 23
25.1913861171947
 33
0.0
210
0.0
220
0.0
230
1.0
  0
SOLID
  5
671
  8
DRG
  6
CONTINUOUS
 62
     7
 10
44.468482394088362
 20
27.861637324670291
 30
0.0
 11
44.769347447906519
 21
25.191386117194551
 31
0.0
 12
55.513311319972217
 22
27.61994893837937
 32
0.0
 13
55.513311319972217
 23
27.61994893837937
 33
0.0
210
0.0
220
0.0
230
1.0
  0
SOLID
  5
672
  8
DRG
  6
CONTINUOUS
 62
     7
 10
171.0922846938046
 20
27.861637324670479
 30
0.0
 11
160.04745823702251
 21
27.619948938379359
 31
0.0
 12
170.79141963998649
 22
25.1913861171947
 32
0.0
 13
170.79141963998649
 23
25.1913861171947
 33
0.0
  0
SOLID
  5
673
  8
DRG
  6
CONTINUOUS
 62
     7
 10
74.280536421539182
 20
27.861637324670479
 30
0.0
 11
63.235709964757007
 21
27.61994893837937
 31
0.0
 12
73.979671367721053
 22
25.1913861171947
 32
0.0
 13
73.979671367721053
 23
25.1913861171947
 33
0.0
210
0.0
220
0.0
230
1.0
  0
SOLID
  5
674
  8
DRG
  6
CONTINUOUS
 62
     7
 10
81.440258950509346
 20
27.861637324670479
 30
0.0
 11
81.701646597276806
 21
25.370657593613689
 31
0.0
 12
92.002287191588479
 22
27.619948938379359
 32
0.0
 13
92.002287191588479
 23
27.619948938379359
 33
0.0
210
0.0
220
0.0
230
1.0
  0
SOLID
  5
675
  8
DRG
  6
CONTINUOUS
 62
     7
 10
141.28023066635379
 20
27.861637324670479
 30
0.0
 11
141.5810957201719
 21
25.19138611719471
 31
0.0
 12
152.32505959223769
 22
27.619948938379359
 32
0.0
 13
152.32505959223769
 23
27.619948938379359
 33
0.0
  0
SOLID
  5
676
  8
DRG
  6
CONTINUOUS
 62
     7
 10
26.241246459003619
 20
27.915841888747771
 30
0.0
 11
24.679246464695101
 21
26.372355404399901
 31
0.0
 12
27.267121908897021
 22
25.817196576320061
 32
0.0
 13
27.267121908897021
 23
25.817196576320061
 33
0.0
210
0.0
220
0.0
230
1.0
  0
SOLID
  5
677
  8
DRG
  6
CONTINUOUS
 62
     7
 10
26.241246459003619
 20
27.915841888747771
 30
0.0
 11
27.267121908897021
 21
25.817196576320061
 31
0.0
 12
37.639779947293839
 22
13.760967175618781
 32
0.0
 13
37.639779947293839
 23
13.760967175618781
 33
0.0
210
0.0
220
0.0
230
1.0
  0
SOLID
  5
678
  8
DRG
  6
CONTINUOUS
 62
     7
 10
101.2987804739044
 20
28.140797454259019
 30
0.0
 11
100.5331576485324
 21
26.449998363542679
 31
0.0
 12
111.2523129779601
 22
23.54201089202471
 32
0.0
 13
111.2523129779601
 23
23.54201089202471
 33
0.0
210
0.0
220
0.0
230
1.0
  0
SOLID
  5
679
  8
DRG
  6
CONTINUOUS
 62
     7
 10
17.581722267866311
 20
28.914040948303899
 30
0.0
 11
7.6055113962037586
 21
27.351081907662518
 31
0.0
 12
18.3813068076863
 22
27.48475351793256
 32
0.0
 13
18.3813068076863
 23
27.48475351793256
 33
0.0
210
0.0
220
0.0
230
1.0
  0
SOLID
  5
67A
  8
DRG
  6
CONTINUOUS
 62
     7
 10
160.04745823702251
 20
29.300230626583549
 30
0.0
 11
160.04745823702251
 21
27.619948938379359
 31
0.0
 12
171.0922846938046
 22
27.861637324670479
 32
0.0
 13
171.0922846938046
 23
27.861637324670479
 33
0.0
210
0.0
220
0.0
230
1.0
  0
SOLID
  5
67B
  8
DRG
  6
CONTINUOUS
 62
     7
 10
27.181817847379151
 20
29.900160404751109
 30
0.0
 11
26.241246459003619
 21
27.915841888747771
 31
0.0
 12
37.639779947293839
 22
13.760967175618781
 32
0.0
 13
37.639779947293839
 23
13.760967175618781
 33
0.0
210
0.0
220
0.0
230
1.0
  0
SOLID
  5
67C
  8
DRG
  6
CONTINUOUS
 62
     7
 10
152.32505959223769
 20
29.959298931438969
 30
0.0
 11
141.28023066635379
 21
27.861637324670479
 31
0.0
 12
152.32505959223769
 22
27.619948938379359
 32
0.0
 13
152.32505959223769
 23
27.619948938379359
 33
0.0
210
0.0
220
0.0
230
1.0
  0
SOLID
  5
67D
  8
DRG
  6
CONTINUOUS
 62
     7
 10
141.28023066635379
 20
29.95929893143898
 30
0.0
 11
141.28023066635379
 21
27.861637324670479
 31
0.0
 12
152.32505959223769
 22
29.959298931438969
 32
0.0
 13
152.32505959223769
 23
29.959298931438969
 33
0.0
210
0.0
220
0.0
230
1.0
  0
SOLID
  5
67E
  8
DRG
  6
CONTINUOUS
 62
     7
 10
171.0922846938046
 20
29.95929893143904
 30
0.0
 11
160.04745823702251
 21
29.300230626583549
 31
0.0
 12
171.0922846938046
 22
27.861637324670479
 32
0.0
 13
171.0922846938046
 23
27.861637324670479
 33
0.0
210
0.0
220
0.0
230
1.0
  0
SOLID
  5
67F
  8
DRG
  6
CONTINUOUS
 62
     7
 10
101.5095597489034
 20
29.984856014372749
 30
0.0
 11
101.2987804739044
 21
28.140797454259019
 31
0.0
 12
111.2523129779601
 22
23.54201089202471
 32
0.0
 13
111.2523129779601
 23
23.54201089202471
 33
0.0
210
0.0
220
0.0
230
1.0
  0
SOLID
  5
680
  8
DRG
  6
CONTINUOUS
 62
     7
 10
7.0565934473582743
 20
30.23514359210488
 30
0.0
 11
7.6055113962037586
 21
27.351081907662518
 31
0.0
 12
17.581722267866311
 22
28.914040948303899
 32
0.0
 13
17.581722267866311
 23
28.914040948303899
 33
0.0
210
0.0
220
0.0
230
1.0
  0
SOLID
  5
681
  8
DRG
  6
CONTINUOUS
 62
     7
 10
17.256300807526252
 20
30.5191262631974
 30
0.0
 11
7.0565934473582743
 21
30.23514359210488
 31
0.0
 12
17.581722267866311
 22
28.914040948303899
 32
0.0
 13
17.581722267866311
 23
28.914040948303899
 33
0.0
210
0.0
220
0.0
230
1.0
  0
SOLID
  5
682
  8
DRG
  6
CONTINUOUS
 62
     7
 10
63.235709964757
 20
30.81688778835381
 30
0.0
 11
63.235709964757007
 21
27.61994893837937
 31
0.0
 12
74.280536421539182
 22
27.861637324670479
 32
0.0
 13
74.280536421539182
 23
27.861637324670479
 33
0.0
210
0.0
220
0.0
230
1.0
  0
SOLID
  5
683
  8
DRG
  6
CONTINUOUS
 62
     7
 10
74.280536421539196
 20
30.816887788353831
 30
0.0
 11
63.235709964757
 21
30.81688778835381
 31
0.0
 12
74.280536421539182
 22
27.861637324670479
 32
0.0
 13
74.280536421539182
 23
27.861637324670479
 33
0.0
210
0.0
220
0.0
230
1.0
  0
SOLID
  5
684
  8
DRG
  6
CONTINUOUS
 62
     7
 10
159.01581968400799
 20
30.996563617445211
 30
0.0
 11
160.04745823702251
 21
29.300230626583549
 31
0.0
 12
171.0922846938046
 22
29.95929893143904
 32
0.0
 13
171.0922846938046
 23
29.95929893143904
 33
0.0
210
0.0
220
0.0
230
1.0
  0
SOLID
  5
685
  8
DRG
  6
CONTINUOUS
 62
     7
 10
27.387732575171409
 20
32.086434320449378
 30
0.0
 11
27.181817847379151
 21
29.900160404751109
 31
0.0
 12
37.639779947293839
 22
13.760967175618781
 32
0.0
 13
37.639779947293839
 23
13.760967175618781
 33
0.0
210
0.0
220
0.0
230
1.0
  0
SOLID
  5
686
  8
DRG
  6
CONTINUOUS
 62
     7
 10
157.53297815821909
 20
32.316792661720299
 30
0.0
 11
159.01581968400799
 21
30.996563617445211
 31
0.0
 12
171.0922846938046
 22
29.95929893143904
 32
0.0
 13
171.0922846938046
 23
29.95929893143904
 33
0.0
210
0.0
220
0.0
230
1.0
  0
SOLID
  5
687
  8
DRG
  6
CONTINUOUS
 62
     7
 10
81.440258950509346
 20
32.349374231810209
 30
0.0
 11
81.440258950509346
 21
27.861637324670479
 31
0.0
 12
92.002287191588479
 22
27.619948938379359
 32
0.0
 13
92.002287191588479
 23
27.619948938379359
 33
0.0
210
0.0
220
0.0
230
1.0
  0
SOLID
  5
688
  8
DRG
  6
CONTINUOUS
 62
     7
 10
170.47732661026529
 20
32.356132664391282
 30
0.0
 11
157.53297815821909
 21
32.316792661720299
 31
0.0
 12
171.0922846938046
 22
29.95929893143904
 32
0.0
 13
171.0922846938046
 23
29.95929893143904
 33
0.0
210
0.0
220
0.0
230
1.0
  0
SOLID
  5
689
  8
DRG
  6
CONTINUOUS
 62
     7
 10
92.002287191588479
 20
33.041326503689838
 30
0.0
 11
81.440258950509346
 21
32.349374231810209
 31
0.0
 12
92.002287191588479
 22
27.619948938379359
 32
0.0
 13
92.002287191588479
 23
27.619948938379359
 33
0.0
210
0.0
220
0.0
230
1.0
  0
SOLID
  5
68A
  8
DRG
  6
CONTINUOUS
 62
     7
 10
155.72873071743231
 20
33.145354604103439
 30
0.0
 11
157.53297815821909
 21
32.316792661720299
 31
0.0
 12
170.47732661026529
 22
32.356132664391282
 32
0.0
 13
170.47732661026529
 23
32.356132664391282
 33
0.0
210
0.0
220
0.0
230
1.0
  0
SOLID
  5
68B
  8
DRG
  6
CONTINUOUS
 62
     7
 10
152.4516822959568
 20
34.180717875305689
 30
0.0
 11
155.72873071743231
 21
33.145354604103439
 31
0.0
 12
170.47732661026529
 22
32.356132664391282
 32
0.0
 13
170.47732661026529
 23
32.356132664391282
 33
0.0
210
0.0
220
0.0
230
1.0
  0
SOLID
  5
68C
  8
DRG
  6
CONTINUOUS
 62
     7
 10
169.3838362766385
 20
34.575876856453249
 30
0.0
 11
152.4516822959568
 21
34.180717875305689
 31
0.0
 12
170.47732661026529
 22
32.356132664391282
 32
0.0
 13
170.47732661026529
 23
32.356132664391282
 33
0.0
210
0.0
220
0.0
230
1.0
  0
SOLID
  5
68D
  8
DRG
  6
CONTINUOUS
 62
     7
 10
92.821309573647781
 20
34.855023452224977
 30
0.0
 11
81.440258950509346
 21
32.349374231810209
 31
0.0
 12
92.002287191588479
 22
33.041326503689838
 32
0.0
 13
92.002287191588479
 23
33.041326503689838
 33
0.0
210
0.0
220
0.0
230
1.0
  0
SOLID
  5
68E
  8
DRG
  6
CONTINUOUS
 62
     7
 10
82.124565023344857
 20
35.167915353955507
 30
0.0
 11
81.440258950509346
 21
32.349374231810209
 31
0.0
 12
92.821309573647781
 22
34.855023452224977
 32
0.0
 13
92.821309573647781
 23
34.855023452224977
 33
0.0
210
0.0
220
0.0
230
1.0
  0
SOLID
  5
68F
  8
DRG
  6
CONTINUOUS
 62
     7
 10
55.513311319972232
 20
35.629722934820848
 30
0.0
 11
44.468482394088362
 21
27.861637324670291
 31
0.0
 12
55.513311319972217
 22
27.61994893837937
 32
0.0
 13
55.513311319972217
 23
27.61994893837937
 33
0.0
210
0.0
220
0.0
230
1.0
  0
SOLID
  5
690
  8
DRG
  6
CONTINUOUS
 62
     7
 10
149.39175196581581
 20
35.745278463692301
 30
0.0
 11
152.4516822959568
 21
34.180717875305689
 31
0.0
 12
169.3838362766385
 22
34.575876856453249
 32
0.0
 13
169.3838362766385
 23
34.575876856453249
 33
0.0
  0
SOLID
  5
691
  8
DRG
  6
CONTINUOUS
 62
     7
 10
94.205364320613299
 20
36.284948884141627
 30
0.0
 11
82.124565023344857
 21
35.167915353955507
 31
0.0
 12
92.821309573647781
 22
34.855023452224977
 32
0.0
 13
92.821309573647781
 23
34.855023452224977
 33
0.0
210
0.0
220
0.0
230
1.0
  0
SOLID
  5
692
  8
DRG
  6
CONTINUOUS
 62
     7
 10
44.169020821240288
 20
36.461122307958632
 30
0.0
 11
55.513311319972232
 21
35.629722934820848
 31
0.0
 12
74.280536421539182
 22
35.629722934820848
 32
0.0
 13
74.280536421539182
 23
35.629722934820848
 33
0.0
210
0.0
220
0.0
230
1.0
  0
SOLID
  5
693
  8
DRG
  6
CONTINUOUS
 62
     7
 10
44.169020821240288
 20
36.461122307958632
 30
0.0
 11
44.468482394088362
 21
27.861637324670291
 31
0.0
 12
55.513311319972232
 22
35.629722934820848
 32
0.0
 13
55.513311319972232
 23
35.629722934820848
 33
0.0
210
0.0
220
0.0
230
1.0
  0
SOLID
  5
694
  8
DRG
  6
CONTINUOUS
 62
     7
 10
167.85830970219251
 20
36.524146360035118
 30
0.0
 11
149.39175196581581
 21
35.745278463692301
 31
0.0
 12
169.3838362766385
 22
34.575876856453249
 32
0.0
 13
169.3838362766385
 23
34.575876856453249
 33
0.0
  0
SOLID
  5
695
  8
DRG
  6
CONTINUOUS
 62
     7
 10
95.991402974049976
 20
37.162650548643818
 30
0.0
 11
82.124565023344857
 21
35.167915353955507
 31
0.0
 12
94.205364320613299
 22
36.284948884141627
 32
0.0
 13
94.205364320613299
 23
36.284948884141627
 33
0.0
210
0.0
220
0.0
230
1.0
  0
SOLID
  5
696
  8
DRG
  6
CONTINUOUS
 62
     7
 10
101.5095597489034
 20
37.384730871555568
 30
0.0
 11
101.5095597489034
 21
29.984856014372749
 31
0.0
 12
111.2523129779601
 22
23.54201089202471
 32
0.0
 13
111.2523129779601
 23
23.54201089202471
 33
0.0
210
0.0
220
0.0
230
1.0
  0
SOLID
  5
697
  8
DRG
  6
CONTINUOUS
 62
     7
 10
83.465136107217845
 20
37.739941408961009
 30
0.0
 11
95.991402974049976
 21
37.162650548643818
 31
0.0
 12
97.969021393668683
 22
37.384730871555568
 32
0.0
 13
97.969021393668683
 23
37.384730871555568
 33
0.0
210
0.0
220
0.0
230
1.0
  0
SOLID
  5
698
  8
DRG
  6
CONTINUOUS
 62
     7
 10
83.465136107217845
 20
37.739941408961009
 30
0.0
 11
82.124565023344857
 21
35.167915353955507
 31
0.0
 12
95.991402974049976
 22
37.162650548643818
 32
0.0
 13
95.991402974049976
 23
37.162650548643818
 33
0.0
210
0.0
220
0.0
230
1.0
  0
SOLID
  5
699
  8
DRG
  6
CONTINUOUS
 62
     7
 10
146.63370620049619
 20
37.795694766898073
 30
0.0
 11
149.39175196581581
 21
35.745278463692301
 31
0.0
 12
167.85830970219251
 22
36.524146360035118
 32
0.0
 13
167.85830970219251
 23
36.524146360035118
 33
0.0
210
0.0
220
0.0
230
1.0
  0
SOLID
  5
69A
  8
DRG
  6
CONTINUOUS
 62
     7
 10
165.96561339334559
 20
38.118099329982897
 30
0.0
 11
146.63370620049619
 21
37.795694766898073
 31
0.0
 12
167.85830970219251
 22
36.524146360035118
 32
0.0
 13
167.85830970219251
 23
36.524146360035118
 33
0.0
210
0.0
220
0.0
230
1.0
  0
SOLID
  5
69B
  8
DRG
  6
CONTINUOUS
 62
     7
 10
6.7865631049779154
 20
38.202265524009427
 30
0.0
 11
7.0565934473582743
 21
30.23514359210488
 31
0.0
 12
17.256300807526252
 22
30.5191262631974
 32
0.0
 13
17.256300807526252
 23
30.5191262631974
 33
0.0
210
0.0
220
0.0
230
1.0
  0
SOLID
  5
69C
  8
DRG
  6
CONTINUOUS
 62
     7
 10
163.78622618233979
 20
39.289959719462992
 30
0.0
 11
146.63370620049619
 21
37.795694766898073
 31
0.0
 12
165.96561339334559
 22
38.118099329982897
 32
0.0
 13
165.96561339334559
 23
38.118099329982897
 33
0.0
210
0.0
220
0.0
230
1.0
  0
SOLID
  5
69D
  8
DRG
  6
CONTINUOUS
 62
     7
 10
85.383656329320502
 20
39.915195190919967
 30
0.0
 11
83.465136107217845
 21
37.739941408961009
 31
0.0
 12
97.969021393668683
 22
37.384730871555568
 32
0.0
 13
97.969021393668683
 23
37.384730871555568
 33
0.0
210
0.0
220
0.0
230
1.0
  0
SOLID
  5
69E
  8
DRG
  6
CONTINUOUS
 62
     7
 10
85.383656329320502
 20
39.915195190919967
 30
0.0
 11
97.969021393668683
 21
37.384730871555568
 31
0.0
 12
101.5095597489034
 22
37.384730871555568
 32
0.0
 13
101.5095597489034
 23
37.384730871555568
 33
0.0
210
0.0
220
0.0
230
1.0
  0
SOLID
  5
69F
  8
DRG
  6
CONTINUOUS
 62
     7
 10
161.4128172083947
 20
39.98989916707626
 30
0.0
 11
146.63370620049619
 21
37.795694766898073
 31
0.0
 12
163.78622618233979
 22
39.289959719462992
 32
0.0
 13
163.78622618233979
 23
39.289959719462992
 33
0.0
210
0.0
220
0.0
230
1.0
  0
SOLID
  5
6A0
  8
DRG
  6
CONTINUOUS
 62
     7
 10
144.25394863930259
 20
40.275165962534743
 30
0.0
 11
146.63370620049619
 21
37.795694766898073
 31
0.0
 12
161.4128172083947
 22
39.98989916707626
 32
0.0
 13
161.4128172083947
 23
39.98989916707626
 33
0.0
  0
SOLID
  5
6A1
  8
DRG
  6
CONTINUOUS
 62
     7
 10
127.2345352189994
 20
40.740104065808097
 30
0.0
 11
116.19314081319391
 21
17.28637227261407
 31
0.0
 12
127.2345352189994
 22
17.28637227261407
 32
0.0
 13
127.2345352189994
 23
17.28637227261407
 33
0.0
210
0.0
220
0.0
230
1.0
  0
SOLID
  5
6A2
  8
DRG
  6
CONTINUOUS
 62
     7
 10
158.4712923481795
 20
40.965125441240623
 30
0.0
 11
144.25394863930259
 21
40.275165962534743
 31
0.0
 12
161.4128172083947
 22
39.98989916707626
 32
0.0
 13
161.4128172083947
 23
39.98989916707626
 33
0.0
210
0.0
220
0.0
230
1.0
  0
SOLID
  5
6A3
  8
DRG
  6
CONTINUOUS
 62
     7
 10
87.768046153177011
 20
41.566598844310953
 30
0.0
 11
85.383656329320502
 21
39.915195190919967
 31
0.0
 12
101.5095597489034
 22
37.384730871555568
 32
0.0
 13
101.5095597489034
 23
37.384730871555568
 33
0.0
210
0.0
220
0.0
230
1.0
  0
SOLID
  5
6A4
  8
DRG
  6
CONTINUOUS
 62
     7
 10
55.51331131997221
 20
41.923431282527638
 30
0.0
 11
44.169020821240288
 21
36.461122307958632
 31
0.0
 12
74.280536421539182
 22
35.629722934820848
 32
0.0
 13
74.280536421539182
 23
35.629722934820848
 33
0.0
210
0.0
220
0.0
230
1.0
  0
SOLID
  5
6A5
  8
DRG
  6
CONTINUOUS
 62
     7
 10
63.235709964756971
 20
41.923431282527652
 30
0.0
 11
55.51331131997221
 21
41.923431282527638
 31
0.0
 12
74.280536421539182
 22
35.629722934820848
 32
0.0
 13
74.280536421539182
 23
35.629722934820848
 33
0.0
210
0.0
220
0.0
230
1.0
  0
SOLID
  5
6A6
  8
DRG
  6
CONTINUOUS
 62
     7
 10
155.7899070018324
 20
42.518768712226482
 30
0.0
 11
144.25394863930259
 21
40.275165962534743
 31
0.0
 12
158.4712923481795
 22
40.965125441240623
 32
0.0
 13
158.4712923481795
 23
40.965125441240623
 33
0.0
210
0.0
220
0.0
230
1.0
  0
SOLID
  5
6A7
  8
DRG
  6
CONTINUOUS
 62
     7
 10
90.479010040926084
 20
42.597677724835599
 30
0.0
 11
87.768046153177011
 21
41.566598844310953
 31
0.0
 12
101.5095597489034
 22
37.384730871555568
 32
0.0
 13
101.5095597489034
 23
37.384730871555568
 33
0.0
210
0.0
220
0.0
230
1.0
  0
SOLID
  5
6A8
  8
DRG
  6
CONTINUOUS
 62
     7
 10
127.5071286086868
 20
42.810656426628263
 30
0.0
 11
116.19314081319391
 21
17.28637227261407
 31
0.0
 12
127.2345352189994
 22
40.740104065808097
 32
0.0
 13
127.2345352189994
 23
40.740104065808097
 33
0.0
  0
SOLID
  5
6A9
  8
DRG
  6
CONTINUOUS
 62
     7
 10
93.358174068518778
 20
42.948196427274922
 30
0.0
 11
90.479010040926084
 21
42.597677724835599
 31
0.0
 12
101.5095597489034
 22
37.384730871555568
 32
0.0
 13
101.5095597489034
 23
37.384730871555568
 33
0.0
210
0.0
220
0.0
230
1.0
  0
SOLID
  5
6AA
  8
DRG
  6
CONTINUOUS
 62
     7
 10
101.5095597489034
 20
37.384730871555568
 30
0.0
 11
100.207486521178
 21
42.948196427274922
 31
0.0
 12
93.358174068518778
 22
42.948196427274922
 32
0.0
 13
93.358174068518778
 23
42.948196427274922
 33
0.0
  0
SOLID
  5
6AB
  8
DRG
  6
CONTINUOUS
 62
     7
 10
100.207486521178
 20
42.948196427274922
 30
0.0
 11
101.5095597489034
 21
37.384730871555568
 31
0.0
 12
111.2523129779601
 22
23.54201089202471
 32
0.0
 13
111.2523129779601
 23
23.54201089202471
 33
0.0
  0
SOLID
  5
6AC
  8
DRG
  6
CONTINUOUS
 62
     7
 10
142.3184035466634
 20
43.11500550983493
 30
0.0
 11
144.25394863930259
 21
40.275165962534743
 31
0.0
 12
155.7899070018324
 22
42.518768712226482
 32
0.0
 13
155.7899070018324
 23
42.518768712226482
 33
0.0
210
0.0
220
0.0
230
1.0
  0
SOLID
  5
6AD
  8
DRG
  6
CONTINUOUS
 62
     7
 10
153.4809683549079
 20
44.585756161105429
 30
0.0
 11
142.3184035466634
 21
43.11500550983493
 31
0.0
 12
155.7899070018324
 22
42.518768712226482
 32
0.0
 13
155.7899070018324
 23
42.518768712226482
 33
0.0
210
0.0
220
0.0
230
1.0
  0
SOLID
  5
6AE
  8
DRG
  6
CONTINUOUS
 62
     7
 10
128.30633198872391
 20
44.740104065808097
 30
0.0
 11
116.19314081319391
 21
17.28637227261407
 31
0.0
 12
127.5071286086868
 22
42.810656426628263
 32
0.0
 13
127.5071286086868
 23
42.810656426628263
 33
0.0
210
0.0
220
0.0
230
1.0
  0
SOLID
  5
6AF
  8
DRG
  6
CONTINUOUS
 62
     7
 10
27.387732575171409
 20
44.745475926535612
 30
0.0
 11
27.387732575171409
 21
32.086434320449378
 31
0.0
 12
37.639779947293839
 22
13.760967175618781
 32
0.0
 13
37.639779947293839
 23
13.760967175618781
 33
0.0
210
0.0
220
0.0
230
1.0
  0
SOLID
  5
6B0
  8
DRG
  6
CONTINUOUS
 62
     7
 10
141.68103748780231
 20
44.96578368522475
 30
0.0
 11
142.3184035466634
 21
43.11500550983493
 31
0.0
 12
153.4809683549079
 22
44.585756161105429
 32
0.0
 13
153.4809683549079
 23
44.585756161105429
 33
0.0
210
0.0
220
0.0
230
1.0
  0
SOLID
  5
6B1
  8
DRG
  6
CONTINUOUS
 62
     7
 10
111.2523129779601
 20
45.06060729124669
 30
0.0
 11
100.207486521178
 21
42.948196427274922
 31
0.0
 12
111.2523129779601
 22
23.54201089202471
 32
0.0
 13
111.2523129779601
 23
23.54201089202471
 33
0.0
  0
SOLID
  5
6B2
  8
DRG
  6
CONTINUOUS
 62
     7
 10
74.280536421539182
 20
45.06060729124669
 30
0.0
 11
63.235709964756971
 21
41.923431282527652
 31
0.0
 12
74.280536421539182
 22
35.629722934820848
 32
0.0
 13
74.280536421539182
 23
35.629722934820848
 33
0.0
  0
SOLID
  5
6B3
  8
DRG
  6
CONTINUOUS
 62
     7
 10
44.468482394088362
 20
45.06060729124696
 30
0.0
 11
44.169020821240288
 21
36.461122307958632
 31
0.0
 12
55.51331131997221
 22
41.923431282527638
 32
0.0
 13
55.51331131997221
 23
41.923431282527638
 33
0.0
210
0.0
220
0.0
230
1.0
  0
SOLID
  5
6B4
  8
DRG
  6
CONTINUOUS
 62
     7
 10
152.7676036732239
 20
45.45462446566345
 30
0.0
 11
141.68103748780231
 21
44.96578368522475
 31
0.0
 12
153.4809683549079
 22
44.585756161105429
 32
0.0
 13
153.4809683549079
 23
44.585756161105429
 33
0.0
  0
SOLID
  5
6B5
  8
DRG
  6
CONTINUOUS
 62
     7
 10
7.0305774038875759
 20
46.17022669896302
 30
0.0
 11
6.7865631049779154
 21
38.202265524009427
 31
0.0
 12
17.256300807526252
 22
30.5191262631974
 32
0.0
 13
17.256300807526252
 23
30.5191262631974
 33
0.0
  0
SOLID
  5
6B6
  8
DRG
  6
CONTINUOUS
 62
     7
 10
17.256300807526252
 20
46.312783983787632
 30
0.0
 11
7.0305774038875759
 21
46.17022669896302
 31
0.0
 12
17.256300807526252
 22
30.5191262631974
 32
0.0
 13
17.256300807526252
 23
30.5191262631974
 33
0.0
210
0.0
220
0.0
230
1.0
  0
SOLID
  5
6B7
  8
DRG
  6
CONTINUOUS
 62
     7
 10
160.04745823702251
 20
46.421288526219293
 30
0.0
 11
160.04745823702251
 21
45.21828747592599
 31
0.0
 12
171.0912486890569
 22
45.21828747592599
 32
0.0
 13
171.0912486890569
 23
45.21828747592599
 33
0.0
210
0.0
220
0.0
230
1.0
  0
SOLID
  5
6B8
  8
DRG
  6
CONTINUOUS
 62
     7
 10
152.43266305936851
 20
46.527767552548831
 30
0.0
 11
141.68103748780231
 21
44.96578368522475
 31
0.0
 12
152.7676036732239
 22
45.45462446566345
 32
0.0
 13
152.7676036732239
 23
45.45462446566345
 33
0.0
210
0.0
220
0.0
230
1.0
  0
SOLID
  5
6B9
  8
DRG
  6
CONTINUOUS
 62
     7
 10
63.235709964757007
 20
46.690614073903127
 30
0.0
 11
63.235709964756971
 21
41.923431282527652
 31
0.0
 12
74.280536421539182
 22
45.06060729124669
 32
0.0
 13
74.280536421539182
 23
45.06060729124669
 33
0.0
210
0.0
220
0.0
230
1.0
  0
SOLID
  5
6BA
  8
DRG
  6
CONTINUOUS
 62
     7
 10
55.513311319972217
 20
46.690614073903141
 30
0.0
 11
44.468482394088362
 21
45.06060729124696
 31
0.0
 12
55.51331131997221
 22
41.923431282527638
 32
0.0
 13
55.51331131997221
 23
41.923431282527638
 33
0.0
210
0.0
220
0.0
230
1.0
  0
SOLID
  5
6BB
  8
DRG
  6
CONTINUOUS
 62
     7
 10
141.53564323306159
 20
46.917827705777547
 30
0.0
 11
141.68103748780231
 21
44.96578368522475
 31
0.0
 12
152.43266305936851
 22
46.527767552548831
 32
0.0
 13
152.43266305936851
 23
46.527767552548831
 33
0.0
  0
SOLID
  5
6BC
  8
DRG
  6
CONTINUOUS
 62
     7
 10
27.181817847379161
 20
46.931749842233849
 30
0.0
 11
27.387732575171409
 21
44.745475926535612
 31
0.0
 12
37.639779947293839
 22
13.760967175618781
 32
0.0
 13
37.639779947293839
 23
13.760967175618781
 33
0.0
210
0.0
220
0.0
230
1.0
  0
SOLID
  5
6BD
  8
DRG
  6
CONTINUOUS
 62
     7
 10
92.485087876393209
 20
47.313129977668268
 30
0.0
 11
81.470405744524527
 21
45.910674481046733
 31
0.0
 12
92.485087876393209
 22
45.910674481046733
 32
0.0
 13
92.485087876393209
 23
45.910674481046733
 33
0.0
210
0.0
220
0.0
230
1.0
  0
SOLID
  5
6BE
  8
DRG
  6
CONTINUOUS
 62
     7
 10
100.2074865211779
 20
47.313129977668268
 30
0.0
 11
100.207486521178
 21
42.948196427274922
 31
0.0
 12
111.2523129779601
 22
45.06060729124669
 32
0.0
 13
111.2523129779601
 23
45.06060729124669
 33
0.0
210
0.0
220
0.0
230
1.0
  0
SOLID
  5
6BF
  8
DRG
  6
CONTINUOUS
 62
     7
 10
152.52515784094209
 20
47.648154099737518
 30
0.0
 11
141.53564323306159
 21
46.917827705777547
 31
0.0
 12
152.43266305936851
 22
46.527767552548831
 32
0.0
 13
152.43266305936851
 23
46.527767552548831
 33
0.0
210
0.0
220
0.0
230
1.0
  0
SOLID
  5
6C0
  8
DRG
  6
CONTINUOUS
 62
     7
 10
73.979671367721053
 20
47.730858498722469
 30
0.0
 11
63.235709964757007
 21
46.690614073903127
 31
0.0
 12
74.280536421539182
 22
45.06060729124669
 32
0.0
 13
74.280536421539182
 23
45.06060729124669
 33
0.0
210
0.0
220
0.0
230
1.0
  0
SOLID
  5
6C1
  8
DRG
  6
CONTINUOUS
 62
     7
 10
110.951447924142
 20
47.730858498722469
 30
0.0
 11
100.2074865211779
 21
47.313129977668268
 31
0.0
 12
111.2523129779601
 22
45.06060729124669
 32
0.0
 13
111.2523129779601
 23
45.06060729124669
 33
0.0
210
0.0
220
0.0
230
1.0
  0
SOLID
  5
6C2
  8
DRG
  6
CONTINUOUS
 62
     7
 10
44.769347447906533
 20
47.730858498722682
 30
0.0
 11
44.468482394088362
 21
45.06060729124696
 31
0.0
 12
55.513311319972217
 22
46.690614073903141
 32
0.0
 13
55.513311319972217
 23
46.690614073903141
 33
0.0
210
0.0
220
0.0
230
1.0
  0
SOLID
  5
6C3
  8
DRG
  6
CONTINUOUS
 62
     7
 10
170.76060265160129
 20
47.862455973056527
 30
0.0
 11
160.04745823702251
 21
46.421288526219293
 31
0.0
 12
171.0912486890569
 22
45.21828747592599
 32
0.0
 13
171.0912486890569
 23
45.21828747592599
 33
0.0
210
0.0
220
0.0
230
1.0
  0
SOLID
  5
6C4
  8
DRG
  6
CONTINUOUS
 62
     7
 10
17.581722267866329
 20
47.917869298681147
 30
0.0
 11
7.0305774038875759
 21
46.17022669896302
 31
0.0
 12
17.256300807526252
 22
46.312783983787632
 32
0.0
 13
17.256300807526252
 23
46.312783983787632
 33
0.0
210
0.0
220
0.0
230
1.0
  0
SOLID
  5
6C5
  8
DRG
  6
CONTINUOUS
 62
     7
 10
159.7387277495244
 20
47.934174967545289
 30
0.0
 11
160.04745823702251
 21
46.421288526219293
 31
0.0
 12
170.76060265160129
 22
47.862455973056527
 32
0.0
 13
170.76060265160129
 23
47.862455973056527
 33
0.0
210
0.0
220
0.0
230
1.0
  0
SOLID
  5
6C6
  8
DRG
  6
CONTINUOUS
 62
     7
 10
62.941793667269401
 20
48.168231083642013
 30
0.0
 11
63.235709964757007
 21
46.690614073903127
 31
0.0
 12
73.979671367721053
 22
47.730858498722469
 32
0.0
 13
73.979671367721053
 23
47.730858498722469
 33
0.0
  0
SOLID
  5
6C7
  8
DRG
  6
CONTINUOUS
 62
     7
 10
55.80722761745983
 20
48.16823108364202
 30
0.0
 11
44.769347447906533
 21
47.730858498722682
 31
0.0
 12
55.513311319972217
 22
46.690614073903141
 32
0.0
 13
55.513311319972217
 23
46.690614073903141
 33
0.0
210
0.0
220
0.0
230
1.0
  0
SOLID
  5
6C8
  8
DRG
  6
CONTINUOUS
 62
     7
 10
81.924891017256186
 20
48.4364481289943
 30
0.0
 11
81.470405744524527
 21
45.910674481046733
 31
0.0
 12
92.485087876393209
 22
47.313129977668268
 32
0.0
 13
92.485087876393209
 23
47.313129977668268
 33
0.0
210
0.0
220
0.0
230
1.0
  0
SOLID
  5
6C9
  8
DRG
  6
CONTINUOUS
 62
     7
 10
7.3420010674428831
 20
48.764604957189498
 30
0.0
 11
7.0305774038875759
 21
46.17022669896302
 31
0.0
 12
17.581722267866329
 22
47.917869298681147
 32
0.0
 13
17.581722267866329
 23
47.917869298681147
 33
0.0
210
0.0
220
0.0
230
1.0
  0
SOLID
  5
6CA
  8
DRG
  6
CONTINUOUS
 62
     7
 10
92.779004173880821
 20
48.790746987407147
 30
0.0
 11
81.924891017256186
 21
48.4364481289943
 31
0.0
 12
92.485087876393209
 22
47.313129977668268
 32
0.0
 13
92.485087876393209
 23
47.313129977668268
 33
0.0
210
0.0
220
0.0
230
1.0
  0
SOLID
  5
6CB
  8
DRG
  6
CONTINUOUS
 62
     7
 10
99.913570223690385
 20
48.790746987407147
 30
0.0
 11
100.2074865211779
 21
47.313129977668268
 31
0.0
 12
110.951447924142
 22
47.730858498722469
 32
0.0
 13
110.951447924142
 23
47.730858498722469
 33
0.0
210
0.0
220
0.0
230
1.0
  0
SOLID
  5
6CC
  8
DRG
  6
CONTINUOUS
 62
     7
 10
141.8917942032017
 20
48.84260609145101
 30
0.0
 11
141.53564323306159
 21
46.917827705777547
 31
0.0
 12
152.52515784094209
 22
47.648154099737518
 32
0.0
 13
152.52515784094209
 23
47.648154099737518
 33
0.0
210
0.0
220
0.0
230
1.0
  0
SOLID
  5
6CD
  8
DRG
  6
CONTINUOUS
 62
     7
 10
153.29859675497221
 20
48.984541822115588
 30
0.0
 11
141.8917942032017
 21
48.84260609145101
 31
0.0
 12
152.52515784094209
 22
47.648154099737518
 32
0.0
 13
152.52515784094209
 23
47.648154099737518
 33
0.0
210
0.0
220
0.0
230
1.0
  0
SOLID
  5
6CE
  8
DRG
  6
CONTINUOUS
 62
     7
 10
158.8619067058832
 20
49.205129237252457
 30
0.0
 11
159.7387277495244
 21
47.934174967545289
 31
0.0
 12
170.76060265160129
 22
47.862455973056527
 32
0.0
 13
170.76060265160129
 23
47.862455973056527
 33
0.0
210
0.0
220
0.0
230
1.0
  0
SOLID
  5
6CF
  8
DRG
  6
CONTINUOUS
 62
     7
 10
18.38130680768635
 20
49.347156729052493
 30
0.0
 11
7.3420010674428831
 21
48.764604957189498
 31
0.0
 12
17.581722267866329
 22
47.917869298681147
 32
0.0
 13
17.581722267866329
 23
47.917869298681147
 33
0.0
210
0.0
220
0.0
230
1.0
  0
SOLID
  5
6D0
  8
DRG
  6
CONTINUOUS
 62
     7
 10
62.104790866741169
 20
49.420894298279691
 30
0.0
 11
62.941793667269401
 21
48.168231083642013
 31
0.0
 12
73.979671367721053
 22
47.730858498722469
 32
0.0
 13
73.979671367721053
 23
47.730858498722469
 33
0.0
210
0.0
220
0.0
230
1.0
  0
SOLID
  5
6D1
  8
DRG
  6
CONTINUOUS
 62
     7
 10
56.644230417988048
 20
49.420894298279698
 30
0.0
 11
44.769347447906533
 21
47.730858498722682
 31
0.0
 12
55.80722761745983
 22
48.16823108364202
 32
0.0
 13
55.80722761745983
 23
48.16823108364202
 33
0.0
210
0.0
220
0.0
230
1.0
  0
SOLID
  5
6D2
  8
DRG
  6
CONTINUOUS
 62
     7
 10
154.5338141330721
 20
49.911028695794251
 30
0.0
 11
141.8917942032017
 21
48.84260609145101
 31
0.0
 12
153.29859675497221
 22
48.984541822115588
 32
0.0
 13
153.29859675497221
 23
48.984541822115588
 33
0.0
210
0.0
220
0.0
230
1.0
  0
SOLID
  5
6D3
  8
DRG
  6
CONTINUOUS
 62
     7
 10
157.5572113268374
 20
50.030907576854183
 30
0.0
 11
158.8619067058832
 21
49.205129237252457
 31
0.0
 12
170.76060265160129
 22
47.862455973056527
 32
0.0
 13
170.76060265160129
 23
47.862455973056527
 33
0.0
210
0.0
220
0.0
230
1.0
  0
SOLID
  5
6D4
  8
DRG
  6
CONTINUOUS
 62
     7
 10
93.616006974409046
 20
50.043410202044832
 30
0.0
 11
81.924891017256186
 21
48.4364481289943
 31
0.0
 12
92.779004173880821
 22
48.790746987407147
 32
0.0
 13
92.779004173880821
 23
48.790746987407147
 33
0.0
  0
SOLID
  5
6D5
  8
DRG
  6
CONTINUOUS
 62
     7
 10
99.07656742316216
 20
50.043410202044832
 30
0.0
 11
99.913570223690385
 21
48.790746987407147
 31
0.0
 12
110.951447924142
 22
47.730858498722469
 32
0.0
 13
110.951447924142
 23
47.730858498722469
 33
0.0
210
0.0
220
0.0
230
1.0
  0
SOLID
  5
6D6
  8
DRG
  6
CONTINUOUS
 62
     7
 10
57.896893632625734
 20
50.257897098807909
 30
0.0
 11
44.769347447906533
 21
47.730858498722682
 31
0.0
 12
56.644230417988048
 22
49.420894298279698
 32
0.0
 13
56.644230417988048
 23
49.420894298279698
 33
0.0
  0
SOLID
  5
6D7
  8
DRG
  6
CONTINUOUS
 62
     7
 10
60.852127652103498
 20
50.257897098807909
 30
0.0
 11
62.104790866741169
 21
49.420894298279691
 31
0.0
 12
73.979671367721053
 22
47.730858498722469
 32
0.0
 13
73.979671367721053
 23
47.730858498722469
 33
0.0
  0
SOLID
  5
6D8
  8
DRG
  6
CONTINUOUS
 62
     7
 10
73.092162836368203
 20
50.267212160657387
 30
0.0
 11
60.852127652103498
 21
50.257897098807909
 31
0.0
 12
73.979671367721053
 22
47.730858498722469
 32
0.0
 13
73.979671367721053
 23
47.730858498722469
 33
0.0
210
0.0
220
0.0
230
1.0
  0
SOLID
  5
6D9
  8
DRG
  6
CONTINUOUS
 62
     7
 10
110.06393939278919
 20
50.267212160657387
 30
0.0
 11
99.07656742316216
 21
50.043410202044832
 31
0.0
 12
110.951447924142
 22
47.730858498722469
 32
0.0
 13
110.951447924142
 23
47.730858498722469
 33
0.0
  0
SOLID
  5
6DA
  8
DRG
  6
CONTINUOUS
 62
     7
 10
45.656855979259412
 20
50.26721216065755
 30
0.0
 11
44.769347447906533
 21
47.730858498722682
 31
0.0
 12
57.896893632625734
 22
50.257897098807909
 32
0.0
 13
57.896893632625734
 23
50.257897098807909
 33
0.0
210
0.0
220
0.0
230
1.0
  0
SOLID
  5
6DB
  8
DRG
  6
CONTINUOUS
 62
     7
 10
156.0332810566515
 20
50.279456223742521
 30
0.0
 11
141.8917942032017
 21
48.84260609145101
 31
0.0
 12
154.5338141330721
 22
49.911028695794251
 32
0.0
 13
154.5338141330721
 23
49.911028695794251
 33
0.0
210
0.0
220
0.0
230
1.0
  0
SOLID
  5
6DC
  8
DRG
  6
CONTINUOUS
 62
     7
 10
169.85456642492841
 20
50.368459205149207
 30
0.0
 11
156.0332810566515
 21
50.279456223742521
 31
0.0
 12
157.5572113268374
 22
50.030907576854183
 32
0.0
 13
157.5572113268374
 23
50.030907576854183
 33
0.0
210
0.0
220
0.0
230
1.0
  0
SOLID
  5
6DD
  8
DRG
  6
CONTINUOUS
 62
     7
 10
169.85456642492841
 20
50.368459205149207
 30
0.0
 11
157.5572113268374
 21
50.030907576854183
 31
0.0
 12
170.76060265160129
 22
47.862455973056527
 32
0.0
 13
170.76060265160129
 23
47.862455973056527
 33
0.0
210
0.0
220
0.0
230
1.0
  0
SOLID
  5
6DE
  8
DRG
  6
CONTINUOUS
 62
     7
 10
19.57881763530445
 20
50.464370143165517
 30
0.0
 11
7.3420010674428831
 21
48.764604957189498
 31
0.0
 12
18.38130680768635
 22
49.347156729052493
 32
0.0
 13
18.38130680768635
 23
49.347156729052493
 33
0.0
210
0.0
220
0.0
230
1.0
  0
SOLID
  5
6DF
  8
DRG
  6
CONTINUOUS
 62
     7
 10
59.374510642364612
 20
50.551813396295529
 30
0.0
 11
45.656855979259412
 21
50.26721216065755
 31
0.0
 12
57.896893632625734
 22
50.257897098807909
 32
0.0
 13
57.896893632625734
 23
50.257897098807909
 33
0.0
210
0.0
220
0.0
230
1.0
  0
SOLID
  5
6E0
  8
DRG
  6
CONTINUOUS
 62
     7
 10
59.374510642364612
 20
50.551813396295529
 30
0.0
 11
60.852127652103498
 21
50.257897098807909
 31
0.0
 12
73.092162836368203
 22
50.267212160657387
 32
0.0
 13
73.092162836368203
 23
50.267212160657387
 33
0.0
210
0.0
220
0.0
230
1.0
  0
SOLID
  5
6E1
  8
DRG
  6
CONTINUOUS
 62
     7
 10
82.906051585096932
 20
50.807821849838582
 30
0.0
 11
81.924891017256186
 21
48.4364481289943
 31
0.0
 12
93.616006974409046
 22
50.043410202044832
 32
0.0
 13
93.616006974409046
 23
50.043410202044832
 33
0.0
210
0.0
220
0.0
230
1.0
  0
SOLID
  5
6E2
  8
DRG
  6
CONTINUOUS
 62
     7
 10
94.868670189046725
 20
50.88041300257305
 30
0.0
 11
82.906051585096932
 21
50.807821849838582
 31
0.0
 12
93.616006974409046
 22
50.043410202044832
 32
0.0
 13
93.616006974409046
 23
50.043410202044832
 33
0.0
210
0.0
220
0.0
230
1.0
  0
SOLID
  5
6E3
  8
DRG
  6
CONTINUOUS
 62
     7
 10
97.823904208524496
 20
50.88041300257305
 30
0.0
 11
99.07656742316216
 21
50.043410202044832
 31
0.0
 12
110.06393939278919
 22
50.267212160657387
 32
0.0
 13
110.06393939278919
 23
50.267212160657387
 33
0.0
210
0.0
220
0.0
230
1.0
  0
SOLID
  5
6E4
  8
DRG
  6
CONTINUOUS
 62
     7
 10
142.920441326131
 20
51.116576646040869
 30
0.0
 11
156.0332810566515
 21
50.279456223742521
 31
0.0
 12
169.85456642492841
 22
50.368459205149207
 32
0.0
 13
169.85456642492841
 23
50.368459205149207
 33
0.0
210
0.0
220
0.0
230
1.0
  0
SOLID
  5
6E5
  8
DRG
  6
CONTINUOUS
 62
     7
 10
142.920441326131
 20
51.116576646040869
 30
0.0
 11
141.8917942032017
 21
48.84260609145101
 31
0.0
 12
156.0332810566515
 22
50.279456223742521
 32
0.0
 13
156.0332810566515
 23
50.279456223742521
 33
0.0
210
0.0
220
0.0
230
1.0
  0
SOLID
  5
6E6
  8
DRG
  6
CONTINUOUS
 62
     7
 10
21.06007747620454
 20
51.162988263939191
 30
0.0
 11
7.3420010674428831
 21
48.764604957189498
 31
0.0
 12
19.57881763530445
 22
50.464370143165517
 32
0.0
 13
19.57881763530445
 23
50.464370143165517
 33
0.0
  0
SOLID
  5
6E7
  8
DRG
  6
CONTINUOUS
 62
     7
 10
96.346287198785603
 20
51.174329300060663
 30
0.0
 11
82.906051585096932
 21
50.807821849838582
 31
0.0
 12
94.868670189046725
 22
50.88041300257305
 32
0.0
 13
94.868670189046725
 23
50.88041300257305
 33
0.0
210
0.0
220
0.0
230
1.0
  0
SOLID
  5
6E8
  8
DRG
  6
CONTINUOUS
 62
     7
 10
96.346287198785603
 20
51.174329300060663
 30
0.0
 11
97.823904208524496
 21
50.88041300257305
 31
0.0
 12
110.06393939278919
 22
50.267212160657387
 32
0.0
 13
110.06393939278919
 23
50.267212160657387
 33
0.0
  0
SOLID
  5
6E9
  8
DRG
  6
CONTINUOUS
 62
     7
 10
8.2028006413352372
 20
51.231750542388589
 30
0.0
 11
7.3420010674428831
 21
48.764604957189498
 31
0.0
 12
21.06007747620454
 22
51.162988263939191
 32
0.0
 13
21.06007747620454
 23
51.162988263939191
 33
0.0
  0
SOLID
  5
6EA
  8
DRG
  6
CONTINUOUS
 62
     7
 10
27.267121908897021
 20
51.255838552818979
 30
0.0
 11
24.679246464695179
 21
50.459554842585071
 31
0.0
 12
26.241246459003669
 22
48.91606835823719
 32
0.0
 13
26.241246459003669
 23
48.91606835823719
 33
0.0
210
0.0
220
0.0
230
1.0
  0
SOLID
  5
6EB
  8
DRG
  6
CONTINUOUS
 62
     7
 10
27.267121908897021
 20
51.255838552818979
 30
0.0
 11
26.241246459003669
 21
48.91606835823719
 31
0.0
 12
27.181817847379161
 22
46.931749842233849
 32
0.0
 13
27.181817847379161
 23
46.931749842233849
 33
0.0
210
0.0
220
0.0
230
1.0
  0
SOLID
  5
6EC
  8
DRG
  6
CONTINUOUS
 62
     7
 10
27.267121908897021
 20
51.255838552818979
 30
0.0
 11
27.181817847379161
 21
46.931749842233849
 31
0.0
 12
37.639779947293839
 22
13.760967175618781
 32
0.0
 13
37.639779947293839
 23
13.760967175618781
 33
0.0
210
0.0
220
0.0
230
1.0
  0
SOLID
  5
6ED
  8
DRG
  6
CONTINUOUS
 62
     7
 10
22.683854862926282
 20
51.376400993896397
 30
0.0
 11
8.2028006413352372
 21
51.231750542388589
 31
0.0
 12
21.06007747620454
 22
51.162988263939191
 32
0.0
 13
21.06007747620454
 23
51.162988263939191
 33
0.0
  0
SOLID
  5
6EE
  8
DRG
  6
CONTINUOUS
 62
     7
 10
22.683854862926282
 20
51.376400993896397
 30
0.0
 11
24.679246464695179
 21
50.459554842585071
 31
0.0
 12
27.267121908897021
 22
51.255838552818979
 32
0.0
 13
27.267121908897021
 23
51.255838552818979
 33
0.0
210
0.0
220
0.0
230
1.0
  0
SOLID
  5
6EF
  8
DRG
  6
CONTINUOUS
 62
     7
 10
108.6342907675765
 20
52.54248491355149
 30
0.0
 11
96.346287198785603
 21
51.174329300060663
 31
0.0
 12
110.06393939278919
 22
50.267212160657387
 32
0.0
 13
110.06393939278919
 23
50.267212160657387
 33
0.0
210
0.0
220
0.0
230
1.0
  0
SOLID
  5
6F0
  8
DRG
  6
CONTINUOUS
 62
     7
 10
71.662514211155525
 20
52.54248491355149
 30
0.0
 11
59.374510642364612
 21
50.551813396295529
 31
0.0
 12
73.092162836368203
 22
50.267212160657387
 32
0.0
 13
73.092162836368203
 23
50.267212160657387
 33
0.0
210
0.0
220
0.0
230
1.0
  0
SOLID
  5
6F1
  8
DRG
  6
CONTINUOUS
 62
     7
 10
47.08650460447209
 20
52.542484913551611
 30
0.0
 11
59.374510642364612
 21
50.551813396295529
 31
0.0
 12
71.662514211155525
 22
52.54248491355149
 32
0.0
 13
71.662514211155525
 23
52.54248491355149
 33
0.0
210
0.0
220
0.0
230
1.0
  0
SOLID
  5
6F2
  8
DRG
  6
CONTINUOUS
 62
     7
 10
47.08650460447209
 20
52.542484913551611
 30
0.0
 11
45.656855979259412
 21
50.26721216065755
 31
0.0
 12
59.374510642364612
 22
50.551813396295529
 32
0.0
 13
59.374510642364612
 23
50.551813396295529
 33
0.0
210
0.0
220
0.0
230
1.0
  0
SOLID
  5
6F3
  8
DRG
  6
CONTINUOUS
 62
     7
 10
168.4178186300519
 20
52.612720691077257
 30
0.0
 11
142.920441326131
 21
51.116576646040869
 31
0.0
 12
169.85456642492841
 22
50.368459205149207
 32
0.0
 13
169.85456642492841
 23
50.368459205149207
 33
0.0
210
0.0
220
0.0
230
1.0
  0
SOLID
  5
6F4
  8
DRG
  6
CONTINUOUS
 62
     7
 10
84.369012370271378
 20
52.916336759636032
 30
0.0
 11
96.346287198785603
 21
51.174329300060663
 31
0.0
 12
108.6342907675765
 22
52.54248491355149
 32
0.0
 13
108.6342907675765
 23
52.54248491355149
 33
0.0
210
0.0
220
0.0
230
1.0
  0
SOLID
  5
6F5
  8
DRG
  6
CONTINUOUS
 62
     7
 10
84.369012370271378
 20
52.916336759636032
 30
0.0
 11
82.906051585096932
 21
50.807821849838582
 31
0.0
 12
96.346287198785603
 22
51.174329300060663
 32
0.0
 13
96.346287198785603
 23
51.174329300060663
 33
0.0
  0
SOLID
  5
6F6
  8
DRG
  6
CONTINUOUS
 62
     7
 10
127.2345352189994
 20
53.086533694841222
 30
0.0
 11
135.23453521899941
 21
48.740104065808111
 31
0.0
 12
136.6041529029215
 22
48.740104065808111
 32
0.0
 13
136.6041529029215
 23
48.740104065808111
 33
0.0
210
0.0
220
0.0
230
1.0
  0
SOLID
  5
6F7
  8
DRG
  6
CONTINUOUS
 62
     7
 10
127.2345352189994
 20
53.086533694841222
 30
0.0
 11
133.1639828581792
 21
48.467510676120646
 31
0.0
 12
135.23453521899941
 22
48.740104065808111
 32
0.0
 13
135.23453521899941
 23
48.740104065808111
 33
0.0
210
0.0
220
0.0
230
1.0
  0
SOLID
  5
6F8
  8
DRG
  6
CONTINUOUS
 62
     7
 10
127.2345352189994
 20
53.086533694841222
 30
0.0
 11
131.23453521899941
 21
47.668307296083611
 31
0.0
 12
133.1639828581792
 22
48.467510676120646
 32
0.0
 13
133.1639828581792
 23
48.467510676120646
 33
0.0
210
0.0
220
0.0
230
1.0
  0
SOLID
  5
6F9
  8
DRG
  6
CONTINUOUS
 62
     7
 10
127.2345352189994
 20
53.086533694841222
 30
0.0
 11
129.57768096950701
 21
46.396958315300481
 31
0.0
 12
131.23453521899941
 22
47.668307296083611
 32
0.0
 13
131.23453521899941
 23
47.668307296083611
 33
0.0
210
0.0
220
0.0
230
1.0
  0
SOLID
  5
6FA
  8
DRG
  6
CONTINUOUS
 62
     7
 10
127.2345352189994
 20
53.086533694841222
 30
0.0
 11
128.30633198872391
 21
44.740104065808097
 31
0.0
 12
129.57768096950701
 22
46.396958315300481
 32
0.0
 13
129.57768096950701
 23
46.396958315300481
 33
0.0
210
0.0
220
0.0
230
1.0
  0
SOLID
  5
6FB
  8
DRG
  6
CONTINUOUS
 62
     7
 10
127.2345352189994
 20
53.086533694841222
 30
0.0
 11
116.19314081319391
 21
17.28637227261407
 31
0.0
 12
128.30633198872391
 22
44.740104065808097
 32
0.0
 13
128.30633198872391
 23
44.740104065808097
 33
0.0
210
0.0
220
0.0
230
1.0
  0
SOLID
  5
6FC
  8
DRG
  6
CONTINUOUS
 62
     7
 10
144.39722538079619
 20
53.12858207409991
 30
0.0
 11
142.920441326131
 21
51.116576646040869
 31
0.0
 12
168.4178186300519
 22
52.612720691077257
 32
0.0
 13
168.4178186300519
 23
52.612720691077257
 33
0.0
210
0.0
220
0.0
230
1.0
  0
SOLID
  5
6FD
  8
DRG
  6
CONTINUOUS
 62
     7
 10
9.5728846326008892
 20
53.456756857403953
 30
0.0
 11
8.2028006413352372
 21
51.231750542388589
 31
0.0
 12
22.683854862926282
 22
51.376400993896397
 32
0.0
 13
22.683854862926282
 23
51.376400993896397
 33
0.0
210
0.0
220
0.0
230
1.0
  0
SOLID
  5
6FE
  8
DRG
  6
CONTINUOUS
 62
     7
 10
26.390819376565261
 20
53.462496928867189
 30
0.0
 11
9.5728846326008892
 21
53.456756857403953
 31
0.0
 12
22.683854862926282
 22
51.376400993896397
 32
0.0
 13
22.683854862926282
 23
51.376400993896397
 33
0.0
210
0.0
220
0.0
230
1.0
  0
SOLID
  5
6FF
  8
DRG
  6
CONTINUOUS
 62
     7
 10
26.390819376565261
 20
53.462496928867189
 30
0.0
 11
22.683854862926282
 21
51.376400993896397
 31
0.0
 12
27.267121908897021
 22
51.255838552818979
 32
0.0
 13
27.267121908897021
 23
51.255838552818979
 33
0.0
210
0.0
220
0.0
230
1.0
  0
SOLID
  5
700
  8
DRG
  6
CONTINUOUS
 62
     7
 10
69.762414043843989
 20
54.442585080863047
 30
0.0
 11
47.08650460447209
 21
52.542484913551611
 31
0.0
 12
71.662514211155525
 22
52.54248491355149
 32
0.0
 13
71.662514211155525
 23
52.54248491355149
 33
0.0
210
0.0
220
0.0
230
1.0
  0
SOLID
  5
701
  8
DRG
  6
CONTINUOUS
 62
     7
 10
106.7341906002649
 20
54.442585080863047
 30
0.0
 11
84.369012370271378
 21
52.916336759636032
 31
0.0
 12
108.6342907675765
 22
52.54248491355149
 32
0.0
 13
108.6342907675765
 23
52.54248491355149
 33
0.0
  0
SOLID
  5
702
  8
DRG
  6
CONTINUOUS
 62
     7
 10
48.986604771783639
 20
54.442585080863132
 30
0.0
 11
47.08650460447209
 21
52.542484913551611
 31
0.0
 12
69.762414043843989
 22
54.442585080863047
 32
0.0
 13
69.762414043843989
 23
54.442585080863047
 33
0.0
  0
SOLID
  5
703
  8
DRG
  6
CONTINUOUS
 62
     7
 10
166.52120843208201
 20
54.484571005674873
 30
0.0
 11
144.39722538079619
 21
53.12858207409991
 31
0.0
 12
168.4178186300519
 22
52.612720691077257
 32
0.0
 13
168.4178186300519
 23
52.612720691077257
 33
0.0
210
0.0
220
0.0
230
1.0
  0
SOLID
  5
704
  8
DRG
  6
CONTINUOUS
 62
     7
 10
86.246862327667387
 20
54.665556277393662
 30
0.0
 11
84.369012370271378
 21
52.916336759636032
 31
0.0
 12
106.7341906002649
 22
54.442585080863047
 32
0.0
 13
106.7341906002649
 23
54.442585080863047
 33
0.0
  0
SOLID
  5
705
  8
DRG
  6
CONTINUOUS
 62
     7
 10
146.2582646169646
 20
54.791588372372388
 30
0.0
 11
144.39722538079619
 21
53.12858207409991
 31
0.0
 12
166.52120843208201
 22
54.484571005674873
 32
0.0
 13
166.52120843208201
 23
54.484571005674873
 33
0.0
210
0.0
220
0.0
230
1.0
  0
SOLID
  5
706
  8
DRG
  6
CONTINUOUS
 62
     7
 10
129.0836962561232
 20
55.014863471122233
 30
0.0
 11
127.2345352189994
 21
53.086533694841222
 31
0.0
 12
136.6041529029215
 22
48.740104065808111
 32
0.0
 13
136.6041529029215
 23
48.740104065808111
 33
0.0
210
0.0
220
0.0
230
1.0
  0
SOLID
  5
707
  8
DRG
  6
CONTINUOUS
 62
     7
 10
11.388441772784841
 20
55.335994872054471
 30
0.0
 11
9.5728846326008892
 21
53.456756857403953
 31
0.0
 12
26.390819376565261
 22
53.462496928867189
 32
0.0
 13
26.390819376565261
 23
53.462496928867189
 33
0.0
210
0.0
220
0.0
230
1.0
  0
SOLID
  5
708
  8
DRG
  6
CONTINUOUS
 62
     7
 10
24.97349704072932
 20
55.367344616504027
 30
0.0
 11
11.388441772784841
 21
55.335994872054471
 31
0.0
 12
26.390819376565261
 22
53.462496928867189
 32
0.0
 13
26.390819376565261
 23
53.462496928867189
 33
0.0
210
0.0
220
0.0
230
1.0
  0
SOLID
  5
709
  8
DRG
  6
CONTINUOUS
 62
     7
 10
104.4589178473708
 20
55.872233706075718
 30
0.0
 11
86.246862327667387
 21
54.665556277393662
 31
0.0
 12
106.7341906002649
 22
54.442585080863047
 32
0.0
 13
106.7341906002649
 23
54.442585080863047
 33
0.0
210
0.0
220
0.0
230
1.0
  0
SOLID
  5
70A
  8
DRG
  6
CONTINUOUS
 62
     7
 10
67.487141290949879
 20
55.872233706075718
 30
0.0
 11
48.986604771783639
 21
54.442585080863132
 31
0.0
 12
69.762414043843989
 22
54.442585080863047
 32
0.0
 13
69.762414043843989
 23
54.442585080863047
 33
0.0
210
0.0
220
0.0
230
1.0
  0
SOLID
  5
70B
  8
DRG
  6
CONTINUOUS
 62
     7
 10
51.261877524677743
 20
55.872233706075761
 30
0.0
 11
48.986604771783639
 21
54.442585080863132
 31
0.0
 12
67.487141290949879
 22
55.872233706075718
 32
0.0
 13
67.487141290949879
 23
55.872233706075718
 33
0.0
210
0.0
220
0.0
230
1.0
  0
SOLID
  5
70C
  8
DRG
  6
CONTINUOUS
 62
     7
 10
164.25826181348069
 20
55.891705130292529
 30
0.0
 11
146.2582646169646
 21
54.791588372372388
 31
0.0
 12
166.52120843208201
 22
54.484571005674873
 32
0.0
 13
166.52120843208201
 23
54.484571005674873
 33
0.0
210
0.0
220
0.0
230
1.0
  0
SOLID
  5
70D
  8
DRG
  6
CONTINUOUS
 62
     7
 10
88.453714737362944
 20
55.975476819112622
 30
0.0
 11
86.246862327667387
 21
54.665556277393662
 31
0.0
 12
104.4589178473708
 22
55.872233706075718
 32
0.0
 13
104.4589178473708
 23
55.872233706075718
 33
0.0
210
0.0
220
0.0
230
1.0
  0
SOLID
  5
70E
  8
DRG
  6
CONTINUOUS
 62
     7
 10
148.42305542729969
 20
56.033658311683958
 30
0.0
 11
146.2582646169646
 21
54.791588372372388
 31
0.0
 12
164.25826181348069
 22
55.891705130292529
 32
0.0
 13
164.25826181348069
 23
55.891705130292529
 33
0.0
  0
SOLID
  5
70F
  8
DRG
  6
CONTINUOUS
 62
     7
 10
131.36827517159969
 20
56.399981316747272
 30
0.0
 11
129.0836962561232
 21
55.014863471122233
 31
0.0
 12
136.6041529029215
 22
48.740104065808111
 32
0.0
 13
136.6041529029215
 23
48.740104065808111
 33
0.0
  0
SOLID
  5
710
  8
DRG
  6
CONTINUOUS
 62
     7
 10
101.9225641854359
 20
56.759742237428583
 30
0.0
 11
88.453714737362944
 21
55.975476819112622
 31
0.0
 12
104.4589178473708
 22
55.872233706075718
 32
0.0
 13
104.4589178473708
 23
55.872233706075718
 33
0.0
210
0.0
220
0.0
230
1.0
  0
SOLID
  5
711
  8
DRG
  6
CONTINUOUS
 62
     7
 10
64.950787629014954
 20
56.759742237428583
 30
0.0
 11
51.261877524677743
 21
55.872233706075761
 31
0.0
 12
67.487141290949879
 22
55.872233706075718
 32
0.0
 13
67.487141290949879
 23
55.872233706075718
 33
0.0
210
0.0
220
0.0
230
1.0
  0
SOLID
  5
712
  8
DRG
  6
CONTINUOUS
 62
     7
 10
53.798231186612632
 20
56.759742237428583
 30
0.0
 11
51.261877524677743
 21
55.872233706075761
 31
0.0
 12
64.950787629014954
 22
56.759742237428583
 32
0.0
 13
64.950787629014954
 23
56.759742237428583
 33
0.0
210
0.0
220
0.0
230
1.0
  0
SOLID
  5
713
  8
DRG
  6
CONTINUOUS
 62
     7
 10
161.7405696040295
 20
56.76473421444242
 30
0.0
 11
148.42305542729969
 21
56.033658311683958
 31
0.0
 12
164.25826181348069
 22
55.891705130292529
 32
0.0
 13
164.25826181348069
 23
55.891705130292529
 33
0.0
210
0.0
220
0.0
230
1.0
  0
SOLID
  5
714
  8
DRG
  6
CONTINUOUS
 62
     7
 10
13.56491300944491
 20
56.781939615456523
 30
0.0
 11
11.388441772784841
 21
55.335994872054471
 31
0.0
 12
24.97349704072932
 22
55.367344616504027
 32
0.0
 13
24.97349704072932
 23
55.367344616504027
 33
0.0
210
0.0
220
0.0
230
1.0
  0
SOLID
  5
715
  8
DRG
  6
CONTINUOUS
 62
     7
 10
90.888635382503196
 20
56.786186900255167
 30
0.0
 11
88.453714737362944
 21
55.975476819112622
 31
0.0
 12
101.9225641854359
 22
56.759742237428583
 32
0.0
 13
101.9225641854359
 23
56.759742237428583
 33
0.0
210
0.0
220
0.0
230
1.0
  0
SOLID
  5
716
  8
DRG
  6
CONTINUOUS
 62
     7
 10
150.79795471928901
 20
56.801063250136181
 30
0.0
 11
148.42305542729969
 21
56.033658311683958
 31
0.0
 12
161.7405696040295
 22
56.76473421444242
 32
0.0
 13
161.7405696040295
 23
56.76473421444242
 33
0.0
210
0.0
220
0.0
230
1.0
  0
SOLID
  5
717
  8
DRG
  6
CONTINUOUS
 62
     7
 10
23.111648298363178
 20
56.840696773085902
 30
0.0
 11
13.56491300944491
 21
56.781939615456523
 31
0.0
 12
24.97349704072932
 22
55.367344616504027
 32
0.0
 13
24.97349704072932
 23
55.367344616504027
 33
0.0
210
0.0
220
0.0
230
1.0
  0
SOLID
  5
718
  8
DRG
  6
CONTINUOUS
 62
     7
 10
150.79795471928901
 20
56.801063250136181
 30
0.0
 11
159.0922846938046
 21
57.06060729124669
 31
0.0
 12
153.28023066635379
 22
57.06060729124669
 32
0.0
 13
153.28023066635379
 23
57.06060729124669
 33
0.0
210
0.0
220
0.0
230
1.0
  0
SOLID
  5
719
  8
DRG
  6
CONTINUOUS
 62
     7
 10
159.0922846938046
 20
57.06060729124669
 30
0.0
 11
150.79795471928901
 21
56.801063250136181
 31
0.0
 12
161.7405696040295
 22
56.76473421444242
 32
0.0
 13
161.7405696040295
 23
56.76473421444242
 33
0.0
210
0.0
220
0.0
230
1.0
  0
SOLID
  5
71A
  8
DRG
  6
CONTINUOUS
 62
     7
 10
27.267121908897021
 20
51.255838552818979
 30
0.0
 11
37.639779947293832
 21
57.06060729124669
 31
0.0
 12
27.267121908897028
 22
57.06060729124669
 32
0.0
 13
27.267121908897028
 23
57.06060729124669
 33
0.0
210
0.0
220
0.0
230
1.0
  0
SOLID
  5
71B
  8
DRG
  6
CONTINUOUS
 62
     7
 10
37.639779947293832
 20
57.06060729124669
 30
0.0
 11
27.267121908897021
 21
51.255838552818979
 31
0.0
 12
37.639779947293839
 22
13.760967175618781
 32
0.0
 13
37.639779947293839
 23
13.760967175618781
 33
0.0
  0
SOLID
  5
71C
  8
DRG
  6
CONTINUOUS
 62
     7
 10
53.798231186612632
 20
56.759742237428583
 30
0.0
 11
62.280536421539182
 21
57.06060729124669
 31
0.0
 12
56.468482394088369
 22
57.06060729124669
 32
0.0
 13
56.468482394088369
 23
57.06060729124669
 33
0.0
210
0.0
220
0.0
230
1.0
  0
SOLID
  5
71D
  8
DRG
  6
CONTINUOUS
 62
     7
 10
62.280536421539182
 20
57.06060729124669
 30
0.0
 11
53.798231186612632
 21
56.759742237428583
 31
0.0
 12
64.950787629014954
 22
56.759742237428583
 32
0.0
 13
64.950787629014954
 23
56.759742237428583
 33
0.0
210
0.0
220
0.0
230
1.0
  0
SOLID
  5
71E
  8
DRG
  6
CONTINUOUS
 62
     7
 10
90.888635382503196
 20
56.786186900255167
 30
0.0
 11
99.252312977960173
 21
57.06060729124669
 31
0.0
 12
93.440258950509346
 22
57.06060729124669
 32
0.0
 13
93.440258950509346
 23
57.06060729124669
 33
0.0
210
0.0
220
0.0
230
1.0
  0
SOLID
  5
71F
  8
DRG
  6
CONTINUOUS
 62
     7
 10
99.252312977960173
 20
57.06060729124669
 30
0.0
 11
90.888635382503196
 21
56.786186900255167
 31
0.0
 12
101.9225641854359
 22
56.759742237428583
 32
0.0
 13
101.9225641854359
 23
56.759742237428583
 33
0.0
210
0.0
220
0.0
230
1.0
  0
SOLID
  5
720
  8
DRG
  6
CONTINUOUS
 62
     7
 10
133.93314657289841
 20
57.147836223870669
 30
0.0
 11
131.36827517159969
 21
56.399981316747272
 31
0.0
 12
136.6041529029215
 22
48.740104065808111
 32
0.0
 13
136.6041529029215
 23
48.740104065808111
 33
0.0
210
0.0
220
0.0
230
1.0
  0
SOLID
  5
721
  8
DRG
  6
CONTINUOUS
 62
     7
 10
127.2345352189994
 20
53.086533694841222
 30
0.0
 11
127.2345352189994
 21
57.207648031108022
 31
0.0
 12
116.19314081319391
 22
57.207648031108022
 32
0.0
 13
116.19314081319391
 23
57.207648031108022
 33
0.0
210
0.0
220
0.0
230
1.0
  0
SOLID
  5
722
  8
DRG
  6
CONTINUOUS
 62
     7
 10
116.19314081319391
 20
57.207648031108022
 30
0.0
 11
116.19314081319391
 21
17.28637227261407
 31
0.0
 12
127.2345352189994
 22
53.086533694841222
 32
0.0
 13
127.2345352189994
 23
53.086533694841222
 33
0.0
210
0.0
220
0.0
230
1.0
  0
SOLID
  5
723
  8
DRG
  6
CONTINUOUS
 62
     7
 10
136.6041529029215
 20
57.207648031108022
 30
0.0
 11
133.93314657289841
 21
57.147836223870669
 31
0.0
 12
136.6041529029215
 22
48.740104065808111
 32
0.0
 13
136.6041529029215
 23
48.740104065808111
 33
0.0
210
0.0
220
0.0
230
1.0
  0
SOLID
  5
724
  8
DRG
  6
CONTINUOUS
 62
     7
 10
16.000929819736889
 20
57.7272466264088
 30
0.0
 11
13.56491300944491
 21
56.781939615456523
 31
0.0
 12
23.111648298363178
 22
56.840696773085902
 32
0.0
 13
23.111648298363178
 23
56.840696773085902
 33
0.0
210
0.0
220
0.0
230
1.0
  0
SOLID
  5
725
  8
DRG
  6
CONTINUOUS
 62
     7
 10
20.932030560438331
 20
57.78224540872732
 30
0.0
 11
16.000929819736889
 21
57.7272466264088
 31
0.0
 12
23.111648298363178
 22
56.840696773085902
 32
0.0
 13
23.111648298363178
 23
56.840696773085902
 33
0.0
210
0.0
220
0.0
230
1.0
  0
SOLID
  5
726
  8
DRG
  6
CONTINUOUS
 62
     7
 10
18.58303542025671
 20
58.127888502333931
 30
0.0
 11
16.000929819736889
 21
57.7272466264088
 31
0.0
 12
20.932030560438331
 22
57.78224540872732
 32
0.0
 13
20.932030560438331
 23
57.78224540872732
 33
0.0
210
0.0
220
0.0
230
1.0
  0
SOLID
  5
727
  8
DRG
  6
CONTINUOUS
 62
     7
 10
73.260638849331514
 20
61.169925125155011
 30
0.0
 11
75.331191210151701
 21
60.89733173546756
 31
0.0
 12
80.675802928262684
 22
60.89733173546756
 32
0.0
 13
80.675802928262684
 23
60.89733173546756
 33
0.0
210
0.0
220
0.0
230
1.0
  0
SOLID
  5
728
  8
DRG
  6
CONTINUOUS
 62
     7
 10
50.320443202898318
 20
61.198195663659767
 30
0.0
 11
41.838142899665847
 21
60.89733173546756
 31
0.0
 12
47.650196927116667
 22
60.89733173546756
 32
0.0
 13
47.650196927116667
 23
60.89733173546756
 33
0.0
  0
SOLID
  5
729
  8
DRG
  6
CONTINUOUS
 62
     7
 10
106.3320830399325
 20
61.198195663659767
 30
0.0
 11
97.849782736700035
 21
60.89733173546756
 31
0.0
 12
103.66183676415081
 22
60.89733173546756
 32
0.0
 13
103.66183676415081
 23
60.89733173546756
 33
0.0
210
0.0
220
0.0
230
1.0
  0
SOLID
  5
72A
  8
DRG
  6
CONTINUOUS
 62
     7
 10
39.167891692190118
 20
61.19819678928566
 30
0.0
 11
41.838142899665847
 21
60.89733173546756
 31
0.0
 12
50.320443202898318
 22
61.198195663659767
 32
0.0
 13
50.320443202898318
 23
61.198195663659767
 33
0.0
210
0.0
220
0.0
230
1.0
  0
SOLID
  5
72B
  8
DRG
  6
CONTINUOUS
 62
     7
 10
95.179531529224278
 20
61.198196789285682
 30
0.0
 11
97.849782736700035
 21
60.89733173546756
 31
0.0
 12
106.3320830399325
 22
61.198195663659767
 32
0.0
 13
106.3320830399325
 23
61.198195663659767
 33
0.0
210
0.0
220
0.0
230
1.0
  0
SOLID
  5
72C
  8
DRG
  6
CONTINUOUS
 62
     7
 10
82.673677075028507
 20
61.207576574819242
 30
0.0
 11
73.260638849331514
 21
61.169925125155011
 31
0.0
 12
80.675802928262684
 22
60.89733173546756
 32
0.0
 13
80.675802928262684
 23
60.89733173546756
 33
0.0
210
0.0
220
0.0
230
1.0
  0
SOLID
  5
72D
  8
DRG
  6
CONTINUOUS
 62
     7
 10
71.331191210151701
 20
61.969128505192053
 30
0.0
 11
73.260638849331514
 21
61.169925125155011
 31
0.0
 12
82.673677075028507
 22
61.207576574819242
 32
0.0
 13
82.673677075028507
 23
61.207576574819242
 33
0.0
210
0.0
220
0.0
230
1.0
  0
SOLID
  5
72E
  8
DRG
  6
CONTINUOUS
 62
     7
 10
84.501142256151084
 20
62.072518178885289
 30
0.0
 11
71.331191210151701
 21
61.969128505192053
 31
0.0
 12
82.673677075028507
 22
61.207576574819242
 32
0.0
 13
82.673677075028507
 23
61.207576574819242
 33
0.0
  0
SOLID
  5
72F
  8
DRG
  6
CONTINUOUS
 62
     7
 10
52.856792681384597
 20
62.085700931021869
 30
0.0
 11
39.167891692190118
 21
61.19819678928566
 31
0.0
 12
50.320443202898318
 22
61.198195663659767
 32
0.0
 13
50.320443202898318
 23
61.198195663659767
 33
0.0
210
0.0
220
0.0
230
1.0
  0
SOLID
  5
730
  8
DRG
  6
CONTINUOUS
 62
     7
 10
108.8684325184187
 20
62.085700931021869
 30
0.0
 11
95.179531529224278
 21
61.198196789285682
 31
0.0
 12
106.3320830399325
 22
61.198195663659767
 32
0.0
 13
106.3320830399325
 23
61.198195663659767
 33
0.0
210
0.0
220
0.0
230
1.0
  0
SOLID
  5
731
  8
DRG
  6
CONTINUOUS
 62
     7
 10
36.63153803025525
 20
62.085705320638482
 30
0.0
 11
39.167891692190118
 21
61.19819678928566
 31
0.0
 12
52.856792681384597
 22
62.085700931021869
 32
0.0
 13
52.856792681384597
 23
62.085700931021869
 33
0.0
  0
SOLID
  5
732
  8
DRG
  6
CONTINUOUS
 62
     7
 10
92.643177867289367
 20
62.085705320638517
 30
0.0
 11
95.179531529224278
 21
61.198196789285682
 31
0.0
 12
108.8684325184187
 22
62.085700931021869
 32
0.0
 13
108.8684325184187
 23
62.085700931021869
 33
0.0
210
0.0
220
0.0
230
1.0
  0
SOLID
  5
733
  8
DRG
  6
CONTINUOUS
 62
     7
 10
69.674336960659303
 20
63.240477485975177
 30
0.0
 11
71.331191210151701
 21
61.969128505192053
 31
0.0
 12
84.501142256151084
 22
62.072518178885289
 32
0.0
 13
84.501142256151084
 23
62.072518178885289
 33
0.0
210
0.0
220
0.0
230
1.0
  0
SOLID
  5
734
  8
DRG
  6
CONTINUOUS
 62
     7
 10
111.1437025217154
 20
63.515344484048867
 30
0.0
 11
92.643177867289367
 21
62.085705320638517
 31
0.0
 12
108.8684325184187
 22
62.085700931021869
 32
0.0
 13
108.8684325184187
 23
62.085700931021869
 33
0.0
210
0.0
220
0.0
230
1.0
  0
SOLID
  5
735
  8
DRG
  6
CONTINUOUS
 62
     7
 10
55.13206268468123
 20
63.515344484048867
 30
0.0
 11
36.63153803025525
 21
62.085705320638482
 31
0.0
 12
52.856792681384597
 22
62.085700931021869
 32
0.0
 13
52.856792681384597
 23
62.085700931021869
 33
0.0
  0
SOLID
  5
736
  8
DRG
  6
CONTINUOUS
 62
     7
 10
34.356265277361167
 20
63.515353945851103
 30
0.0
 11
36.63153803025525
 21
62.085705320638482
 31
0.0
 12
55.13206268468123
 22
63.515344484048867
 32
0.0
 13
55.13206268468123
 23
63.515344484048867
 33
0.0
210
0.0
220
0.0
230
1.0
  0
SOLID
  5
737
  8
DRG
  6
CONTINUOUS
 62
     7
 10
90.367905114395256
 20
63.515353945851182
 30
0.0
 11
92.643177867289367
 21
62.085705320638517
 31
0.0
 12
111.1437025217154
 22
63.515344484048867
 32
0.0
 13
111.1437025217154
 23
63.515344484048867
 33
0.0
210
0.0
220
0.0
230
1.0
  0
SOLID
  5
738
  8
DRG
  6
CONTINUOUS
 62
     7
 10
68.402987979876187
 20
64.89733173546756
 30
0.0
 11
69.674336960659303
 21
63.240477485975177
 31
0.0
 12
84.501142256151084
 22
62.072518178885289
 32
0.0
 13
84.501142256151084
 23
62.072518178885289
 33
0.0
210
0.0
220
0.0
230
1.0
  0
SOLID
  5
739
  8
DRG
  6
CONTINUOUS
 62
     7
 10
57.032162100973231
 20
65.415438293527714
 30
0.0
 11
34.356265277361167
 21
63.515353945851103
 31
0.0
 12
55.13206268468123
 22
63.515344484048867
 32
0.0
 13
55.13206268468123
 23
63.515344484048867
 33
0.0
210
0.0
220
0.0
230
1.0
  0
SOLID
  5
73A
  8
DRG
  6
CONTINUOUS
 62
     7
 10
113.04380193800741
 20
65.415438293527714
 30
0.0
 11
90.367905114395256
 21
63.515353945851182
 31
0.0
 12
111.1437025217154
 22
63.515344484048867
 32
0.0
 13
111.1437025217154
 23
63.515344484048867
 33
0.0
  0
SOLID
  5
73B
  8
DRG
  6
CONTINUOUS
 62
     7
 10
32.456165110049618
 20
65.415454113162596
 30
0.0
 11
34.356265277361167
 21
63.515353945851103
 31
0.0
 12
57.032162100973231
 22
65.415438293527714
 32
0.0
 13
57.032162100973231
 23
65.415438293527714
 33
0.0
  0
SOLID
  5
73C
  8
DRG
  6
CONTINUOUS
 62
     7
 10
88.467804947083707
 20
65.415454113162724
 30
0.0
 11
90.367905114395256
 21
63.515353945851182
 31
0.0
 12
113.04380193800741
 22
65.415438293527714
 32
0.0
 13
113.04380193800741
 23
65.415438293527714
 33
0.0
210
0.0
220
0.0
230
1.0
  0
SOLID
  5
73D
  8
DRG
  6
CONTINUOUS
 62
     7
 10
67.603784599839159
 20
66.826779374647401
 30
0.0
 11
68.402987979876187
 21
64.89733173546756
 31
0.0
 12
84.501142256151084
 22
62.072518178885289
 32
0.0
 13
84.501142256151084
 23
62.072518178885289
 33
0.0
210
0.0
220
0.0
230
1.0
  0
SOLID
  5
73E
  8
DRG
  6
CONTINUOUS
 62
     7
 10
58.461812367870422
 20
67.690704078216172
 30
0.0
 11
32.456165110049618
 21
65.415454113162596
 31
0.0
 12
57.032162100973231
 22
65.415438293527714
 32
0.0
 13
57.032162100973231
 23
65.415438293527714
 33
0.0
210
0.0
220
0.0
230
1.0
  0
SOLID
  5
73F
  8
DRG
  6
CONTINUOUS
 62
     7
 10
114.4734522049045
 20
67.690704078216172
 30
0.0
 11
88.467804947083707
 21
65.415454113162724
 31
0.0
 12
113.04380193800741
 22
65.415438293527714
 32
0.0
 13
113.04380193800741
 23
65.415438293527714
 33
0.0
210
0.0
220
0.0
230
1.0
  0
SOLID
  5
740
  8
DRG
  6
CONTINUOUS
 62
     7
 10
31.026516484836939
 20
67.690726866056622
 30
0.0
 11
32.456165110049618
 21
65.415454113162596
 31
0.0
 12
58.461812367870422
 22
67.690704078216172
 32
0.0
 13
58.461812367870422
 23
67.690704078216172
 33
0.0
210
0.0
220
0.0
230
1.0
  0
SOLID
  5
741
  8
DRG
  6
CONTINUOUS
 62
     7
 10
87.038156321871028
 20
67.690726866056806
 30
0.0
 11
88.467804947083707
 21
65.415454113162724
 31
0.0
 12
114.4734522049045
 22
67.690704078216172
 32
0.0
 13
114.4734522049045
 23
67.690704078216172
 33
0.0
210
0.0
220
0.0
230
1.0
  0
SOLID
  5
742
  8
DRG
  6
CONTINUOUS
 62
     7
 10
44.744171147941039
 20
68.794444026784149
 30
0.0
 11
31.026516484836939
 21
67.690726866056622
 31
0.0
 12
58.461812367870422
 22
67.690704078216172
 32
0.0
 13
58.461812367870422
 23
67.690704078216172
 33
0.0
  0
SOLID
  5
743
  8
DRG
  6
CONTINUOUS
 62
     7
 10
100.7558109849752
 20
68.794444026784163
 30
0.0
 11
87.038156321871028
 21
67.690726866056806
 31
0.0
 12
114.4734522049045
 22
67.690704078216172
 32
0.0
 13
114.4734522049045
 23
67.690704078216172
 33
0.0
210
0.0
220
0.0
230
1.0
  0
SOLID
  5
744
  8
DRG
  6
CONTINUOUS
 62
     7
 10
67.331191210151701
 20
68.89733173546756
 30
0.0
 11
67.603784599839159
 21
66.826779374647401
 31
0.0
 12
84.501142256151084
 22
62.072518178885289
 32
0.0
 13
84.501142256151084
 23
62.072518178885289
 33
0.0
210
0.0
220
0.0
230
1.0
  0
SOLID
  5
745
  8
DRG
  6
CONTINUOUS
 62
     7
 10
46.221788157680002
 20
69.088360324271363
 30
0.0
 11
44.744171147941039
 21
68.794444026784149
 31
0.0
 12
58.461812367870422
 22
67.690704078216172
 32
0.0
 13
58.461812367870422
 23
67.690704078216172
 33
0.0
210
0.0
220
0.0
230
1.0
  0
SOLID
  5
746
  8
DRG
  6
CONTINUOUS
 62
     7
 10
102.23342799471411
 20
69.088360324271378
 30
0.0
 11
100.7558109849752
 21
68.794444026784163
 31
0.0
 12
114.4734522049045
 22
67.690704078216172
 32
0.0
 13
114.4734522049045
 23
67.690704078216172
 33
0.0
210
0.0
220
0.0
230
1.0
  0
SOLID
  5
747
  8
DRG
  6
CONTINUOUS
 62
     7
 10
43.266554138202238
 20
69.088360324272159
 30
0.0
 11
31.026516484836939
 21
67.690726866056622
 31
0.0
 12
44.744171147941039
 22
68.794444026784149
 32
0.0
 13
44.744171147941039
 23
68.794444026784149
 33
0.0
210
0.0
220
0.0
230
1.0
  0
SOLID
  5
748
  8
DRG
  6
CONTINUOUS
 62
     7
 10
99.278193975236434
 20
69.088360324272173
 30
0.0
 11
87.038156321871028
 21
67.690726866056806
 31
0.0
 12
100.7558109849752
 22
68.794444026784163
 32
0.0
 13
100.7558109849752
 23
68.794444026784163
 33
0.0
210
0.0
220
0.0
230
1.0
  0
SOLID
  5
749
  8
DRG
  6
CONTINUOUS
 62
     7
 10
80.482556033578916
 20
69.876055965300111
 30
0.0
 11
67.331191210151701
 21
68.89733173546756
 31
0.0
 12
84.501142256151084
 22
62.072518178885289
 32
0.0
 13
84.501142256151084
 23
62.072518178885289
 33
0.0
210
0.0
220
0.0
230
1.0
  0
SOLID
  5
74A
  8
DRG
  6
CONTINUOUS
 62
     7
 10
84.501142256151084
 20
62.072518178885289
 30
0.0
 11
83.501142256151255
 21
69.876055965300111
 31
0.0
 12
80.482556033578916
 22
69.876055965300111
 32
0.0
 13
80.482556033578916
 23
69.876055965300111
 33
0.0
210
0.0
220
0.0
230
1.0
  0
SOLID
  5
74B
  8
DRG
  6
CONTINUOUS
 62
     7
 10
47.474451372317922
 20
69.925363124799233
 30
0.0
 11
46.221788157680002
 21
69.088360324271363
 31
0.0
 12
58.461812367870422
 22
67.690704078216172
 32
0.0
 13
58.461812367870422
 23
67.690704078216172
 33
0.0
210
0.0
220
0.0
230
1.0
  0
SOLID
  5
74C
  8
DRG
  6
CONTINUOUS
 62
     7
 10
103.4860912093521
 20
69.925363124799233
 30
0.0
 11
102.23342799471411
 21
69.088360324271378
 31
0.0
 12
114.4734522049045
 22
67.690704078216172
 32
0.0
 13
114.4734522049045
 23
67.690704078216172
 33
0.0
210
0.0
220
0.0
230
1.0
  0
SOLID
  5
74D
  8
DRG
  6
CONTINUOUS
 62
     7
 10
42.01389092356478
 20
69.925363124800725
 30
0.0
 11
31.026516484836939
 21
67.690726866056622
 31
0.0
 12
43.266554138202238
 22
69.088360324272159
 32
0.0
 13
43.266554138202238
 23
69.088360324272159
 33
0.0
  0
SOLID
  5
74E
  8
DRG
  6
CONTINUOUS
 62
     7
 10
98.025530760598997
 20
69.925363124800725
 30
0.0
 11
87.038156321871028
 21
67.690726866056806
 31
0.0
 12
99.278193975236434
 22
69.088360324272173
 32
0.0
 13
99.278193975236434
 23
69.088360324272173
 33
0.0
210
0.0
220
0.0
230
1.0
  0
SOLID
  5
74F
  8
DRG
  6
CONTINUOUS
 62
     7
 10
84.015250681967487
 20
70.00375669518948
 30
0.0
 11
83.501142256151255
 21
69.876055965300111
 31
0.0
 12
84.501142256151084
 22
62.072518178885289
 32
0.0
 13
84.501142256151084
 23
62.072518178885289
 33
0.0
  0
SOLID
  5
750
  8
DRG
  6
CONTINUOUS
 62
     7
 10
79.334505736483663
 20
70.104417367766246
 30
0.0
 11
67.331191210151701
 21
68.89733173546756
 31
0.0
 12
80.482556033578916
 22
69.876055965300111
 32
0.0
 13
80.482556033578916
 23
69.876055965300111
 33
0.0
210
0.0
220
0.0
230
1.0
  0
SOLID
  5
751
  8
DRG
  6
CONTINUOUS
 62
     7
 10
84.501142256151084
 20
70.214764581409185
 30
0.0
 11
84.015250681967487
 21
70.00375669518948
 31
0.0
 12
84.501142256151084
 22
62.072518178885289
 32
0.0
 13
84.501142256151084
 23
62.072518178885289
 33
0.0
210
0.0
220
0.0
230
1.0
  0
SOLID
  5
752
  8
DRG
  6
CONTINUOUS
 62
     7
 10
115.36096495653361
 20
70.227050937837092
 30
0.0
 11
103.4860912093521
 21
69.925363124799233
 31
0.0
 12
114.4734522049045
 22
67.690704078216172
 32
0.0
 13
114.4734522049045
 23
67.690704078216172
 33
0.0
210
0.0
220
0.0
230
1.0
  0
SOLID
  5
753
  8
DRG
  6
CONTINUOUS
 62
     7
 10
59.349325119499461
 20
70.227050937837092
 30
0.0
 11
47.474451372317922
 21
69.925363124799233
 31
0.0
 12
58.461812367870422
 22
67.690704078216172
 32
0.0
 13
58.461812367870422
 23
67.690704078216172
 33
0.0
210
0.0
220
0.0
230
1.0
  0
SOLID
  5
754
  8
DRG
  6
CONTINUOUS
 62
     7
 10
30.13900795348404
 20
70.227080527991475
 30
0.0
 11
31.026516484836939
 21
67.690726866056622
 31
0.0
 12
42.01389092356478
 22
69.925363124800725
 32
0.0
 13
42.01389092356478
 23
69.925363124800725
 33
0.0
210
0.0
220
0.0
230
1.0
  0
SOLID
  5
755
  8
DRG
  6
CONTINUOUS
 62
     7
 10
86.150647790518164
 20
70.227080527991717
 30
0.0
 11
87.038156321871028
 21
67.690726866056806
 31
0.0
 12
98.025530760598997
 22
69.925363124800725
 32
0.0
 13
98.025530760598997
 23
69.925363124800725
 33
0.0
210
0.0
220
0.0
230
1.0
  0
SOLID
  5
756
  8
DRG
  6
CONTINUOUS
 62
     7
 10
78.361235690019285
 20
70.754735621740465
 30
0.0
 11
67.331191210151701
 21
68.89733173546756
 31
0.0
 12
79.334505736483663
 22
70.104417367766246
 32
0.0
 13
79.334505736483663
 23
70.104417367766246
 33
0.0
210
0.0
220
0.0
230
1.0
  0
SOLID
  5
757
  8
DRG
  6
CONTINUOUS
 62
     7
 10
48.311454172846467
 20
71.178026339436684
 30
0.0
 11
47.474451372317922
 21
69.925363124799233
 31
0.0
 12
59.349325119499461
 22
70.227050937837092
 32
0.0
 13
59.349325119499461
 23
70.227050937837092
 33
0.0
210
0.0
220
0.0
230
1.0
  0
SOLID
  5
758
  8
DRG
  6
CONTINUOUS
 62
     7
 10
104.32309400988061
 20
71.178026339436713
 30
0.0
 11
103.4860912093521
 21
69.925363124799233
 31
0.0
 12
115.36096495653361
 22
70.227050937837092
 32
0.0
 13
115.36096495653361
 23
70.227050937837092
 33
0.0
210
0.0
220
0.0
230
1.0
  0
SOLID
  5
759
  8
DRG
  6
CONTINUOUS
 62
     7
 10
41.17688812303691
 20
71.178026339438631
 30
0.0
 11
30.13900795348404
 21
70.227080527991475
 31
0.0
 12
42.01389092356478
 22
69.925363124800725
 32
0.0
 13
42.01389092356478
 23
69.925363124800725
 33
0.0
210
0.0
220
0.0
230
1.0
  0
SOLID
  5
75A
  8
DRG
  6
CONTINUOUS
 62
     7
 10
97.188527960071099
 20
71.178026339438631
 30
0.0
 11
86.150647790518164
 21
70.227080527991717
 31
0.0
 12
98.025530760598997
 22
69.925363124800725
 32
0.0
 13
98.025530760598997
 23
69.925363124800725
 33
0.0
  0
SOLID
  5
75B
  8
DRG
  6
CONTINUOUS
 62
     7
 10
77.710917436045065
 20
71.728005668204844
 30
0.0
 11
67.331191210151701
 21
68.89733173546756
 31
0.0
 12
78.361235690019285
 22
70.754735621740465
 32
0.0
 13
78.361235690019285
 23
70.754735621740465
 33
0.0
  0
SOLID
  5
75C
  8
DRG
  6
CONTINUOUS
 62
     7
 10
48.605370470334492
 20
72.655643349175492
 30
0.0
 11
48.311454172846467
 21
71.178026339436684
 31
0.0
 12
59.349325119499461
 22
70.227050937837092
 32
0.0
 13
59.349325119499461
 23
70.227050937837092
 33
0.0
210
0.0
220
0.0
230
1.0
  0
SOLID
  5
75D
  8
DRG
  6
CONTINUOUS
 62
     7
 10
104.6170103073686
 20
72.655643349175506
 30
0.0
 11
104.32309400988061
 21
71.178026339436713
 31
0.0
 12
115.36096495653361
 22
70.227050937837092
 32
0.0
 13
115.36096495653361
 23
70.227050937837092
 33
0.0
210
0.0
220
0.0
230
1.0
  0
SOLID
  5
75E
  8
DRG
  6
CONTINUOUS
 62
     7
 10
40.882971825549703
 20
72.655643349177566
 30
0.0
 11
30.13900795348404
 21
70.227080527991475
 31
0.0
 12
41.17688812303691
 22
71.178026339438631
 32
0.0
 13
41.17688812303691
 23
71.178026339438631
 33
0.0
210
0.0
220
0.0
230
1.0
  0
SOLID
  5
75F
  8
DRG
  6
CONTINUOUS
 62
     7
 10
96.894611662583884
 20
72.655643349177595
 30
0.0
 11
86.150647790518164
 21
70.227080527991717
 31
0.0
 12
97.188527960071099
 22
71.178026339438631
 32
0.0
 13
97.188527960071099
 23
71.178026339438631
 33
0.0
210
0.0
220
0.0
230
1.0
  0
SOLID
  5
760
  8
DRG
  6
CONTINUOUS
 62
     7
 10
77.482556033578931
 20
72.876055965300111
 30
0.0
 11
67.331191210151701
 21
68.89733173546756
 31
0.0
 12
77.710917436045065
 22
71.728005668204844
 32
0.0
 13
77.710917436045065
 23
71.728005668204844
 33
0.0
210
0.0
220
0.0
230
1.0
  0
SOLID
  5
761
  8
DRG
  6
CONTINUOUS
 62
     7
 10
115.6618367640986
 20
72.897296325816527
 30
0.0
 11
104.6170103073686
 21
72.655643349175506
 31
0.0
 12
115.36096495653361
 22
70.227050937837092
 32
0.0
 13
115.36096495653361
 23
70.227050937837092
 33
0.0
210
0.0
220
0.0
230
1.0
  0
SOLID
  5
762
  8
DRG
  6
CONTINUOUS
 62
     7
 10
59.650196927064421
 20
72.897296325816555
 30
0.0
 11
48.605370470334492
 21
72.655643349175492
 31
0.0
 12
59.349325119499461
 22
70.227050937837092
 32
0.0
 13
59.349325119499461
 23
70.227050937837092
 33
0.0
210
0.0
220
0.0
230
1.0
  0
SOLID
  5
763
  8
DRG
  6
CONTINUOUS
 62
     7
 10
29.838142899665851
 20
72.897331735467191
 30
0.0
 11
30.13900795348404
 21
70.227080527991475
 31
0.0
 12
40.882971825549703
 22
72.655643349177566
 32
0.0
 13
40.882971825549703
 23
72.655643349177566
 33
0.0
  0
SOLID
  5
764
  8
DRG
  6
CONTINUOUS
 62
     7
 10
85.849782736700035
 20
72.897331735467475
 30
0.0
 11
86.150647790518164
 21
70.227080527991717
 31
0.0
 12
96.894611662583884
 22
72.655643349177595
 32
0.0
 13
96.894611662583884
 23
72.655643349177595
 33
0.0
  0
SOLID
  5
765
  8
DRG
  6
CONTINUOUS
 62
     7
 10
165.4162645291251
 20
78.311404477182364
 30
0.0
 11
161.3332883364622
 21
62.115696081838678
 31
0.0
 12
171.78072804963571
 22
62.115696081838678
 32
0.0
 13
171.78072804963571
 23
62.115696081838678
 33
0.0
210
0.0
220
0.0
230
1.0
  0
SOLID
  5
766
  8
DRG
  6
CONTINUOUS
 62
     7
 10
48.825355035771203
 20
81.496816718755184
 30
0.0
 11
48.605370470334492
 21
72.655643349175492
 31
0.0
 12
59.650196927064421
 22
72.897296325816555
 32
0.0
 13
59.650196927064421
 23
72.897296325816555
 33
0.0
210
0.0
220
0.0
230
1.0
  0
SOLID
  5
767
  8
DRG
  6
CONTINUOUS
 62
     7
 10
104.83699487280531
 20
81.496816718755184
 30
0.0
 11
104.6170103073686
 21
72.655643349175506
 31
0.0
 12
115.6618367640986
 22
72.897296325816527
 32
0.0
 13
115.6618367640986
 23
72.897296325816527
 33
0.0
210
0.0
220
0.0
230
1.0
  0
SOLID
  5
768
  8
DRG
  6
CONTINUOUS
 62
     7
 10
115.9613008061006
 20
81.496816718755412
 30
0.0
 11
104.83699487280531
 21
81.496816718755184
 31
0.0
 12
115.6618367640986
 22
72.897296325816527
 32
0.0
 13
115.6618367640986
 23
72.897296325816527
 33
0.0
210
0.0
220
0.0
230
1.0
  0
SOLID
  5
769
  8
DRG
  6
CONTINUOUS
 62
     7
 10
59.9496609690664
 20
81.49681671875544
 30
0.0
 11
48.825355035771203
 21
81.496816718755184
 31
0.0
 12
59.650196927064421
 22
72.897296325816555
 32
0.0
 13
59.650196927064421
 23
72.897296325816555
 33
0.0
210
0.0
220
0.0
230
1.0
  0
SOLID
  5
76A
  8
DRG
  6
CONTINUOUS
 62
     7
 10
29.538681326817759
 20
81.496816718755596
 30
0.0
 11
29.838142899665851
 21
72.897331735467191
 31
0.0
 12
40.882971825549703
 22
72.655643349177566
 32
0.0
 13
40.882971825549703
 23
72.655643349177566
 33
0.0
  0
SOLID
  5
76B
  8
DRG
  6
CONTINUOUS
 62
     7
 10
85.550321163851976
 20
81.496816718755767
 30
0.0
 11
85.849782736700035
 21
72.897331735467475
 31
0.0
 12
96.894611662583884
 22
72.655643349177595
 32
0.0
 13
96.894611662583884
 23
72.655643349177595
 33
0.0
210
0.0
220
0.0
230
1.0
  0
SOLID
  5
76C
  8
DRG
  6
CONTINUOUS
 62
     7
 10
40.662987260112992
 20
81.496816718755866
 30
0.0
 11
29.538681326817759
 21
81.496816718755596
 31
0.0
 12
40.882971825549703
 22
72.655643349177566
 32
0.0
 13
40.882971825549703
 23
72.655643349177566
 33
0.0
210
0.0
220
0.0
230
1.0
  0
SOLID
  5
76D
  8
DRG
  6
CONTINUOUS
 62
     7
 10
96.674627097147194
 20
81.496816718756293
 30
0.0
 11
85.550321163851976
 21
81.496816718755767
 31
0.0
 12
96.894611662583884
 22
72.655643349177595
 32
0.0
 13
96.894611662583884
 23
72.655643349177595
 33
0.0
210
0.0
220
0.0
230
1.0
  0
SOLID
  5
76E
  8
DRG
  6
CONTINUOUS
 62
     7
 10
153.2899770207527
 20
82.583583780839575
 30
0.0
 11
161.3332883364622
 21
62.115696081838678
 31
0.0
 12
165.4162645291251
 22
78.311404477182364
 32
0.0
 13
165.4162645291251
 23
78.311404477182364
 33
0.0
210
0.0
220
0.0
230
1.0
  0
SOLID
  5
76F
  8
DRG
  6
CONTINUOUS
 62
     7
 10
18.821661727211438
 20
85.569427875032716
 30
0.0
 11
7.7802673214059723
 21
62.115696081838671
 31
0.0
 12
18.821661727211438
 22
62.115696081838678
 32
0.0
 13
18.821661727211438
 23
62.115696081838678
 33
0.0
  0
SOLID
  5
770
  8
DRG
  6
CONTINUOUS
 62
     7
 10
130.05101171535759
 20
85.569427875032716
 30
0.0
 11
119.0096173095521
 21
62.115696081838678
 31
0.0
 12
130.05101171535759
 22
62.115696081838671
 32
0.0
 13
130.05101171535759
 23
62.115696081838671
 33
0.0
210
0.0
220
0.0
230
1.0
  0
SOLID
  5
771
  8
DRG
  6
CONTINUOUS
 62
     7
 10
176.9709164189357
 20
86.855763084496857
 30
0.0
 11
153.2899770207527
 21
82.583583780839575
 31
0.0
 12
165.4162645291251
 22
78.311404477182364
 32
0.0
 13
165.4162645291251
 23
78.311404477182364
 33
0.0
210
0.0
220
0.0
230
1.0
  0
SOLID
  5
772
  8
DRG
  6
CONTINUOUS
 62
     7
 10
176.9709164189357
 20
86.855763084496857
 30
0.0
 11
165.4162645291251
 21
78.311404477182364
 31
0.0
 12
176.9709164189357
 22
78.31140447718235
 32
0.0
 13
176.9709164189357
 23
78.31140447718235
 33
0.0
210
0.0
220
0.0
230
1.0
  0
SOLID
  5
773
  8
DRG
  6
CONTINUOUS
 62
     7
 10
165.4162645291251
 20
86.855763084496886
 30
0.0
 11
153.2899770207527
 21
82.583583780839575
 31
0.0
 12
176.9709164189357
 22
86.855763084496857
 32
0.0
 13
176.9709164189357
 23
86.855763084496857
 33
0.0
210
0.0
220
0.0
230
1.0
  0
SOLID
  5
774
  8
DRG
  6
CONTINUOUS
 62
     7
 10
19.0942551168989
 20
87.639980235852875
 30
0.0
 11
7.7802673214059723
 21
62.115696081838671
 31
0.0
 12
18.821661727211438
 22
85.569427875032716
 32
0.0
 13
18.821661727211438
 23
85.569427875032716
 33
0.0
  0
SOLID
  5
775
  8
DRG
  6
CONTINUOUS
 62
     7
 10
130.323605105045
 20
87.639980235852889
 30
0.0
 11
119.0096173095521
 21
62.115696081838678
 31
0.0
 12
130.05101171535759
 22
85.569427875032716
 32
0.0
 13
130.05101171535759
 23
85.569427875032716
 33
0.0
210
0.0
220
0.0
230
1.0
  0
SOLID
  5
776
  8
DRG
  6
CONTINUOUS
 62
     7
 10
131.12280848508209
 20
89.569427875032716
 30
0.0
 11
119.0096173095521
 21
62.115696081838678
 31
0.0
 12
130.323605105045
 22
87.639980235852889
 32
0.0
 13
130.323605105045
 23
87.639980235852889
 33
0.0
210
0.0
220
0.0
230
1.0
  0
SOLID
  5
777
  8
DRG
  6
CONTINUOUS
 62
     7
 10
19.893458496935931
 20
89.569427875032716
 30
0.0
 11
7.7802673214059723
 21
62.115696081838671
 31
0.0
 12
19.0942551168989
 22
87.639980235852875
 32
0.0
 13
19.0942551168989
 23
87.639980235852875
 33
0.0
210
0.0
220
0.0
230
1.0
  0
SOLID
  5
778
  8
DRG
  6
CONTINUOUS
 62
     7
 10
29.83814289966584
 20
90.096301702044016
 30
0.0
 11
29.538681326817759
 21
81.496816718755596
 31
0.0
 12
40.662987260112992
 22
81.496816718755866
 32
0.0
 13
40.662987260112992
 23
81.496816718755866
 33
0.0
210
0.0
220
0.0
230
1.0
  0
SOLID
  5
779
  8
DRG
  6
CONTINUOUS
 62
     7
 10
85.849782736700035
 20
90.096301702044045
 30
0.0
 11
85.550321163851976
 21
81.496816718755767
 31
0.0
 12
96.674627097147194
 22
81.496816718756293
 32
0.0
 13
96.674627097147194
 23
81.496816718756293
 33
0.0
210
0.0
220
0.0
230
1.0
  0
SOLID
  5
77A
  8
DRG
  6
CONTINUOUS
 62
     7
 10
115.6618367640986
 20
90.096337111694325
 30
0.0
 11
104.83699487280531
 21
81.496816718755184
 31
0.0
 12
115.9613008061006
 22
81.496816718755412
 32
0.0
 13
115.9613008061006
 23
81.496816718755412
 33
0.0
210
0.0
220
0.0
230
1.0
  0
SOLID
  5
77B
  8
DRG
  6
CONTINUOUS
 62
     7
 10
59.650196927064421
 20
90.096337111694368
 30
0.0
 11
48.825355035771203
 21
81.496816718755184
 31
0.0
 12
59.9496609690664
 22
81.49681671875544
 32
0.0
 13
59.9496609690664
 23
81.49681671875544
 33
0.0
210
0.0
220
0.0
230
1.0
  0
SOLID
  5
77C
  8
DRG
  6
CONTINUOUS
 62
     7
 10
40.882971825549703
 20
90.337990088334166
 30
0.0
 11
29.83814289966584
 21
90.096301702044016
 31
0.0
 12
40.662987260112992
 22
81.496816718755866
 32
0.0
 13
40.662987260112992
 23
81.496816718755866
 33
0.0
  0
SOLID
  5
77D
  8
DRG
  6
CONTINUOUS
 62
     7
 10
104.6170103073686
 20
90.337990088334735
 30
0.0
 11
104.83699487280531
 21
81.496816718755184
 31
0.0
 12
115.6618367640986
 22
90.096337111694325
 32
0.0
 13
115.6618367640986
 23
90.096337111694325
 33
0.0
210
0.0
220
0.0
230
1.0
  0
SOLID
  5
77E
  8
DRG
  6
CONTINUOUS
 62
     7
 10
48.605370470334456
 20
90.337990088334735
 30
0.0
 11
48.825355035771203
 21
81.496816718755184
 31
0.0
 12
59.650196927064421
 22
90.096337111694368
 32
0.0
 13
59.650196927064421
 23
90.096337111694368
 33
0.0
210
0.0
220
0.0
230
1.0
  0
SOLID
  5
77F
  8
DRG
  6
CONTINUOUS
 62
     7
 10
96.894611662583884
 20
90.337990088335033
 30
0.0
 11
85.849782736700035
 21
90.096301702044045
 31
0.0
 12
96.674627097147194
 22
81.496816718756293
 32
0.0
 13
96.674627097147194
 23
81.496816718756293
 33
0.0
210
0.0
220
0.0
230
1.0
  0
SOLID
  5
780
  8
DRG
  6
CONTINUOUS
 62
     7
 10
41.176888123037209
 20
91.815607098073087
 30
0.0
 11
29.83814289966584
 21
90.096301702044016
 31
0.0
 12
40.882971825549703
 22
90.337990088334166
 32
0.0
 13
40.882971825549703
 23
90.337990088334166
 33
0.0
210
0.0
220
0.0
230
1.0
  0
SOLID
  5
781
  8
DRG
  6
CONTINUOUS
 62
     7
 10
48.311454172846773
 20
91.815607098073613
 30
0.0
 11
48.605370470334456
 21
90.337990088334735
 31
0.0
 12
59.650196927064421
 22
90.096337111694368
 32
0.0
 13
59.650196927064421
 23
90.096337111694368
 33
0.0
210
0.0
220
0.0
230
1.0
  0
SOLID
  5
782
  8
DRG
  6
CONTINUOUS
 62
     7
 10
104.3230940098811
 20
91.815607098073656
 30
0.0
 11
104.6170103073686
 21
90.337990088334735
 31
0.0
 12
115.6618367640986
 22
90.096337111694325
 32
0.0
 13
115.6618367640986
 23
90.096337111694325
 33
0.0
210
0.0
220
0.0
230
1.0
  0
SOLID
  5
783
  8
DRG
  6
CONTINUOUS
 62
     7
 10
97.188527960071553
 20
91.815607098073897
 30
0.0
 11
85.849782736700035
 21
90.096301702044045
 31
0.0
 12
96.894611662583884
 22
90.337990088335033
 32
0.0
 13
96.894611662583884
 23
90.337990088335033
 33
0.0
210
0.0
220
0.0
230
1.0
  0
SOLID
  5
784
  8
DRG
  6
CONTINUOUS
 62
     7
 10
30.139007953484011
 20
92.766552909519746
 30
0.0
 11
29.83814289966584
 21
90.096301702044016
 31
0.0
 12
41.176888123037209
 22
91.815607098073087
 32
0.0
 13
41.176888123037209
 23
91.815607098073087
 33
0.0
210
0.0
220
0.0
230
1.0
  0
SOLID
  5
785
  8
DRG
  6
CONTINUOUS
 62
     7
 10
86.150647790518178
 20
92.766552909519746
 30
0.0
 11
85.849782736700035
 21
90.096301702044045
 31
0.0
 12
97.188527960071553
 22
91.815607098073897
 32
0.0
 13
97.188527960071553
 23
91.815607098073897
 33
0.0
210
0.0
220
0.0
230
1.0
  0
SOLID
  5
786
  8
DRG
  6
CONTINUOUS
 62
     7
 10
115.36096495653371
 20
92.766582499673873
 30
0.0
 11
104.3230940098811
 21
91.815607098073656
 31
0.0
 12
115.6618367640986
 22
90.096337111694325
 32
0.0
 13
115.6618367640986
 23
90.096337111694325
 33
0.0
210
0.0
220
0.0
230
1.0
  0
SOLID
  5
787
  8
DRG
  6
CONTINUOUS
 62
     7
 10
59.349325119499539
 20
92.766582499673916
 30
0.0
 11
48.311454172846773
 21
91.815607098073613
 31
0.0
 12
59.650196927064421
 22
90.096337111694368
 32
0.0
 13
59.650196927064421
 23
90.096337111694368
 33
0.0
210
0.0
220
0.0
230
1.0
  0
SOLID
  5
788
  8
DRG
  6
CONTINUOUS
 62
     7
 10
42.013890923565327
 20
93.068270312710808
 30
0.0
 11
30.139007953484011
 21
92.766552909519746
 31
0.0
 12
41.176888123037209
 22
91.815607098073087
 32
0.0
 13
41.176888123037209
 23
91.815607098073087
 33
0.0
210
0.0
220
0.0
230
1.0
  0
SOLID
  5
789
  8
DRG
  6
CONTINUOUS
 62
     7
 10
47.474451372318462
 20
93.068270312711235
 30
0.0
 11
48.311454172846773
 21
91.815607098073613
 31
0.0
 12
59.349325119499539
 22
92.766582499673916
 32
0.0
 13
59.349325119499539
 23
92.766582499673916
 33
0.0
210
0.0
220
0.0
230
1.0
  0
SOLID
  5
78A
  8
DRG
  6
CONTINUOUS
 62
     7
 10
103.48609120935291
 20
93.068270312711363
 30
0.0
 11
104.3230940098811
 21
91.815607098073656
 31
0.0
 12
115.36096495653371
 22
92.766582499673873
 32
0.0
 13
115.36096495653371
 23
92.766582499673873
 33
0.0
  0
SOLID
  5
78B
  8
DRG
  6
CONTINUOUS
 62
     7
 10
98.025530760599821
 20
93.068270312711576
 30
0.0
 11
86.150647790518178
 21
92.766552909519746
 31
0.0
 12
97.188527960071553
 22
91.815607098073897
 32
0.0
 13
97.188527960071553
 23
91.815607098073897
 33
0.0
210
0.0
220
0.0
230
1.0
  0
SOLID
  5
78C
  8
DRG
  6
CONTINUOUS
 62
     7
 10
43.266554138202949
 20
93.905273113239119
 30
0.0
 11
30.139007953484011
 21
92.766552909519746
 31
0.0
 12
42.013890923565327
 22
93.068270312710808
 32
0.0
 13
42.013890923565327
 23
93.068270312710808
 33
0.0
  0
SOLID
  5
78D
  8
DRG
  6
CONTINUOUS
 62
     7
 10
46.221788157680713
 20
93.90527311323936
 30
0.0
 11
47.474451372318462
 21
93.068270312711235
 31
0.0
 12
59.349325119499539
 22
92.766582499673916
 32
0.0
 13
59.349325119499539
 23
92.766582499673916
 33
0.0
210
0.0
220
0.0
230
1.0
  0
SOLID
  5
78E
  8
DRG
  6
CONTINUOUS
 62
     7
 10
102.2334279947152
 20
93.905273113239616
 30
0.0
 11
103.48609120935291
 21
93.068270312711363
 31
0.0
 12
115.36096495653371
 22
92.766582499673873
 32
0.0
 13
115.36096495653371
 23
92.766582499673873
 33
0.0
210
0.0
220
0.0
230
1.0
  0
SOLID
  5
78F
  8
DRG
  6
CONTINUOUS
 62
     7
 10
99.278193975237528
 20
93.905273113239744
 30
0.0
 11
86.150647790518178
 21
92.766552909519746
 31
0.0
 12
98.025530760599821
 22
93.068270312711576
 32
0.0
 13
98.025530760599821
 23
93.068270312711576
 33
0.0
210
0.0
220
0.0
230
1.0
  0
SOLID
  5
790
  8
DRG
  6
CONTINUOUS
 62
     7
 10
44.744171147941813
 20
94.199189410726845
 30
0.0
 11
30.139007953484011
 21
92.766552909519746
 31
0.0
 12
43.266554138202949
 22
93.905273113239119
 32
0.0
 13
43.266554138202949
 23
93.905273113239119
 33
0.0
210
0.0
220
0.0
230
1.0
  0
SOLID
  5
791
  8
DRG
  6
CONTINUOUS
 62
     7
 10
44.744171147941813
 20
94.199189410726845
 30
0.0
 11
46.221788157680713
 21
93.90527311323936
 31
0.0
 12
59.349325119499539
 22
92.766582499673916
 32
0.0
 13
59.349325119499539
 23
92.766582499673916
 33
0.0
210
0.0
220
0.0
230
1.0
  0
SOLID
  5
792
  8
DRG
  6
CONTINUOUS
 62
     7
 10
100.75581098497641
 20
94.199189410727286
 30
0.0
 11
86.150647790518178
 21
92.766552909519746
 31
0.0
 12
99.278193975237528
 22
93.905273113239744
 32
0.0
 13
99.278193975237528
 23
93.905273113239744
 33
0.0
  0
SOLID
  5
793
  8
DRG
  6
CONTINUOUS
 62
     7
 10
100.75581098497641
 20
94.199189410727286
 30
0.0
 11
102.2334279947152
 21
93.905273113239616
 31
0.0
 12
115.36096495653371
 22
92.766582499673873
 32
0.0
 13
115.36096495653371
 23
92.766582499673873
 33
0.0
210
0.0
220
0.0
230
1.0
  0
SOLID
  5
794
  8
DRG
  6
CONTINUOUS
 62
     7
 10
77.482556033578931
 20
94.593352860836134
 30
0.0
 11
67.331191210151701
 21
68.89733173546756
 31
0.0
 12
77.482556033578931
 22
72.876055965300111
 32
0.0
 13
77.482556033578931
 23
72.876055965300111
 33
0.0
210
0.0
220
0.0
230
1.0
  0
SOLID
  5
795
  8
DRG
  6
CONTINUOUS
 62
     7
 10
67.331191210151687
 20
94.593352860836134
 30
0.0
 11
77.482556033578931
 21
94.593352860836134
 31
0.0
 12
84.553623006881026
 22
94.593352860836134
 32
0.0
 13
84.553623006881026
 23
94.593352860836134
 33
0.0
210
0.0
220
0.0
230
1.0
  0
SOLID
  5
796
  8
DRG
  6
CONTINUOUS
 62
     7
 10
67.331191210151687
 20
94.593352860836134
 30
0.0
 11
67.331191210151701
 21
68.89733173546756
 31
0.0
 12
77.482556033578931
 22
94.593352860836134
 32
0.0
 13
77.482556033578931
 23
94.593352860836134
 33
0.0
210
0.0
220
0.0
230
1.0
  0
SOLID
  5
797
  8
DRG
  6
CONTINUOUS
 62
     7
 10
87.038156321871057
 20
95.302906571454614
 30
0.0
 11
86.150647790518178
 21
92.766552909519746
 31
0.0
 12
100.75581098497641
 22
94.199189410727286
 32
0.0
 13
100.75581098497641
 23
94.199189410727286
 33
0.0
  0
SOLID
  5
798
  8
DRG
  6
CONTINUOUS
 62
     7
 10
31.02651648483689
 20
95.302906571454614
 30
0.0
 11
30.139007953484011
 21
92.766552909519746
 31
0.0
 12
44.744171147941813
 22
94.199189410726845
 32
0.0
 13
44.744171147941813
 23
94.199189410726845
 33
0.0
210
0.0
220
0.0
230
1.0
  0
SOLID
  5
799
  8
DRG
  6
CONTINUOUS
 62
     7
 10
114.4734522049047
 20
95.302929359294865
 30
0.0
 11
87.038156321871057
 21
95.302906571454614
 31
0.0
 12
100.75581098497641
 22
94.199189410727286
 32
0.0
 13
100.75581098497641
 23
94.199189410727286
 33
0.0
210
0.0
220
0.0
230
1.0
  0
SOLID
  5
79A
  8
DRG
  6
CONTINUOUS
 62
     7
 10
114.4734522049047
 20
95.302929359294865
 30
0.0
 11
100.75581098497641
 21
94.199189410727286
 31
0.0
 12
115.36096495653371
 22
92.766582499673873
 32
0.0
 13
115.36096495653371
 23
92.766582499673873
 33
0.0
210
0.0
220
0.0
230
1.0
  0
SOLID
  5
79B
  8
DRG
  6
CONTINUOUS
 62
     7
 10
58.461812367870529
 20
95.302929359294907
 30
0.0
 11
31.02651648483689
 21
95.302906571454614
 31
0.0
 12
44.744171147941813
 22
94.199189410726845
 32
0.0
 13
44.744171147941813
 23
94.199189410726845
 33
0.0
210
0.0
220
0.0
230
1.0
  0
SOLID
  5
79C
  8
DRG
  6
CONTINUOUS
 62
     7
 10
58.461812367870529
 20
95.302929359294907
 30
0.0
 11
44.744171147941813
 21
94.199189410726845
 31
0.0
 12
59.349325119499539
 22
92.766582499673916
 32
0.0
 13
59.349325119499539
 23
92.766582499673916
 33
0.0
210
0.0
220
0.0
230
1.0
  0
SOLID
  5
79D
  8
DRG
  6
CONTINUOUS
 62
     7
 10
88.467804947083764
 20
97.578179324348682
 30
0.0
 11
87.038156321871057
 21
95.302906571454614
 31
0.0
 12
114.4734522049047
 22
95.302929359294865
 32
0.0
 13
114.4734522049047
 23
95.302929359294865
 33
0.0
210
0.0
220
0.0
230
1.0
  0
SOLID
  5
79E
  8
DRG
  6
CONTINUOUS
 62
     7
 10
32.456165110049582
 20
97.578179324348682
 30
0.0
 11
31.02651648483689
 21
95.302906571454614
 31
0.0
 12
58.461812367870529
 22
95.302929359294907
 32
0.0
 13
58.461812367870529
 23
95.302929359294907
 33
0.0
210
0.0
220
0.0
230
1.0
  0
SOLID
  5
79F
  8
DRG
  6
CONTINUOUS
 62
     7
 10
113.0438019380075
 20
97.578195143983422
 30
0.0
 11
88.467804947083764
 21
97.578179324348682
 31
0.0
 12
114.4734522049047
 22
95.302929359294865
 32
0.0
 13
114.4734522049047
 23
95.302929359294865
 33
0.0
210
0.0
220
0.0
230
1.0
  0
SOLID
  5
7A0
  8
DRG
  6
CONTINUOUS
 62
     7
 10
57.03216210097338
 20
97.578195143983436
 30
0.0
 11
32.456165110049582
 21
97.578179324348682
 31
0.0
 12
58.461812367870529
 22
95.302929359294907
 32
0.0
 13
58.461812367870529
 23
95.302929359294907
 33
0.0
210
0.0
220
0.0
230
1.0
  0
SOLID
  5
7A1
  8
DRG
  6
CONTINUOUS
 62
     7
 10
130.05101171535759
 20
97.915857504065855
 30
0.0
 11
138.05101171535759
 21
93.569427875032716
 31
0.0
 12
139.4206293992797
 22
93.56942787503273
 32
0.0
 13
139.4206293992797
 23
93.56942787503273
 33
0.0
210
0.0
220
0.0
230
1.0
  0
SOLID
  5
7A2
  8
DRG
  6
CONTINUOUS
 62
     7
 10
130.05101171535759
 20
97.915857504065855
 30
0.0
 11
135.9804593545374
 21
93.296834485345258
 31
0.0
 12
138.05101171535759
 22
93.569427875032716
 32
0.0
 13
138.05101171535759
 23
93.569427875032716
 33
0.0
  0
SOLID
  5
7A3
  8
DRG
  6
CONTINUOUS
 62
     7
 10
130.05101171535759
 20
97.915857504065855
 30
0.0
 11
134.05101171535759
 21
92.49763110530823
 31
0.0
 12
135.9804593545374
 22
93.296834485345258
 32
0.0
 13
135.9804593545374
 23
93.296834485345258
 33
0.0
210
0.0
220
0.0
230
1.0
  0
SOLID
  5
7A4
  8
DRG
  6
CONTINUOUS
 62
     7
 10
130.05101171535759
 20
97.915857504065855
 30
0.0
 11
132.39415746586519
 21
91.226282124525085
 31
0.0
 12
134.05101171535759
 22
92.49763110530823
 32
0.0
 13
134.05101171535759
 23
92.49763110530823
 33
0.0
210
0.0
220
0.0
230
1.0
  0
SOLID
  5
7A5
  8
DRG
  6
CONTINUOUS
 62
     7
 10
130.05101171535759
 20
97.915857504065855
 30
0.0
 11
131.12280848508209
 21
89.569427875032716
 31
0.0
 12
132.39415746586519
 22
91.226282124525085
 32
0.0
 13
132.39415746586519
 23
91.226282124525085
 33
0.0
210
0.0
220
0.0
230
1.0
  0
SOLID
  5
7A6
  8
DRG
  6
CONTINUOUS
 62
     7
 10
130.05101171535759
 20
97.915857504065855
 30
0.0
 11
119.0096173095521
 21
62.115696081838678
 31
0.0
 12
131.12280848508209
 22
89.569427875032716
 32
0.0
 13
131.12280848508209
 23
89.569427875032716
 33
0.0
  0
SOLID
  5
7A7
  8
DRG
  6
CONTINUOUS
 62
     7
 10
18.821661727211438
 20
97.915857504065912
 30
0.0
 11
26.821661727211438
 21
93.569427875032716
 31
0.0
 12
28.191279411133561
 22
93.56942787503273
 32
0.0
 13
28.191279411133561
 23
93.56942787503273
 33
0.0
  0
SOLID
  5
7A8
  8
DRG
  6
CONTINUOUS
 62
     7
 10
18.821661727211438
 20
97.915857504065912
 30
0.0
 11
24.751109366391269
 21
93.296834485345258
 31
0.0
 12
26.821661727211438
 22
93.569427875032716
 32
0.0
 13
26.821661727211438
 23
93.569427875032716
 33
0.0
210
0.0
220
0.0
230
1.0
  0
SOLID
  5
7A9
  8
DRG
  6
CONTINUOUS
 62
     7
 10
18.821661727211438
 20
97.915857504065912
 30
0.0
 11
22.821661727211449
 21
92.49763110530823
 31
0.0
 12
24.751109366391269
 22
93.296834485345258
 32
0.0
 13
24.751109366391269
 23
93.296834485345258
 33
0.0
210
0.0
220
0.0
230
1.0
  0
SOLID
  5
7AA
  8
DRG
  6
CONTINUOUS
 62
     7
 10
18.821661727211438
 20
97.915857504065912
 30
0.0
 11
21.164807477719059
 21
91.226282124525085
 31
0.0
 12
22.821661727211449
 22
92.49763110530823
 32
0.0
 13
22.821661727211449
 23
92.49763110530823
 33
0.0
210
0.0
220
0.0
230
1.0
  0
SOLID
  5
7AB
  8
DRG
  6
CONTINUOUS
 62
     7
 10
18.821661727211438
 20
97.915857504065912
 30
0.0
 11
19.893458496935931
 21
89.569427875032716
 31
0.0
 12
21.164807477719059
 22
91.226282124525085
 32
0.0
 13
21.164807477719059
 23
91.226282124525085
 33
0.0
210
0.0
220
0.0
230
1.0
  0
SOLID
  5
7AC
  8
DRG
  6
CONTINUOUS
 62
     7
 10
18.821661727211438
 20
97.915857504065912
 30
0.0
 11
7.7802673214059723
 21
62.115696081838671
 31
0.0
 12
19.893458496935931
 22
89.569427875032716
 32
0.0
 13
19.893458496935931
 23
89.569427875032716
 33
0.0
210
0.0
220
0.0
230
1.0
  0
SOLID
  5
7AD
  8
DRG
  6
CONTINUOUS
 62
     7
 10
90.367905114395313
 20
99.478279491660203
 30
0.0
 11
88.467804947083764
 21
97.578179324348682
 31
0.0
 12
113.0438019380075
 22
97.578195143983422
 32
0.0
 13
113.0438019380075
 23
97.578195143983422
 33
0.0
210
0.0
220
0.0
230
1.0
  0
SOLID
  5
7AE
  8
DRG
  6
CONTINUOUS
 62
     7
 10
34.356265277361132
 20
99.478279491660203
 30
0.0
 11
32.456165110049582
 21
97.578179324348682
 31
0.0
 12
57.03216210097338
 22
97.578195143983436
 32
0.0
 13
57.03216210097338
 23
97.578195143983436
 33
0.0
210
0.0
220
0.0
230
1.0
  0
SOLID
  5
7AF
  8
DRG
  6
CONTINUOUS
 62
     7
 10
111.1437025217155
 20
99.478288953462325
 30
0.0
 11
90.367905114395313
 21
99.478279491660203
 31
0.0
 12
113.0438019380075
 22
97.578195143983422
 32
0.0
 13
113.0438019380075
 23
97.578195143983422
 33
0.0
210
0.0
220
0.0
230
1.0
  0
SOLID
  5
7B0
  8
DRG
  6
CONTINUOUS
 62
     7
 10
55.132062684681358
 20
99.478288953462354
 30
0.0
 11
34.356265277361132
 21
99.478279491660203
 31
0.0
 12
57.03216210097338
 22
97.578195143983436
 32
0.0
 13
57.03216210097338
 23
97.578195143983436
 33
0.0
210
0.0
220
0.0
230
1.0
  0
SOLID
  5
7B1
  8
DRG
  6
CONTINUOUS
 62
     7
 10
131.90017275248141
 20
99.844187280346816
 30
0.0
 11
130.05101171535759
 21
97.915857504065855
 31
0.0
 12
139.4206293992797
 22
93.56942787503273
 32
0.0
 13
139.4206293992797
 23
93.56942787503273
 33
0.0
210
0.0
220
0.0
230
1.0
  0
SOLID
  5
7B2
  8
DRG
  6
CONTINUOUS
 62
     7
 10
20.670822764335242
 20
99.844187280346901
 30
0.0
 11
18.821661727211438
 21
97.915857504065912
 31
0.0
 12
28.191279411133561
 22
93.56942787503273
 32
0.0
 13
28.191279411133561
 23
93.56942787503273
 33
0.0
  0
SOLID
  5
7B3
  8
DRG
  6
CONTINUOUS
 62
     7
 10
36.631538030255221
 20
100.9079281168728
 30
0.0
 11
34.356265277361132
 21
99.478279491660203
 31
0.0
 12
55.132062684681358
 22
99.478288953462354
 32
0.0
 13
55.132062684681358
 23
99.478288953462354
 33
0.0
210
0.0
220
0.0
230
1.0
  0
SOLID
  5
7B4
  8
DRG
  6
CONTINUOUS
 62
     7
 10
92.643177867289396
 20
100.9079281168728
 30
0.0
 11
90.367905114395313
 21
99.478279491660203
 31
0.0
 12
111.1437025217155
 22
99.478288953462325
 32
0.0
 13
111.1437025217155
 23
99.478288953462325
 33
0.0
  0
SOLID
  5
7B5
  8
DRG
  6
CONTINUOUS
 62
     7
 10
52.856792681384711
 20
100.9079325064894
 30
0.0
 11
36.631538030255221
 21
100.9079281168728
 31
0.0
 12
55.132062684681358
 22
99.478288953462354
 32
0.0
 13
55.132062684681358
 23
99.478288953462354
 33
0.0
  0
SOLID
  5
7B6
  8
DRG
  6
CONTINUOUS
 62
     7
 10
108.8684325184189
 20
100.9079325064894
 30
0.0
 11
92.643177867289396
 21
100.9079281168728
 31
0.0
 12
111.1437025217155
 22
99.478288953462325
 32
0.0
 13
111.1437025217155
 23
99.478288953462325
 33
0.0
210
0.0
220
0.0
230
1.0
  0
SOLID
  5
7B7
  8
DRG
  6
CONTINUOUS
 62
     7
 10
134.18475166795781
 20
101.22930512597181
 30
0.0
 11
131.90017275248141
 21
99.844187280346816
 31
0.0
 12
139.4206293992797
 22
93.56942787503273
 32
0.0
 13
139.4206293992797
 23
93.56942787503273
 33
0.0
210
0.0
220
0.0
230
1.0
  0
SOLID
  5
7B8
  8
DRG
  6
CONTINUOUS
 62
     7
 10
22.955401679811722
 20
101.2293051259719
 30
0.0
 11
20.670822764335242
 21
99.844187280346901
 31
0.0
 12
28.191279411133561
 22
93.56942787503273
 32
0.0
 13
28.191279411133561
 23
93.56942787503273
 33
0.0
210
0.0
220
0.0
230
1.0
  0
SOLID
  5
7B9
  8
DRG
  6
CONTINUOUS
 62
     7
 10
39.167891692190111
 20
101.7954366482256
 30
0.0
 11
36.631538030255221
 21
100.9079281168728
 31
0.0
 12
52.856792681384711
 22
100.9079325064894
 32
0.0
 13
52.856792681384711
 23
100.9079325064894
 33
0.0
210
0.0
220
0.0
230
1.0
  0
SOLID
  5
7BA
  8
DRG
  6
CONTINUOUS
 62
     7
 10
95.179531529224278
 20
101.7954366482256
 30
0.0
 11
92.643177867289396
 21
100.9079281168728
 31
0.0
 12
108.8684325184189
 22
100.9079325064894
 32
0.0
 13
108.8684325184189
 23
100.9079325064894
 33
0.0
  0
SOLID
  5
7BB
  8
DRG
  6
CONTINUOUS
 62
     7
 10
50.320443202898389
 20
101.7954377738515
 30
0.0
 11
39.167891692190111
 21
101.7954366482256
 31
0.0
 12
52.856792681384711
 22
100.9079325064894
 32
0.0
 13
52.856792681384711
 23
100.9079325064894
 33
0.0
210
0.0
220
0.0
230
1.0
  0
SOLID
  5
7BC
  8
DRG
  6
CONTINUOUS
 62
     7
 10
106.3320830399325
 20
101.7954377738515
 30
0.0
 11
95.179531529224278
 21
101.7954366482256
 31
0.0
 12
108.8684325184189
 22
100.9079325064894
 32
0.0
 13
108.8684325184189
 23
100.9079325064894
 33
0.0
210
0.0
220
0.0
230
1.0
  0
SOLID
  5
7BD
  8
DRG
  6
CONTINUOUS
 62
     7
 10
136.74962306925659
 20
101.9771600330952
 30
0.0
 11
134.18475166795781
 21
101.22930512597181
 31
0.0
 12
139.4206293992797
 22
93.56942787503273
 32
0.0
 13
139.4206293992797
 23
93.56942787503273
 33
0.0
210
0.0
220
0.0
230
1.0
  0
SOLID
  5
7BE
  8
DRG
  6
CONTINUOUS
 62
     7
 10
25.520273081110439
 20
101.9771600330952
 30
0.0
 11
22.955401679811722
 21
101.2293051259719
 31
0.0
 12
28.191279411133561
 22
93.56942787503273
 32
0.0
 13
28.191279411133561
 23
93.56942787503273
 33
0.0
210
0.0
220
0.0
230
1.0
  0
SOLID
  5
7BF
  8
DRG
  6
CONTINUOUS
 62
     7
 10
77.482556033578931
 20
101.9948050433795
 30
0.0
 11
62.478989637268569
 21
94.593352860836134
 31
0.0
 12
67.331191210151687
 22
94.593352860836134
 32
0.0
 13
67.331191210151687
 23
94.593352860836134
 33
0.0
210
0.0
220
0.0
230
1.0
  0
SOLID
  5
7C0
  8
DRG
  6
CONTINUOUS
 62
     7
 10
77.482556033578931
 20
101.9948050433795
 30
0.0
 11
67.331191210151687
 21
94.593352860836134
 31
0.0
 12
84.553623006881026
 22
94.593352860836134
 32
0.0
 13
84.553623006881026
 23
94.593352860836134
 33
0.0
210
0.0
220
0.0
230
1.0
  0
SOLID
  5
7C1
  8
DRG
  6
CONTINUOUS
 62
     7
 10
62.478989637268562
 20
101.9948050433795
 30
0.0
 11
62.478989637268569
 21
94.593352860836134
 31
0.0
 12
77.482556033578931
 22
101.9948050433795
 32
0.0
 13
77.482556033578931
 23
101.9948050433795
 33
0.0
  0
SOLID
  5
7C2
  8
DRG
  6
CONTINUOUS
 62
     7
 10
84.553623006881026
 20
101.9948050433795
 30
0.0
 11
77.482556033578931
 21
101.9948050433795
 31
0.0
 12
84.553623006881026
 22
94.593352860836134
 32
0.0
 13
84.553623006881026
 23
94.593352860836134
 33
0.0
210
0.0
220
0.0
230
1.0
  0
SOLID
  5
7C3
  8
DRG
  6
CONTINUOUS
 62
     7
 10
67.331191210151701
 20
101.9948050433795
 30
0.0
 11
62.478989637268562
 21
101.9948050433795
 31
0.0
 12
77.482556033578931
 22
101.9948050433795
 32
0.0
 13
77.482556033578931
 23
101.9948050433795
 33
0.0
210
0.0
220
0.0
230
1.0
  0
SOLID
  5
7C4
  8
DRG
  6
CONTINUOUS
 62
     7
 10
139.4206293992797
 20
102.0369718403325
 30
0.0
 11
136.74962306925659
 21
101.9771600330952
 31
0.0
 12
139.4206293992797
 22
93.56942787503273
 32
0.0
 13
139.4206293992797
 23
93.56942787503273
 33
0.0
210
0.0
220
0.0
230
1.0
  0
SOLID
  5
7C5
  8
DRG
  6
CONTINUOUS
 62
     7
 10
7.7802673214059723
 20
102.0369718403326
 30
0.0
 11
7.7802673214059723
 21
62.115696081838671
 31
0.0
 12
18.821661727211438
 22
97.915857504065912
 32
0.0
 13
18.821661727211438
 23
97.915857504065912
 33
0.0
210
0.0
220
0.0
230
1.0
  0
SOLID
  5
7C6
  8
DRG
  6
CONTINUOUS
 62
     7
 10
142.11987082690661
 20
62.115696081838678
 30
0.0
 11
153.2899770207527
 21
102.0369718403326
 31
0.0
 12
142.11987082690661
 22
102.0369718403326
 32
0.0
 13
142.11987082690661
 23
102.0369718403326
 33
0.0
  0
SOLID
  5
7C7
  8
DRG
  6
CONTINUOUS
 62
     7
 10
153.2899770207527
 20
102.0369718403326
 30
0.0
 11
142.11987082690661
 21
62.115696081838678
 31
0.0
 12
153.2899770207527
 22
62.115696081838678
 32
0.0
 13
153.2899770207527
 23
62.115696081838678
 33
0.0
210
0.0
220
0.0
230
1.0
  0
SOLID
  5
7C8
  8
DRG
  6
CONTINUOUS
 62
     7
 10
18.821661727211438
 20
102.0369718403326
 30
0.0
 11
7.7802673214059723
 21
102.0369718403326
 31
0.0
 12
18.821661727211438
 22
97.915857504065912
 32
0.0
 13
18.821661727211438
 23
97.915857504065912
 33
0.0
  0
SOLID
  5
7C9
  8
DRG
  6
CONTINUOUS
 62
     7
 10
130.05101171535759
 20
102.0369718403326
 30
0.0
 11
119.0096173095521
 21
62.115696081838678
 31
0.0
 12
130.05101171535759
 22
97.915857504065855
 32
0.0
 13
130.05101171535759
 23
97.915857504065855
 33
0.0
210
0.0
220
0.0
230
1.0
  0
SOLID
  5
7CA
  8
DRG
  6
CONTINUOUS
 62
     7
 10
165.4162645291251
 20
86.855763084496886
 30
0.0
 11
171.38205787173379
 21
102.0369718403326
 31
0.0
 12
160.9346181585602
 22
102.0369718403326
 32
0.0
 13
160.9346181585602
 23
102.0369718403326
 33
0.0
210
0.0
220
0.0
230
1.0
  0
SOLID
  5
7CB
  8
DRG
  6
CONTINUOUS
 62
     7
 10
160.9346181585602
 20
102.0369718403326
 30
0.0
 11
153.2899770207527
 21
82.583583780839575
 31
0.0
 12
165.4162645291251
 22
86.855763084496886
 32
0.0
 13
165.4162645291251
 23
86.855763084496886
 33
0.0
  0
SOLID
  5
7CC
  8
DRG
  6
CONTINUOUS
 62
     7
 10
28.191279411133561
 20
102.0369718403326
 30
0.0
 11
25.520273081110439
 21
101.9771600330952
 31
0.0
 12
28.191279411133561
 22
93.56942787503273
 32
0.0
 13
28.191279411133561
 23
93.56942787503273
 33
0.0
  0
SOLID
  5
7CD
  8
DRG
  6
CONTINUOUS
 62
     7
 10
119.0096173095521
 20
102.0369718403326
 30
0.0
 11
119.0096173095521
 21
62.115696081838678
 31
0.0
 12
130.05101171535759
 22
102.0369718403326
 32
0.0
 13
130.05101171535759
 23
102.0369718403326
 33
0.0
210
0.0
220
0.0
230
1.0
  0
SOLID
  5
7CE
  8
DRG
  6
CONTINUOUS
 62
     7
 10
106.3320830399325
 20
101.7954377738515
 30
0.0
 11
103.66183676415081
 21
102.0963017020437
 31
0.0
 12
97.849782736700035
 22
102.0963017020437
 32
0.0
 13
97.849782736700035
 23
102.0963017020437
 33
0.0
210
0.0
220
0.0
230
1.0
  0
SOLID
  5
7CF
  8
DRG
  6
CONTINUOUS
 62
     7
 10
97.849782736700035
 20
102.0963017020437
 30
0.0
 11
95.179531529224278
 21
101.7954366482256
 31
0.0
 12
106.3320830399325
 22
101.7954377738515
 32
0.0
 13
106.3320830399325
 23
101.7954377738515
 33
0.0
210
0.0
220
0.0
230
1.0
  0
SOLID
  5
7D0
  8
DRG
  6
CONTINUOUS
 62
     7
 10
50.320443202898389
 20
101.7954377738515
 30
0.0
 11
47.650196927116667
 21
102.0963017020437
 31
0.0
 12
41.838142899665847
 22
102.0963017020437
 32
0.0
 13
41.838142899665847
 23
102.0963017020437
 33
0.0
210
0.0
220
0.0
230
1.0
  0
SOLID
  5
7D1
  8
DRG
  6
CONTINUOUS
 62
     7
 10
41.838142899665847
 20
102.0963017020437
 30
0.0
 11
39.167891692190111
 21
101.7954366482256
 31
0.0
 12
50.320443202898389
 22
101.7954377738515
 32
0.0
 13
50.320443202898389
 23
101.7954377738515
 33
0.0
210
0.0
220
0.0
230
1.0
  0
SOLID
  5
7D2
  8
DRG
  6
CONTINUOUS
 62
     7
 10
77.482556033578931
 20
107.1280725498991
 30
0.0
 11
67.331191210151701
 21
101.9948050433795
 31
0.0
 12
77.482556033578931
 22
101.9948050433795
 32
0.0
 13
77.482556033578931
 23
101.9948050433795
 33
0.0
  0
SOLID
  5
7D3
  8
DRG
  6
CONTINUOUS
 62
     7
 10
67.331191210151701
 20
107.1280725498991
 30
0.0
 11
67.331191210151701
 21
101.9948050433795
 31
0.0
 12
77.482556033578931
 22
107.1280725498991
 32
0.0
 13
77.482556033578931
 23
107.1280725498991
 33
0.0
210
0.0
220
0.0
230
1.0
  0
ENDBLK
  5
7D5
  8
0
  0
ENDSEC
  0
SECTION
  2
ENTITIES
  0
LINE
  5
2E
  8
BORT
 39
3.6000000000000001
 10
1500.0
 20
106.7234491247048
 30
0.0
 11
312.0
 21
106.7234491247048
 31
0.0
  0
LINE
  5
2F
  8
BORT
 39
3.6000000000000001
 10
1500.0
 20
46.723449124704821
 30
0.0
 11
0.0
 21
46.723449124704821
 31
0.0
  0
LINE
  5
32
  8
BORT
 39
3.6000000000000001
 10
312.0
 20
242.72344912470481
 30
0.0
 11
0.0
 21
242.72344912470481
 31
0.0
  0
LINE
  5
33
  8
BORT
 39
3.6000000000000001
 10
312.0
 20
270.72344912470481
 30
0.0
 11
0.0
 21
270.72344912470481
 31
0.0
  0
LINE
  5
34
  8
BORT
 39
3.6000000000000001
 10
312.0
 20
214.72344912470481
 30
0.0
 11
0.0
 21
214.72344912470481
 31
0.0
  0
LINE
  5
35
  8
BORT
 39
3.6000000000000001
 10
312.0
 20
214.72344912470481
 30
0.0
 11
0.0
 21
214.72344912470481
 31
0.0
  0
TEXT
  5
36
  8
BORT
 10
8.2380952380952444
 20
223.72344912470481
 30
0.0
 40
10.0
  1
ISSUE
 72
     4
 11
28.0
 21
228.72344912470481
 31
0.0
  0
LINE
  5
3C
  8
BORT
 39
3.6000000000000001
 10
0.0
 20
46.723449124704821
 30
0.0
 11
0.0
 21
354.72344912470481
 31
0.0
  0
TEXT
  5
3D
  8
BORT
 10
24.19047619047619
 20
251.72344912470481
 30
0.0
 40
10.0
  1
A
 72
     4
 11
28.0
 21
256.72344912470481
 31
0.0
  0
LINE
  5
3E
  8
BORT
 39
3.6000000000000001
 10
56.0
 20
214.72344912470481
 30
0.0
 11
56.0
 21
354.72344912470481
 31
0.0
  0
TEXT
  5
3F
  8
BORT
 10
126.1428571428571
 20
251.72344912470481
 30
0.0
 40
10.0
  1
ORIGINAL ISSUE
 72
     4
 11
184.0
 21
256.72344912470481
 31
0.0
  0
TEXT
  5
40
  8
BORT
 10
135.6666666666666
 20
223.72344912470481
 30
0.0
 40
10.0
  1
ALTERATIONS
 72
     4
 11
184.0
 21
228.72344912470481
 31
0.0
  0
LINE
  5
41
  8
BORT
 39
3.6000000000000001
 10
312.0
 20
214.72344912470481
 30
0.0
 11
312.0
 21
46.723449124704821
 31
0.0
  0
LINE
  5
42
  8
BORT
 39
3.6000000000000001
 10
312.0
 20
354.72344912470481
 30
0.0
 11
312.0
 21
214.72344912470481
 31
0.0
  0
TEXT
  5
43
  8
BORT
 10
731.89455969166102
 20
81.098319870519177
 30
0.0
 40
20.0
  1
OUTLINE DETAILS OF IS16
 72
     4
 11
925.70408350118475
 21
91.098319870519177
 31
0.0
  0
TEXT
  5
44
  8
BORT
 10
375.68405459209652
 20
71.260346970767614
 30
0.0
 40
12.0
  1
EXEECO LTD   C   1996
  0
CIRCLE
  5
45
  8
BORT
 10
524.30939793581001
 20
77.106022205363388
 30
0.0
 40
11.30959949294261
  0
LINE
  5
46
  8
BORT
 39
3.6000000000000001
 10
700.0
 20
106.7234491247048
 30
0.0
 11
700.0
 21
46.723449124704821
 31
0.0
  0
LINE
  5
47
  8
BORT
 39
3.6000000000000001
 10
1500.0
 20
138.72344912470481
 30
0.0
 11
1060.0
 21
138.72344912470481
 31
0.0
  0
LINE
  5
48
  8
BORT
 39
3.6000000000000001
 10
1060.0
 20
170.72344912470481
 30
0.0
 11
1500.0
 21
170.72344912470481
 31
0.0
  0
TEXT
  5
49
  8
BORT
 10
1196.6666666666661
 20
64.723449124704814
 30
0.0
 40
28.0
  1
PUB\IS16CD
 72
     4
 11
1320.0
 21
76.723449124704814
 31
0.0
  0
TEXT
  5
4A
  8
BORT
 10
1066.3348093528591
 20
117.372281761891
 30
0.0
 40
10.0
  1
CHECKED:-
  0
TEXT
  5
4B
  8
BORT
 10
1066.912774441729
 20
148.72344912470481
 30
0.0
 40
10.0
  1
DRAWN:-
  0
TEXT
  5
4C
  8
BORT
 10
755.70408350118475
 20
55.665859222108608
 30
0.0
 40
20.0
  1
ISO & USA STANDARD
 72
     4
 11
925.70408350118475
 21
65.665859222108608
 31
0.0
  0
LINE
  5
4D
  8
BORT
 39
3.6000000000000001
 10
1060.0
 20
170.72344912470481
 30
0.0
 11
1060.0
 21
106.7234491247048
 31
0.0
  0
LINE
  5
4E
  8
BORT
 39
3.6000000000000001
 10
1140.0
 20
106.7234491247048
 30
0.0
 11
1140.0
 21
46.723449124704821
 31
0.0
  0
TEXT
  5
4F
  8
BORT
 10
1179.645583234741
 20
149.72344912470481
 30
0.0
 40
10.0
  1
S.W.   10.9.96
 72
     4
 11
1234.4074879966449
 21
154.72344912470481
 31
0.0
  0
LINE
  5
50
  8
BORT
 39
3.6000000000000001
 10
1500.0
 20
170.72344912470481
 30
0.0
 11
1500.0
 21
46.723449124704821
 31
0.0
  0
LINE
  5
51
  8
BORT
 39
3.6000000000000001
 10
1412.0
 20
170.72344912470481
 30
0.0
 11
1412.0
 21
106.7234491247048
 31
0.0
  0
TEXT
  5
52
  8
BORT
 10
1441.983690967945
 20
116.7234491247048
 30
0.0
 40
10.0
  1
1:2
  0
TEXT
  5
53
  8
BORT
 10
1431.5725485912251
 20
148.72344912470481
 30
0.0
 40
10.0
  1
SCALE
  0
LINE
  5
54
  8
DRG
 10
532.67027049442675
 20
623.28099598415167
 30
0.0
 11
659.32806174524706
 21
579.16972854074743
 31
0.0
  0
ARC
  5
55
  8
DRG
 10
553.21847992534731
 20
1358.6021238803201
 30
0.0
 40
6.0
 50
175.69877769532971
 51
270.0
  0
ARC
  5
56
  8
DRG
 10
553.27480925017062
 20
1225.6021238803201
 30
0.0
 40
6.0
 50
89.999999999999474
 51
180.0
  0
ARC
  5
57
  8
DRG
 10
553.27480925017062
 20
1213.3021238803201
 30
0.0
 40
6.0
 50
180.0
 51
270.0
  0
LINE
  5
58
  8
DRG
 10
537.27480925017085
 20
622.50212388032026
 30
0.0
 11
639.27480925017085
 21
622.5021238803206
 31
0.0
  0
LINE
  5
59
  8
CRS
 10
222.27626988566431
 20
1292.1021238803201
 30
0.0
 11
595.86829388107628
 21
1292.1021238803201
 31
0.0
  0
LINE
  5
5A
  8
DRG
 10
381.27480925017062
 20
936.25212388032026
 30
0.0
 11
381.27480925017062
 21
838.5021238803206
 31
0.0
  0
LINE
  5
5B
  8
DRG
 10
381.27480925017062
 20
723.5021238803206
 30
0.0
 11
381.27480925017062
 21
733.50212388032048
 31
0.0
  0
LINE
  5
5C
  8
DRG
 10
387.27480925017062
 20
715.5021238803206
 30
0.0
 11
517.27480925017062
 21
715.5021238803206
 31
0.0
  0
ARC
  5
5D
  8
DRG
 10
387.27480925017062
 20
721.50212388032048
 30
0.0
 40
6.0
 50
180.0
 51
270.0
  0
LINE
  5
5E
  8
DRG
 10
381.27480925017062
 20
721.50212388032048
 30
0.0
 11
381.27480925017062
 21
723.5021238803206
 31
0.0
  0
LINE
  5
5F
  8
DRG
 10
523.27480925017085
 20
636.5021238803206
 30
0.0
 11
523.27480925017005
 21
1008.120131496461
 31
0.0
  0
ARC
  5
60
  8
DRG
 10
537.27480925017085
 20
636.5021238803206
 30
0.0
 40
14.0
 50
180.0
 51
270.0
  0
ARC
  5
61
  8
DRG
 10
517.27480925017062
 20
709.50212388032048
 30
0.0
 40
6.0
 50
0.0000000000000509
 51
90.0
  0
LINE
  5
62
  8
CRS
 10
365.21084743688118
 20
838.5021238803206
 30
0.0
 11
928.21957898599305
 21
838.5021238803206
 31
0.0
  0
LINE
  5
63
  8
DRG
 10
381.27480925017062
 20
740.75212388032082
 30
0.0
 11
381.27480925017062
 21
838.5021238803206
 31
0.0
  0
LINE
  5
64
  8
DRG
 10
381.27480925017062
 20
733.50212388032048
 30
0.0
 11
381.27480925017079
 21
740.75212388032082
 31
0.0
  0
LINE
  5
65
  8
DRG
 10
400.27480925017062
 20
1345.6021238803201
 30
0.0
 11
400.27480925017062
 21
1238.6021238803201
 31
0.0
  0
LINE
  5
66
  8
DRG
 10
381.27480925017062
 20
1126.3374238803201
 30
0.0
 11
381.27480925017079
 21
1076.2668238803201
 31
0.0
  0
LINE
  5
67
  8
CRS
 10
367.90437536766899
 20
1101.3021238803201
 30
0.0
 11
436.68553502885419
 21
1101.3021238803201
 31
0.0
  0
LINE
  5
68
  8
DRG
 10
405.27480925017062
 20
1060.1021238803201
 30
0.0
 11
405.27480925017062
 21
967.50212388032026
 31
0.0
  0
LINE
  5
69
  8
DRG
 10
417.27480925017062
 20
1060.1021238803201
 30
0.0
 11
417.27480925017062
 21
727.54579288853517
 31
0.0
  0
ARC
  5
6A
  8
DRG
 10
411.27480925017062
 20
967.50212388032026
 30
0.0
 40
6.0
 50
270.0
 51
0.0
  0
ARC
  5
6B
  8
DRG
 10
399.27480925017062
 20
967.50212388032026
 30
0.0
 40
6.0
 50
270.0
 51
0.0
  0
LINE
  5
6C
  8
DRG
 10
387.27480925017062
 20
961.50212388032026
 30
0.0
 11
411.27480925017062
 21
961.50212388032026
 31
0.0
  0
LINE
  5
6D
  8
DRG
 10
381.27480925017062
 20
943.50212388032048
 30
0.0
 11
381.27480925017062
 21
936.25212388032026
 31
0.0
  0
ARC
  5
6E
  8
DRG
 10
387.27480925017062
 20
955.50212388032037
 30
0.0
 40
6.0
 50
90.0
 51
180.0
  0
LINE
  5
6F
  8
DRG
 10
381.27480925017062
 20
955.50212388032037
 30
0.0
 11
381.27480925017062
 21
943.50212388032048
 31
0.0
  0
LINE
  5
70
  8
DRG
 10
387.27480925017062
 20
1066.3021238803201
 30
0.0
 11
411.27480925017062
 21
1066.3021238803201
 31
0.0
  0
ARC
  5
71
  8
DRG
 10
387.27480925017062
 20
1072.3021238803201
 30
0.0
 40
6.0
 50
180.0
 51
270.0
  0
LINE
  5
72
  8
DRG
 10
381.27480925017079
 20
1076.2668238803201
 30
0.0
 11
381.27480925017062
 21
1072.3021238803201
 31
0.0
  0
ARC
  5
73
  8
DRG
 10
399.10132095576017
 20
1060.1310061760521
 30
0.0
 40
6.1735558560873356
 50
359.73194707825371
 51
88.389671030274656
  0
ARC
  5
74
  8
DRG
 10
411.10132095576017
 20
1060.1310061760521
 30
0.0
 40
6.1735558560873356
 50
359.73194707825371
 51
88.389671030274656
  0
LINE
  5
75
  8
DRG
 10
417.27480925017062
 20
1357.781892873154
 30
0.0
 11
417.27480925017079
 21
1060.159888472627
 31
0.0
  0
LINE
  5
76
  8
DRG
 10
405.27480925017062
 20
1225.6021238803201
 30
0.0
 11
405.27480925017062
 21
1142.3021238803201
 31
0.0
  0
LINE
  5
77
  8
DRG
 10
387.27480925017062
 20
1136.3021238803201
 30
0.0
 11
411.27480925017062
 21
1136.3021238803201
 31
0.0
  0
LINE
  5
78
  8
DRG
 10
381.27480925017062
 20
1130.3021238803201
 30
0.0
 11
381.27480925017062
 21
1126.3374238803201
 31
0.0
  0
ARC
  5
79
  8
DRG
 10
387.27480925017062
 20
1130.3021238803201
 30
0.0
 40
6.0
 50
90.0
 51
180.0
  0
ARC
  5
7A
  8
DRG
 10
399.27480925017062
 20
1142.3021238803201
 30
0.0
 40
6.0
 50
270.00000000000011
 51
0.0
  0
ARC
  5
7B
  8
DRG
 10
411.27480925017062
 20
1142.3021238803201
 30
0.0
 40
6.0
 50
270.00000000000051
 51
0.0
  0
LINE
  5
7C
  8
DRG
 10
400.27480925017062
 20
1231.6021238803201
 30
0.0
 11
411.27480925017062
 21
1231.6021238803201
 31
0.0
  0
ARC
  5
7D
  8
DRG
 10
399.27480925017062
 20
1225.6021238803201
 30
0.0
 40
6.0
 50
0.0000000000000127
 51
80.405931773145014
  0
LINE
  5
7E
  8
DRG
 10
400.27480925017062
 20
1238.6021238803201
 30
0.0
 11
400.27480925017062
 21
1231.518203663423
 31
0.0
  0
ARC
  5
7F
  8
DRG
 10
411.27480925017062
 20
1225.6021238803201
 30
0.0
 40
6.0
 50
0.0000000000000127
 51
90.000000000000256
  0
LINE
  5
80
  8
DRG
 10
547.27480925017062
 20
1357.781892873269
 30
0.0
 11
547.27480925017062
 21
1020.120131496461
 31
0.0
  0
ARC
  5
81
  8
DRG
 10
431.27480925017051
 20
1360.1021238803201
 30
0.0
 40
14.0
 50
90.0
 51
184.3012223046702
  0
LINE
  5
82
  8
DRG
 10
400.27480925017062
 20
1352.6021238803201
 30
0.0
 11
411.3311385749916
 21
1352.6021238803201
 31
0.0
  0
LINE
  5
83
  8
DRG
 10
400.27480925017062
 20
1352.6021238803201
 30
0.0
 11
400.27480925017062
 21
1345.6021238803201
 31
0.0
  0
ARC
  5
84
  8
DRG
 10
411.3311385749916
 20
1358.6021238803201
 30
0.0
 40
6.0
 50
270.0
 51
4.3012223046698157
  0
LINE
  5
85
  8
DRG
 10
431.27480925017051
 20
1374.1021238803201
 30
0.0
 11
533.27480925017062
 21
1374.1021238803201
 31
0.0
  0
ARC
  5
86
  8
DRG
 10
533.27480925017062
 20
1360.1021238803201
 30
0.0
 40
14.0
 50
355.69877769532928
 51
90.0
  0
LINE
  5
87
  8
DRG
 10
691.27480925017062
 20
1059.3931492841041
 30
0.0
 11
691.27480925017085
 21
933.54315633871317
 31
0.0
  0
LINE
  5
88
  8
DRG
 10
691.27480925017062
 20
617.61109847653586
 30
0.0
 11
691.27480925017085
 21
739.49714796455555
 31
0.0
  0
LINE
  5
89
  8
DRG
 10
663.27480925017085
 20
578.5021238803206
 30
0.0
 11
706.27480925017062
 21
578.50212388032048
 31
0.0
  0
LINE
  5
8A
  8
DRG
 10
651.27480925017085
 20
590.5021238803206
 30
0.0
 11
651.27480925017085
 21
741.6938949563621
 31
0.0
  0
ARC
  5
8B
  8
DRG
 10
663.27480925017085
 20
590.5021238803206
 30
0.0
 40
12.0
 50
180.0
 51
269.99999999999989
  0
ARC
  5
8C
  8
DRG
 10
639.27480925017085
 20
610.5021238803206
 30
0.0
 40
12.0
 50
0.0
 51
90.0
  0
LINE
  5
8D
  8
DRG
 10
691.27480925017062
 20
578.50212388032026
 30
0.0
 11
691.27480925017085
 21
617.61109847653586
 31
0.0
  0
LINE
  5
8E
  8
DRG
 10
564.27480925017051
 20
1345.6021238803201
 30
0.0
 11
564.27480925017051
 21
1238.6021238803201
 31
0.0
  0
LINE
  5
8F
  8
DRG
 10
691.27480925017062
 20
1131.32712388032
 30
0.0
 11
691.27480925017062
 21
1071.27712388032
 31
0.0
  0
LINE
  5
90
  8
CRS
 10
640.23928865552227
 20
1101.3021238803201
 30
0.0
 11
702.23852977668844
 21
1101.3021238803201
 31
0.0
  0
LINE
  5
91
  8
DRG
 10
691.27480925017062
 20
1071.27712388032
 30
0.0
 11
691.27480925017062
 21
1059.3931492841041
 31
0.0
  0
LINE
  5
92
  8
DRG
 10
665.27480925017085
 20
1139.32712388032
 30
0.0
 11
691.27480925017085
 21
1139.32712388032
 31
0.0
  0
ARC
  5
93
  8
DRG
 10
645.27480925017062
 20
1193.3021238803201
 30
0.0
 40
14.0
 50
0.0
 51
89.999999999999986
  0
LINE
  5
94
  8
DRG
 10
659.27480925017085
 20
1193.3021238803201
 30
0.0
 11
659.27480925017085
 21
1145.32712388032
 31
0.0
  0
ARC
  5
95
  8
DRG
 10
665.27480925017085
 20
1145.32712388032
 30
0.0
 40
6.0
 50
180.0
 51
270.0
  0
LINE
  5
96
  8
DRG
 10
553.27480925017062
 20
1207.3021238803201
 30
0.0
 11
645.27480925017062
 21
1207.3021238803201
 31
0.0
  0
LINE
  5
97
  8
DRG
 10
559.27480925017062
 20
1225.6021238803201
 30
0.0
 11
559.27480925017062
 21
1213.3021238803201
 31
0.0
  0
ARC
  5
98
  8
DRG
 10
565.27480925017062
 20
1213.3021238803201
 30
0.0
 40
6.0
 50
180.0
 51
270.0
  0
LINE
  5
99
  8
DRG
 10
553.27480925017062
 20
1231.6021238803201
 30
0.0
 11
564.27480925017051
 21
1231.6021238803201
 31
0.0
  0
ARC
  5
9A
  8
DRG
 10
565.27480925017062
 20
1225.6021238803201
 30
0.0
 40
6.0
 50
99.594068226853935
 51
180.0
  0
LINE
  5
9B
  8
DRG
 10
564.27480925017051
 20
1238.6021238803201
 30
0.0
 11
564.27480925017051
 21
1231.518203663423
 31
0.0
  0
LINE
  5
9C
  8
DRG
 10
691.27480925017062
 20
1139.32712388032
 30
0.0
 11
691.27480925017062
 21
1131.32712388032
 31
0.0
  0
LINE
  5
9D
  8
DRG
 10
553.21847992534731
 20
1352.6021238803201
 30
0.0
 11
564.27480925017051
 21
1352.6021238803201
 31
0.0
  0
LINE
  5
9E
  8
DRG
 10
564.27480925017051
 20
1352.6021238803201
 30
0.0
 11
564.27480925017051
 21
1345.6021238803201
 31
0.0
  0
ARC
  5
9F
  8
DRG
 10
1408.348483911104
 20
838.5021238803206
 30
0.0
 40
260.0
 50
90.0
 51
270.0
  0
LINE
  5
A0
  8
CRS
 10
1408.348483911104
 20
1383.308367910696
 30
0.0
 11
1408.348483911104
 21
574.16865350163403
 31
0.0
  0
LINE
  5
A1
  8
CRS
 10
1139.8296225089441
 20
838.5021238803206
 30
0.0
 11
1428.4380402993081
 21
838.5021238803206
 31
0.0
  0
LINE
  5
A2
  8
CRS
 10
1298.3551179887929
 20
1101.3021238803201
 30
0.0
 11
1420.292901149709
 21
1101.3021238803201
 31
0.0
  0
LINE
  5
A3
  8
DRG
 10
1335.848483911104
 20
1346.6021238803201
 30
0.0
 11
1335.848483911104
 21
1237.6021238803201
 31
0.0
  0
ARC
  5
A4
  8
DRG
 10
1408.348483911104
 20
1101.3021238803201
 30
0.0
 40
40.0
 50
90.0
 51
181.0044622775481
  0
LINE
  5
A5
  8
DRG
 10
1353.848483911104
 20
1219.6021238803201
 30
0.0
 11
1398.348483911104
 21
1219.6021238803201
 31
0.0
  0
ARC
  5
A6
  8
DRG
 10
1398.348483911104
 20
1213.6021238803201
 30
0.0
 40
6.0
 50
0.0
 51
90.0
  0
LINE
  5
A7
  8
DRG
 10
1398.348483911104
 20
1219.602123880321
 30
0.0
 11
1408.348483911104
 21
1219.602123880321
 31
0.0
  0
ARC
  5
A8
  8
DRG
 10
1353.848483911104
 20
1237.6021238803201
 30
0.0
 40
18.0
 50
180.0
 51
270.0
  0
ARC
  5
A9
  8
DRG
 10
1408.348483911104
 20
1292.1021238803201
 30
0.0
 40
82.0
 50
90.0
 51
117.853347826968
  0
LINE
  5
AA
  8
DRG
 10
1353.848483911104
 20
1364.6021238803201
 30
0.0
 11
1408.348483911104
 21
1364.6021238803201
 31
0.0
  0
ARC
  5
AB
  8
DRG
 10
1353.848483911104
 20
1346.6021238803201
 30
0.0
 40
18.0
 50
90.0
 51
180.0
  0
ARC
  5
AC
  8
DRG
 10
1408.348483911104
 20
1101.3021238803201
 30
0.0
 40
106.0
 50
95.122516099780952
 51
180.0
  0
LINE
  5
AD
  8
DRG
 10
1302.348483911104
 20
1101.3021238803201
 30
0.0
 11
1302.348483911104
 21
1079.773755034917
 31
0.0
  0
ARC
  5
AE
  8
DRG
 10
1296.348483911104
 20
1079.773755034917
 30
0.0
 40
6.0
 50
294.90106237036571
 51
0.0
  0
ARC
  5
AF
  8
DRG
 10
1362.355552597445
 20
1100.4957311862561
 30
0.0
 40
6.0
 50
279.9568090743611
 51
1.0044622775487451
  0
ARC
  5
B0
  8
DRG
 10
1398.348483911104
 20
1212.854802019395
 30
0.0
 40
6.0
 50
275.12251609978023
 51
0.0
  0
LINE
  5
B1
  8
DRG
 10
1404.348483911104
 20
1213.6021238803201
 30
0.0
 11
1404.348483911104
 21
1212.854802019395
 31
0.0
  0
LINE
  5
B2
  8
CRS
 10
1269.2304285326929
 20
1042.219587540164
 30
0.0
 11
1275.2304285326929
 21
1042.219587540164
 31
0.0
  0
LINE
  5
B3
  8
CRS
 10
1272.2304285326929
 20
1039.219587540164
 30
0.0
 11
1272.2304285326929
 21
1045.2195875401651
 31
0.0
  0
LINE
  5
B4
  8
CRS
 10
1278.2304285326929
 20
1042.219587540164
 30
0.0
 11
1285.6587360611311
 21
1042.219587540164
 31
0.0
  0
LINE
  5
B5
  8
CRS
 10
1272.2304285326929
 20
1048.219587540164
 30
0.0
 11
1272.2304285326929
 21
1055.6478950686021
 31
0.0
  0
LINE
  5
B6
  8
CRS
 10
1266.2304285326929
 20
1042.219587540164
 30
0.0
 11
1258.802121004255
 21
1042.219587540164
 31
0.0
  0
LINE
  5
B7
  8
CRS
 10
1272.2304285326929
 20
1036.219587540164
 30
0.0
 11
1272.2304285326929
 21
1028.7912800117269
 31
0.0
  0
ARC
  5
B8
  8
DRG
 10
1408.348483911104
 20
1101.3021238803201
 30
0.0
 40
178.0
 50
149.79173236212989
 51
172.1395094412982
  0
LINE
  5
B9
  8
DRG
 10
1335.848483911104
 20
1330.5509869087491
 30
0.0
 11
1254.520490809809
 21
1190.8618723079931
 31
0.0
  0
LINE
  5
BA
  8
DRG
 10
1232.02097095933
 20
1125.645668738088
 30
0.0
 11
1216.623901760204
 21
1014.120131496461
 31
0.0
  0
ARC
  5
BB
  8
DRG
 10
529.27480925017005
 20
1008.120131496461
 30
0.0
 40
6.0
 50
90.0
 51
180.00000000000011
  0
ARC
  5
BC
  8
DRG
 10
657.27480925017062
 20
1137.3338398842629
 30
0.0
 40
6.0
 50
90.0
 51
180.0
  0
ARC
  5
BD
  8
DRG
 10
541.27480925017062
 20
1020.120131496461
 30
0.0
 40
6.0
 50
270.0
 51
0.0
  0
ARC
  5
BE
  8
DRG
 10
411.27480925017062
 20
727.54579288853517
 30
0.0
 40
6.0
 50
270.0
 51
0.0
  0
ARC
  5
BF
  8
DRG
 10
1408.348483911104
 20
1292.1021238803201
 30
0.0
 40
40.0
 50
90.0
 51
270.0
  0
LINE
  5
C0
  8
CRS
  6
BYBLOCK
 10
1358.8510092280451
 20
1335.5995985633781
 30
0.0
 11
1358.8510092280451
 21
1328.3495985633781
 31
0.0
  0
POLYLINE
  5
C1
  8
DRG2
 66
     1
 10
0.0
 20
0.0
 30
0.0
 70
     1
  0
VERTEX
  5
5DB
  8
DRG2
 10
1355.9642578820969
 20
1346.5995985633781
 30
0.0
  0
VERTEX
  5
5DC
  8
DRG2
 10
1353.077506536149
 20
1341.5995985633781
 30
0.0
  0
VERTEX
  5
5DD
  8
DRG2
 10
1355.9642578820969
 20
1336.5995985633781
 30
0.0
  0
VERTEX
  5
5DE
  8
DRG2
 10
1361.737760573993
 20
1336.5995985633781
 30
0.0
  0
VERTEX
  5
5DF
  8
DRG2
 10
1364.6245119199421
 20
1341.5995985633781
 30
0.0
  0
VERTEX
  5
5E0
  8
DRG2
 10
1361.737760573993
 20
1346.5995985633781
 30
0.0
  0
SEQEND
  5
5E1
  8
DRG2
  0
LINE
  5
C9
  8
CRS
  6
BYBLOCK
 10
1355.8510092280451
 20
1341.5995985633781
 30
0.0
 11
1361.8510092280451
 21
1341.5995985633781
 31
0.0
  0
CIRCLE
  5
CA
  8
DRG2
 10
1358.8510092280451
 20
1341.5995985633781
 30
0.0
 40
8.1349999999999998
  0
CIRCLE
  5
CB
  8
DRG2
 10
1358.8510092280451
 20
1341.5995985633781
 30
0.0
 40
9.1349999999999998
  0
ARC
  5
CC
  8
DRG
 10
1353.348483911104
 20
1347.1021238803201
 30
0.0
 40
5.0
 50
90.0
 51
180.0
  0
LINE
  5
CD
  8
CRS
  6
BYBLOCK
 10
1352.8510092280451
 20
1341.5995985633781
 30
0.0
 11
1345.6010092280451
 21
1341.5995985633781
 31
0.0
  0
LINE
  5
CE
  8
CRS
  6
BYBLOCK
 10
1358.8510092280451
 20
1338.5995985633781
 30
0.0
 11
1358.8510092280451
 21
1344.5995985633781
 31
0.0
  0
LINE
  5
CF
  8
CRS
  6
BYBLOCK
 10
1364.8510092280451
 20
1341.5995985633781
 30
0.0
 11
1372.1010092280451
 21
1341.5995985633781
 31
0.0
  0
LINE
  5
D0
  8
DRG
 10
1353.348483911104
 20
1352.1021238803201
 30
0.0
 11
1408.348483911104
 21
1352.1021238803201
 31
0.0
  0
LINE
  5
D1
  8
DRG
 10
1348.348483911104
 20
1347.1021238803201
 30
0.0
 11
1348.348483911104
 21
1237.1021238803201
 31
0.0
  0
POLYLINE
  5
D2
  8
DRG2
 66
     1
 10
0.0
 20
0.0
 30
0.0
 70
     1
  0
VERTEX
  5
5E2
  8
DRG2
 10
1355.9642578820969
 20
1237.604649197262
 30
0.0
  0
VERTEX
  5
5E3
  8
DRG2
 10
1353.077506536149
 20
1242.604649197262
 30
0.0
  0
VERTEX
  5
5E4
  8
DRG2
 10
1355.9642578820969
 20
1247.604649197262
 30
0.0
  0
VERTEX
  5
5E5
  8
DRG2
 10
1361.737760573993
 20
1247.604649197262
 30
0.0
  0
VERTEX
  5
5E6
  8
DRG2
 10
1364.6245119199421
 20
1242.604649197262
 30
0.0
  0
VERTEX
  5
5E7
  8
DRG2
 10
1361.737760573993
 20
1237.604649197262
 30
0.0
  0
SEQEND
  5
5E8
  8
DRG2
  0
LINE
  5
DA
  8
CRS
  6
BYBLOCK
 10
1358.8510092280451
 20
1245.604649197262
 30
0.0
 11
1358.8510092280451
 21
1239.604649197262
 31
0.0
  0
CIRCLE
  5
DB
  8
DRG2
 10
1358.8510092280451
 20
1242.604649197262
 30
0.0
 40
9.1349999999999998
  0
CIRCLE
  5
DC
  8
DRG2
 10
1358.8510092280451
 20
1242.604649197262
 30
0.0
 40
8.1349999999999998
  0
ARC
  5
DD
  8
DRG
 10
1353.348483911104
 20
1237.1021238803201
 30
0.0
 40
5.0
 50
180.0
 51
270.0
  0
LINE
  5
DE
  8
CRS
  6
BYBLOCK
 10
1358.8510092280451
 20
1236.604649197262
 30
0.0
 11
1358.8510092280451
 21
1229.354649197262
 31
0.0
  0
LINE
  5
DF
  8
CRS
  6
BYBLOCK
 10
1355.8510092280451
 20
1242.604649197262
 30
0.0
 11
1361.8510092280451
 21
1242.604649197262
 31
0.0
  0
LINE
  5
E0
  8
CRS
  6
BYBLOCK
 10
1352.8510092280451
 20
1242.604649197262
 30
0.0
 11
1345.6010092280451
 21
1242.604649197262
 31
0.0
  0
LINE
  5
E1
  8
CRS
  6
BYBLOCK
 10
1358.8510092280451
 20
1248.8046491972621
 30
0.0
 11
1358.8510092280451
 21
1256.0546491972621
 31
0.0
  0
LINE
  5
E2
  8
CRS
  6
BYBLOCK
 10
1364.8510092280451
 20
1242.604649197262
 30
0.0
 11
1372.1010092280451
 21
1242.604649197262
 31
0.0
  0
LINE
  5
E3
  8
DRG
 10
1353.348483911104
 20
1232.1021238803201
 30
0.0
 11
1396.348483911104
 21
1232.1021238803201
 31
0.0
  0
LINE
  5
E4
  8
DRG
 10
1396.348483911104
 20
1232.1021238803201
 30
0.0
 11
1408.348483911104
 21
1232.1021238803201
 31
0.0
  0
LINE
  5
E5
  8
CRS
  6
BYBLOCK
 10
1358.8510092280451
 20
1347.5995985633781
 30
0.0
 11
1358.8510092280451
 21
1354.849598563379
 31
0.0
  0
LINE
  5
E6
  8
DRG
 10
231.77480925017031
 20
1267.1021238803201
 30
0.0
 11
379.27480925017039
 21
1267.1021238803189
 31
0.0
  0
LINE
  5
E7
  8
DRG
 10
231.77480925016991
 20
1317.1021238803201
 30
0.0
 11
379.27480925017039
 21
1317.1021238803189
 31
0.0
  0
LINE
  5
E8
  8
DRG2
 10
385.27480925017039
 20
1332.469598563378
 30
0.0
 11
374.27480925017028
 21
1332.4695985633771
 31
0.0
  0
LINE
  5
E9
  8
DRG2
 10
385.27480925017039
 20
1350.729598563378
 30
0.0
 11
374.27480925017028
 21
1350.729598563378
 31
0.0
  0
LINE
  5
EA
  8
DRG2
 10
385.27480925017039
 20
1251.734649197261
 30
0.0
 11
374.27480925017028
 21
1251.734649197261
 31
0.0
  0
LINE
  5
EB
  8
DRG2
 10
385.27480925017039
 20
1233.474649197261
 30
0.0
 11
374.27480925017028
 21
1233.4746491972601
 31
0.0
  0
LINE
  5
EC
  8
CRS
 10
390.32741173881249
 20
1341.599598563377
 30
0.0
 11
365.70663951598658
 21
1341.599598563377
 31
0.0
  0
LINE
  5
ED
  8
CRS
 10
390.32741173881249
 20
1242.6046491972611
 30
0.0
 11
365.70663951598658
 21
1242.6046491972611
 31
0.0
  0
LINE
  5
EE
  8
DRG2
 10
231.77480925016991
 20
1317.1021238803201
 30
0.0
 11
231.77480925017031
 21
1267.1021238803201
 31
0.0
  0
LINE
  5
EF
  8
DRG
 10
230.27480925016991
 20
1315.6021238803201
 30
0.0
 11
230.27480925017031
 21
1268.6021238803201
 31
0.0
  0
LINE
  5
F0
  8
DRG
 10
230.27480925017031
 20
1268.6021238803201
 30
0.0
 11
231.77480925017031
 21
1267.1021238803201
 31
0.0
  0
LINE
  5
F1
  8
DRG
 10
235.27480925017011
 20
1320.5021238803199
 30
0.0
 11
290.27480925017011
 21
1320.5021238803199
 31
0.0
  0
LINE
  5
F2
  8
DRG
 10
231.77480925016991
 20
1317.1021238803201
 30
0.0
 11
230.27480925016991
 21
1315.6021238803201
 31
0.0
  0
LINE
  5
F3
  8
DRG
 10
235.27480925017011
 20
1320.5021238803199
 30
0.0
 11
235.27480925017011
 21
1317.1021238803201
 31
0.0
  0
LINE
  5
F4
  8
DRG
 10
290.27480925017011
 20
1320.5021238803199
 30
0.0
 11
290.27480925017011
 21
1317.1021238803201
 31
0.0
  0
LINE
  5
F5
  8
DRG2
 10
374.27480925017028
 20
1233.4746491972601
 30
0.0
 11
374.27480925017028
 21
1251.734649197261
 31
0.0
  0
LINE
  5
F6
  8
DRG2
 10
373.27480925017039
 20
1234.4746491972601
 30
0.0
 11
373.27480925017039
 21
1250.734649197261
 31
0.0
  0
LINE
  5
F7
  8
DRG2
 10
374.27480925017028
 20
1233.4746491972601
 30
0.0
 11
373.27480925017039
 21
1234.4746491972601
 31
0.0
  0
LINE
  5
F8
  8
DRG2
 10
373.27480925017039
 20
1250.734649197261
 30
0.0
 11
374.27480925017028
 21
1251.734649197261
 31
0.0
  0
LINE
  5
F9
  8
DRG2
 10
374.27480925017028
 20
1332.4695985633771
 30
0.0
 11
373.27480925017039
 21
1333.4695985633771
 31
0.0
  0
LINE
  5
FA
  8
DRG2
 10
373.27480925017039
 20
1349.729598563378
 30
0.0
 11
374.27480925017028
 21
1350.729598563378
 31
0.0
  0
LINE
  5
FB
  8
DRG2
 10
373.27480925017039
 20
1333.4695985633771
 30
0.0
 11
373.27480925017039
 21
1349.729598563378
 31
0.0
  0
LINE
  5
FC
  8
DRG2
 10
374.27480925017028
 20
1332.4695985633771
 30
0.0
 11
374.27480925017028
 21
1350.729598563378
 31
0.0
  0
LINE
  5
FD
  8
DRG
 10
379.27480925017039
 20
1332.1021238803189
 30
0.0
 11
379.27480925017039
 21
1252.1021238803189
 31
0.0
  0
LINE
  5
FE
  8
DRG
 10
385.27480925017039
 20
1352.1021238803189
 30
0.0
 11
385.27480925017039
 21
1232.1021238803189
 31
0.0
  0
LINE
  5
FF
  8
DRG
 10
385.27480925017039
 20
1232.1021238803189
 30
0.0
 11
400.27480925017028
 21
1232.1021238803189
 31
0.0
  0
LINE
  5
100
  8
DRG
 10
379.27480925017039
 20
1252.1021238803189
 30
0.0
 11
385.27480925017039
 21
1252.1021238803189
 31
0.0
  0
LINE
  5
101
  8
DRG
 10
385.27480925017039
 20
1352.1021238803189
 30
0.0
 11
400.27480925017028
 21
1352.1021238803189
 31
0.0
  0
LINE
  5
102
  8
DRG
 10
379.27480925017039
 20
1332.1021238803189
 30
0.0
 11
385.27480925017039
 21
1332.1021238803189
 31
0.0
  0
LINE
  5
103
  8
CRS
 10
574.22220676152745
 20
1341.5995985633781
 30
0.0
 11
598.84297898435352
 21
1341.5995985633781
 31
0.0
  0
LINE
  5
104
  8
DRG
 10
585.27480925016971
 20
1332.1021238803201
 30
0.0
 11
585.27480925017153
 21
1252.1021238803201
 31
0.0
  0
LINE
  5
105
  8
DRG
 10
579.27480925016926
 20
1352.1021238803201
 30
0.0
 11
579.27480925017187
 21
1232.1021238803201
 31
0.0
  0
LINE
  5
106
  8
DRG
 10
564.27480925016926
 20
1352.1021238803201
 30
0.0
 11
579.27480925016926
 21
1352.1021238803201
 31
0.0
  0
LINE
  5
107
  8
DRG2
 10
590.2748092501696
 20
1350.729598563378
 30
0.0
 11
591.27480925016971
 21
1349.729598563378
 31
0.0
  0
LINE
  5
108
  8
DRG2
 10
579.27480925016971
 20
1350.729598563378
 30
0.0
 11
590.2748092501696
 21
1350.729598563378
 31
0.0
  0
LINE
  5
109
  8
DRG2
 10
591.27480925016971
 20
1333.469598563378
 30
0.0
 11
590.2748092501696
 21
1332.469598563378
 31
0.0
  0
LINE
  5
10A
  8
DRG2
 10
579.27480925016971
 20
1332.469598563378
 30
0.0
 11
590.2748092501696
 21
1332.469598563378
 31
0.0
  0
LINE
  5
10B
  8
DRG2
 10
591.27480925016971
 20
1349.729598563378
 30
0.0
 11
591.27480925016971
 21
1333.469598563378
 31
0.0
  0
LINE
  5
10C
  8
DRG2
 10
590.2748092501696
 20
1350.729598563378
 30
0.0
 11
590.2748092501696
 21
1332.469598563378
 31
0.0
  0
LINE
  5
10D
  8
DRG
 10
579.27480925016971
 20
1332.1021238803201
 30
0.0
 11
585.27480925016971
 21
1332.1021238803201
 31
0.0
  0
LINE
  5
10E
  8
CRS
 10
574.22220676152745
 20
1242.6046491972611
 30
0.0
 11
598.84297898435352
 21
1242.6046491972611
 31
0.0
  0
LINE
  5
10F
  8
DRG2
 10
590.2748092501696
 20
1251.734649197261
 30
0.0
 11
590.2748092501696
 21
1233.474649197261
 31
0.0
  0
LINE
  5
110
  8
DRG2
 10
591.27480925016971
 20
1250.734649197261
 30
0.0
 11
591.27480925016971
 21
1234.474649197261
 31
0.0
  0
LINE
  5
111
  8
DRG
 10
564.27480925017198
 20
1232.1021238803201
 30
0.0
 11
579.27480925017187
 21
1232.1021238803201
 31
0.0
  0
LINE
  5
112
  8
DRG2
 10
591.27480925016971
 20
1234.474649197261
 30
0.0
 11
590.2748092501696
 21
1233.474649197261
 31
0.0
  0
LINE
  5
113
  8
DRG2
 10
579.27480925016971
 20
1233.474649197261
 30
0.0
 11
590.2748092501696
 21
1233.474649197261
 31
0.0
  0
LINE
  5
114
  8
DRG2
 10
590.2748092501696
 20
1251.734649197261
 30
0.0
 11
591.27480925016971
 21
1250.734649197261
 31
0.0
  0
LINE
  5
115
  8
DRG2
 10
579.27480925016971
 20
1251.734649197261
 30
0.0
 11
590.2748092501696
 21
1251.734649197261
 31
0.0
  0
LINE
  5
116
  8
DRG
 10
579.27480925017153
 20
1252.1021238803201
 30
0.0
 11
585.27480925017153
 21
1252.1021238803201
 31
0.0
  0
CIRCLE
  5
117
  8
DRG2
 10
1272.2304285326929
 20
1042.219587540164
 30
0.0
 40
12.16499999999999
  0
CIRCLE
  5
118
  8
DRG2
 10
1272.2304285326929
 20
1042.219587540164
 30
0.0
 40
11.164999999999999
  0
POLYLINE
  5
119
  8
DRG2
 66
     1
 10
0.0
 20
0.0
 30
0.0
 70
     1
  0
VERTEX
  5
5E9
  8
DRG2
 10
1268.188976648366
 20
1049.219587540164
 30
0.0
  0
VERTEX
  5
5EA
  8
DRG2
 10
1264.147524764039
 20
1042.219587540164
 30
0.0
  0
VERTEX
  5
5EB
  8
DRG2
 10
1268.188976648366
 20
1035.219587540164
 30
0.0
  0
VERTEX
  5
5EC
  8
DRG2
 10
1276.2718804170211
 20
1035.219587540164
 30
0.0
  0
VERTEX
  5
5ED
  8
DRG2
 10
1280.3133323013481
 20
1042.219587540164
 30
0.0
  0
VERTEX
  5
5EE
  8
DRG2
 10
1276.2718804170211
 20
1049.219587540164
 30
0.0
  0
SEQEND
  5
5EF
  8
DRG2
  0
POLYLINE
  5
121
  8
DRG2
 66
     1
 10
0.0
 20
0.0
 30
0.0
 70
     1
  0
VERTEX
  5
5F0
  8
DRG2
 10
1164.007032026776
 20
893.30212388032044
 30
0.0
  0
VERTEX
  5
5F1
  8
DRG2
 10
1159.965580142449
 20
886.30212388032055
 30
0.0
  0
VERTEX
  5
5F2
  8
DRG2
 10
1164.007032026776
 20
879.30212388032055
 30
0.0
  0
VERTEX
  5
5F3
  8
DRG2
 10
1172.0899357954311
 20
879.30212388032055
 30
0.0
  0
VERTEX
  5
5F4
  8
DRG2
 10
1176.1313876797581
 20
886.30212388032055
 30
0.0
  0
VERTEX
  5
5F5
  8
DRG2
 10
1172.0899357954311
 20
893.30212388032044
 30
0.0
  0
SEQEND
  5
5F6
  8
DRG2
  0
CIRCLE
  5
129
  8
DRG2
 10
1168.0484839111029
 20
886.30212388032055
 30
0.0
 40
11.164999999999999
  0
CIRCLE
  5
12A
  8
DRG2
 10
1168.0484839111029
 20
886.30212388032055
 30
0.0
 40
12.16499999999999
  0
POLYLINE
  5
12B
  8
DRG2
 66
     1
 10
0.0
 20
0.0
 30
0.0
 70
     1
  0
VERTEX
  5
5F7
  8
DRG2
 10
1200.589568366931
 20
709.38406850190995
 30
0.0
  0
VERTEX
  5
5F8
  8
DRG2
 10
1196.548116482604
 20
702.38406850190995
 30
0.0
  0
VERTEX
  5
5F9
  8
DRG2
 10
1200.589568366931
 20
695.38406850190995
 30
0.0
  0
VERTEX
  5
5FA
  8
DRG2
 10
1208.6724721355861
 20
695.38406850190995
 30
0.0
  0
VERTEX
  5
5FB
  8
DRG2
 10
1212.7139240199131
 20
702.38406850190995
 30
0.0
  0
VERTEX
  5
5FC
  8
DRG2
 10
1208.6724721355861
 20
709.38406850190995
 30
0.0
  0
SEQEND
  5
5FD
  8
DRG2
  0
CIRCLE
  5
133
  8
DRG2
 10
1204.6310202512591
 20
702.38406850190995
 30
0.0
 40
11.164999999999999
  0
CIRCLE
  5
134
  8
DRG2
 10
1204.6310202512591
 20
702.38406850190995
 30
0.0
 40
12.16499999999999
  0
POLYLINE
  5
135
  8
DRG2
 66
     1
 10
0.0
 20
0.0
 30
0.0
 70
     1
  0
VERTEX
  5
5FE
  8
DRG2
 10
1356.507032026776
 20
605.20212388032041
 30
0.0
  0
VERTEX
  5
5FF
  8
DRG2
 10
1352.465580142449
 20
598.20212388032041
 30
0.0
  0
VERTEX
  5
600
  8
DRG2
 10
1356.507032026776
 20
591.20212388032041
 30
0.0
  0
VERTEX
  5
601
  8
DRG2
 10
1364.5899357954311
 20
591.20212388032041
 30
0.0
  0
VERTEX
  5
602
  8
DRG2
 10
1368.6313876797581
 20
598.20212388032041
 30
0.0
  0
VERTEX
  5
603
  8
DRG2
 10
1364.5899357954311
 20
605.20212388032041
 30
0.0
  0
SEQEND
  5
604
  8
DRG2
  0
CIRCLE
  5
13D
  8
DRG2
 10
1360.5484839111041
 20
598.20212388032041
 30
0.0
 40
11.164999999999999
  0
CIRCLE
  5
13E
  8
DRG2
 10
1360.5484839111041
 20
598.20212388032041
 30
0.0
 40
12.16499999999999
  0
LINE
  5
13F
  8
CRS
 10
1168.0484839111029
 20
892.30212388032055
 30
0.0
 11
1168.0484839111029
 21
899.73043140875825
 31
0.0
  0
LINE
  5
140
  8
CRS
 10
1168.0484839111029
 20
883.30212388032055
 30
0.0
 11
1168.0484839111029
 21
889.30212388032055
 31
0.0
  0
LINE
  5
141
  8
CRS
 10
1168.0484839111029
 20
880.30212388032055
 30
0.0
 11
1168.0484839111029
 21
872.87381635188285
 31
0.0
  0
LINE
  5
142
  8
CRS
 10
1174.0484839111029
 20
886.30212388032055
 30
0.0
 11
1181.4767914395411
 21
886.30212388032055
 31
0.0
  0
LINE
  5
143
  8
CRS
 10
1165.0484839111029
 20
886.30212388032055
 30
0.0
 11
1171.0484839111029
 21
886.30212388032055
 31
0.0
  0
LINE
  5
144
  8
CRS
 10
1162.0484839111041
 20
886.30212388032055
 30
0.0
 11
1154.6201763826659
 21
886.30212388032055
 31
0.0
  0
LINE
  5
145
  8
CRS
 10
1204.6310202512591
 20
708.38406850190995
 30
0.0
 11
1204.6310202512591
 21
715.81237603034765
 31
0.0
  0
LINE
  5
146
  8
CRS
 10
1204.6310202512591
 20
699.38406850190995
 30
0.0
 11
1204.6310202512591
 21
705.38406850190995
 31
0.0
  0
LINE
  5
147
  8
CRS
 10
1204.6310202512591
 20
696.38406850190995
 30
0.0
 11
1204.6310202512591
 21
688.95576097347225
 31
0.0
  0
LINE
  5
148
  8
CRS
 10
1210.6310202512591
 20
702.38406850190995
 30
0.0
 11
1218.0593277796961
 21
702.38406850190995
 31
0.0
  0
LINE
  5
149
  8
CRS
 10
1201.6310202512591
 20
702.38406850190995
 30
0.0
 11
1207.6310202512591
 21
702.38406850190995
 31
0.0
  0
LINE
  5
14A
  8
CRS
 10
1198.6310202512591
 20
702.38406850190995
 30
0.0
 11
1191.2027127228209
 21
702.38406850190995
 31
0.0
  0
LINE
  5
14B
  8
CRS
 10
1360.5484839111041
 20
604.2021238803203
 30
0.0
 11
1360.5484839111041
 21
611.63043140875811
 31
0.0
  0
LINE
  5
14C
  8
CRS
 10
1360.5484839111041
 20
595.20212388032041
 30
0.0
 11
1360.5484839111041
 21
601.20212388032041
 31
0.0
  0
LINE
  5
14D
  8
CRS
 10
1360.5484839111041
 20
592.2021238803203
 30
0.0
 11
1360.5484839111041
 21
584.77381635188272
 31
0.0
  0
LINE
  5
14E
  8
CRS
 10
1366.5484839111041
 20
598.20212388032041
 30
0.0
 11
1373.9767914395411
 21
598.20212388032041
 31
0.0
  0
LINE
  5
14F
  8
CRS
 10
1357.5484839111041
 20
598.20212388032041
 30
0.0
 11
1363.5484839111041
 21
598.20212388032041
 31
0.0
  0
LINE
  5
150
  8
CRS
 10
1354.5484839111041
 20
598.20212388032041
 30
0.0
 11
1347.1201763826659
 21
598.20212388032041
 31
0.0
  0
LINE
  5
151
  8
CRS
 10
1328.464396096191
 20
1292.1021238803201
 30
0.0
 11
1428.4380402993081
 21
1292.1021238803201
 31
0.0
  0
SOLID
  5
152
  8
DIM
 10
1317.171445603138
 20
1050.683501005971
 30
0.0
 11
1320.8073037760801
 21
1052.35099473797
 31
0.0
 12
1323.9918558856041
 22
1040.609673353146
 32
0.0
 13
1323.9918558856041
 23
1040.609673353146
 33
0.0
  0
LINE
  5
153
  8
DIM
 10
1156.348483911104
 20
529.99978046367517
 30
0.0
 11
1469.128114594527
 21
529.99978046367517
 31
0.0
  0
LINE
  5
154
  8
DIM
 10
1148.348483911104
 20
795.68133653039354
 30
0.0
 11
1148.348483911104
 21
527.99978046367505
 31
0.0
  0
SOLID
  5
155
  8
DIM
 10
1160.348483911104
 20
531.99978046367517
 30
0.0
 11
1160.348483911104
 21
527.99978046367517
 31
0.0
 12
1148.348483911104
 22
529.99978046367517
 32
0.0
 13
1148.348483911104
 23
529.99978046367517
 33
0.0
  0
SOLID
  5
156
  8
DIM
 10
1465.1281145945279
 20
531.99978046367517
 30
0.0
 11
1465.1281145945279
 21
527.99978046367517
 31
0.0
 12
1477.128114594527
 22
529.99978046367517
 32
0.0
 13
1477.128114594527
 23
529.99978046367517
 33
0.0
  0
SOLID
  5
157
  8
DIM
 10
1453.1281145945279
 20
531.99978046367517
 30
0.0
 11
1453.1281145945279
 21
527.99978046367517
 31
0.0
 12
1465.1281145945279
 22
529.99978046367517
 32
0.0
 13
1465.1281145945279
 23
529.99978046367517
 33
0.0
  0
TEXT
  5
158
  8
DIM
 10
1307.3523641407569
 20
536.42578046367521
 30
0.0
 40
9.9960000000000004
  1
%%C520
 72
     4
 11
1324.7263641407569
 21
541.42378046367514
 31
0.0
  0
LINE
  5
159
  8
DIM
 10
1323.9918558856041
 20
1040.609673353146
 30
0.0
 11
1249.9620884150879
 21
1202.0266129994941
 31
0.0
  0
TEXT
  5
15A
  8
DIM
 10
1099.241909317348
 20
1188.5611937036349
 30
0.0
 40
9.9960000000000004
  1
HOLE DETAILS
  0
TEXT
  5
15B
  8
DIM
 10
1099.241909317348
 20
1205.6971937036351
 30
0.0
 40
9.9960000000000004
  1
SEE TABLE FOR
  0
TEXT
  5
15C
  8
DIM
 10
980.87996768151038
 20
1150.9823709019579
 30
0.0
 40
9.9960000000000004
  1

  0
LINE
  5
15D
  8
DIM
 10
1224.4494615357389
 20
1202.0266129994941
 30
0.0
 11
1249.9620884150879
 21
1202.0266129994941
 31
0.0
  0
LINE
  5
15E
  8
DIM
 10
1062.0892473582101
 20
944.80212388032055
 30
0.0
 11
1062.0892473582101
 21
732.20212388032064
 31
0.0
  0
LINE
  5
15F
  8
DIM
 10
923.10887858555895
 20
952.80212388032055
 30
0.0
 11
945.08165251429102
 21
952.80212388032055
 31
0.0
  0
SOLID
  5
160
  8
DIM
 10
1060.0892473582089
 20
940.80212388032055
 30
0.0
 11
1064.0892473582101
 21
940.80212388032055
 31
0.0
 12
1062.0892473582101
 22
952.80212388032055
 32
0.0
 13
1062.0892473582101
 23
952.80212388032055
 33
0.0
  0
TEXT
  5
161
  8
DIM
 10
1077.852070928609
 20
798.9538436839523
 30
0.0
 40
9.9960000000000004
  1
SPIGOT DIA.
 50
90.0
 72
     4
 11
1072.854070928609
 21
842.26984368395233
 31
0.0
  0
TEXT
  5
162
  8
DIM
 10
1055.663247358209
 20
781.22595313625459
 30
0.0
 40
9.9960000000000004
  1
SEE TABLE FOR
 50
90.0
 72
     4
 11
1050.6652473582089
 21
840.01195313625453
 31
0.0
  0
LINE
  5
163
  8
DIM
 10
923.7474925878538
 20
724.20212388032064
 30
0.0
 11
1064.0892473582101
 21
724.20212388032064
 31
0.0
  0
SOLID
  5
164
  8
DIM
 10
1060.0892473582101
 20
736.20212388032064
 30
0.0
 11
1064.0892473582101
 21
736.20212388032064
 31
0.0
 12
1062.0892473582101
 22
724.20212388032064
 32
0.0
 13
1062.0892473582101
 23
724.20212388032064
 33
0.0
  0
TEXT
  5
165
  8
DIM
 10
751.93943047912376
 20
903.41987077184626
 30
0.0
 40
9.9960000000000004
  1
260
 72
     4
 11
764.79143047912385
 21
908.41787077184631
 31
0.0
  0
LINE
  5
166
  8
DIM
 10
641.02480925017153
 20
897.37714685452875
 30
0.0
 11
889.72480925017032
 21
897.37714685452943
 31
0.0
  0
SOLID
  5
167
  8
DIM
 10
647.02450925017149
 20
899.37709685452887
 30
0.0
 11
647.02450925017149
 21
895.37719685452885
 31
0.0
 12
635.02480925017153
 22
897.37714685452875
 32
0.0
 13
635.02480925017153
 23
897.37714685452875
 33
0.0
  0
SOLID
  5
168
  8
DIM
 10
883.72510925017002
 20
899.37709685452933
 30
0.0
 11
883.72510925017002
 21
895.3771968545293
 31
0.0
 12
895.72480925016998
 22
897.37714685452943
 32
0.0
 13
895.72480925016998
 23
897.37714685452943
 33
0.0
  0
LINE
  5
169
  8
DIM
 10
631.52992409061096
 20
755.50212388031639
 30
0.0
 11
286.99261230592288
 21
755.49712388032037
 31
0.0
  0
LINE
  5
16A
  8
DIM
 10
631.52992409061096
 20
921.5021238803165
 30
0.0
 11
286.99261230592288
 21
921.49712388032026
 31
0.0
  0
LINE
  5
16B
  8
DIM
 10
288.65927897258928
 20
921.49712388032026
 30
0.0
 11
288.65927897258928
 21
755.49712388032037
 31
0.0
  0
SOLID
  5
16C
  8
DIM
 10
286.65928098817011
 20
767.49711178683594
 30
0.0
 11
290.65928098817011
 21
767.49711178683594
 31
0.0
 12
288.65928098817011
 22
755.49711178683594
 32
0.0
 13
288.65928098817011
 23
755.49711178683594
 33
0.0
  0
SOLID
  5
16D
  8
DIM
 10
286.65927897258928
 20
909.49712388032015
 30
0.0
 11
290.65927897258962
 21
909.49712388032015
 31
0.0
 12
288.65927897258928
 22
921.49712388032026
 32
0.0
 13
288.65927897258928
 23
921.49712388032026
 33
0.0
  0
TEXT
  5
16E
  8
DIM
 10
276.74720894954538
 20
458.44376189672471
 30
0.0
 40
9.9960000000000004
  1
%%C165 (%%c6.50") ROOT OF SPLINE
 50
90.0
  0
TEXT
  5
16F
  8
DIM
 10
311.01920894954532
 20
458.44376189672471
 30
0.0
 40
9.9960000000000004
  1
VALVE SPINDLE LOCKNUT
 50
90.0
  0
TEXT
  5
170
  8
DIM
 10
293.88320894954541
 20
458.44376189672471
 30
0.0
 40
9.9960000000000004
  1
MAX. PERMISSIBLE O/D OF
 50
90.0
  0
LINE
  5
171
  8
DIM
 10
288.65927897258928
 20
669.22950478730263
 30
0.0
 11
288.65927897258928
 21
755.49714806734755
 31
0.0
  0
LINE
  5
172
  8
DRG
 10
651.27480925017062
 20
933.54315633871317
 30
0.0
 11
651.27480925017062
 21
1137.3338398842629
 31
0.0
  0
LINE
  5
173
  8
DRG
 10
691.27480925017062
 20
1098.5021238803199
 30
0.0
 11
706.27480925017062
 21
1098.5021238803199
 31
0.0
  0
SOLID
  5
174
  8
DIM
 10
187.47127770130169
 20
924.12212388032037
 30
0.0
 11
191.47127770130169
 21
924.12212388032037
 31
0.0
 12
189.47127770130189
 22
936.12212388032049
 32
0.0
 13
189.47127770130189
 23
936.12212388032049
 33
0.0
  0
LINE
  5
175
  8
DIM
 10
189.4712777013016
 20
936.12212388032049
 30
0.0
 11
189.4712777013016
 21
740.88212388032048
 31
0.0
  0
LINE
  5
176
  8
DIM
 10
279.79238858878421
 20
740.88212388032048
 30
0.0
 11
187.47127770130169
 21
740.88212388032048
 31
0.0
  0
SOLID
  5
177
  8
DIM
 10
187.47127770130169
 20
752.88212388032036
 30
0.0
 11
191.47127770130169
 21
752.88212388032036
 31
0.0
 12
189.4712777013016
 22
740.88212388032048
 32
0.0
 13
189.4712777013016
 23
740.88212388032048
 33
0.0
  0
TEXT
  5
178
  8
DIM
 10
183.04527770130159
 20
822.0801238803208
 30
0.0
 40
9.9960000000000004
  1
%%C195
 50
90.0
 72
     4
 11
178.04727770130171
 21
838.50212388032082
 31
0.0
  0
LINE
  5
179
  8
DIM
 10
376.01320123219352
 20
936.12212388032049
 30
0.0
 11
187.47127770130169
 21
936.12212388032049
 31
0.0
  0
LINE
  5
17A
  8
DIM
 10
376.01320123219318
 20
740.88212388032048
 30
0.0
 11
292.29442902024738
 21
740.88212388032048
 31
0.0
  0
SOLID
  5
17B
  8
DIM
 10
376.14686045595772
 20
959.5340838677364
 30
0.0
 11
372.84611390837489
 21
957.27464317840111
 31
0.0
 12
381.27480925017079
 22
948.50212388032128
 32
0.0
 13
381.27480925017079
 23
948.50212388032128
 33
0.0
  0
LINE
  5
17C
  8
DIM
 10
376.7559278715014
 20
955.10361697548581
 30
0.0
 11
345.30907546199683
 21
1001.0433444544871
 31
0.0
  0
TEXT
  5
17D
  8
DIM
 10
64.228962319877837
 20
1013.033599228705
 30
0.0
 40
9.9960000000000004
  1
4 HOLES TAPPED M10x16 (0.63")
  0
TEXT
  5
17E
  8
DIM
 10
64.228962319877837
 20
995.89759922870542
 30
0.0
 40
9.9960000000000004
  1
DEEP EQUALLY SPACED ON
  0
TEXT
  5
17F
  8
DIM
 10
64.228962319877837
 20
978.76159922870556
 30
0.0
 40
9.9960000000000004
  1
CENTRES ON %%C220 (%%c8.66") P.C.
  0
LINE
  5
180
  8
DIM
 10
324.44406266735041
 20
1001.0433444544871
 30
0.0
 11
345.30907546199683
 21
1001.0433444544871
 31
0.0
  0
SOLID
  5
181
  8
DIM
 10
388.27480925017011
 20
1491.7056111196621
 30
0.0
 11
388.27480925017011
 21
1487.7056111196621
 31
0.0
 12
400.27480925017011
 22
1489.7056111196621
 32
0.0
 13
400.27480925017011
 23
1489.7056111196621
 33
0.0
  0
LINE
  5
182
  8
DIM
 10
230.27480925017011
 20
1435.6826812912491
 30
0.0
 11
161.70339605669801
 21
1435.6826812912491
 31
0.0
  0
TEXT
  5
183
  8
DIM
 10
184.180552248743
 20
1442.108681291249
 30
0.0
 40
9.9960000000000004
  1
5
 72
     4
 11
187.51255224874299
 21
1447.1066812912491
 31
0.0
  0
LINE
  5
184
  8
DIM
 10
235.27480925017011
 20
1324.051017426917
 30
0.0
 11
235.27480925017011
 21
1369.6819276984211
 31
0.0
  0
SOLID
  5
185
  8
DIM
 10
247.27480925017011
 20
1437.6826812912491
 30
0.0
 11
247.27480925017011
 21
1433.6826812912491
 31
0.0
 12
235.27480925017011
 22
1435.6826812912491
 32
0.0
 13
235.27480925017011
 23
1435.6826812912491
 33
0.0
  0
SOLID
  5
186
  8
DIM
 10
218.27480925017011
 20
1437.6826812912491
 30
0.0
 11
218.27480925017011
 21
1433.6826812912491
 31
0.0
 12
230.27480925017011
 22
1435.6826812912491
 32
0.0
 13
230.27480925017011
 23
1435.6826812912491
 33
0.0
  0
LINE
  5
187
  8
DIM
 10
247.27480925017011
 20
1435.6826812912491
 30
0.0
 11
259.27480925017011
 21
1435.6826812912491
 31
0.0
  0
LINE
  5
188
  8
DIM
 10
238.27480925017011
 20
1489.7056111196621
 30
0.0
 11
392.27480925017011
 21
1489.7056111196621
 31
0.0
  0
SOLID
  5
189
  8
DIM
 10
242.27480925017011
 20
1491.7056111196621
 30
0.0
 11
242.27480925017011
 21
1487.7056111196621
 31
0.0
 12
230.27480925017011
 22
1489.7056111196621
 32
0.0
 13
230.27480925017011
 23
1489.7056111196621
 33
0.0
  0
TEXT
  5
18A
  8
DIM
 10
303.37480925017007
 20
1496.131611119662
 30
0.0
 40
9.9960000000000004
  1
170
 72
     4
 11
315.27480925017011
 21
1501.1296111196621
 31
0.0
  0
SOLID
  5
18B
  8
DIM
 10
373.27480925017011
 20
1437.6826812912491
 30
0.0
 11
373.27480925017011
 21
1433.6826812912491
 31
0.0
 12
385.27480925017022
 22
1435.6826812912491
 32
0.0
 13
385.27480925017022
 23
1435.6826812912491
 33
0.0
  0
TEXT
  5
18C
  8
DIM
 10
337.30401205035429
 20
1442.108681291249
 30
0.0
 40
9.9960000000000004
  1
15
 72
     4
 11
344.44401205035427
 21
1447.1066812912491
 31
0.0
  0
LINE
  5
18D
  8
DIM
 10
385.27480925017022
 20
1435.6826812912491
 30
0.0
 11
318.57850121632498
 21
1435.6826812912491
 31
0.0
  0
LINE
  5
18E
  8
DIM
 10
385.27480925017022
 20
1354.896455856762
 30
0.0
 11
385.27480925017022
 21
1437.6826812912491
 31
0.0
  0
SOLID
  5
18F
  8
DIM
 10
412.27480925017028
 20
1437.6826812912491
 30
0.0
 11
412.27480925017028
 21
1433.6826812912491
 31
0.0
 12
400.27480925017028
 22
1435.6826812912491
 32
0.0
 13
400.27480925017028
 23
1435.6826812912491
 33
0.0
  0
LINE
  5
190
  8
DIM
 10
412.27480925017028
 20
1435.6826812912491
 30
0.0
 11
424.27480925017028
 21
1435.6826812912491
 31
0.0
  0
LINE
  5
191
  8
DIM
 10
261.14054005383758
 20
1328.111978091983
 30
0.0
 11
246.43357292692571
 21
1373.462947348504
 31
0.0
  0
SOLID
  5
192
  8
DIM
 10
258.00416819018233
 20
1331.299951042444
 30
0.0
 11
261.80909529601257
 21
1332.533859353184
 31
0.0
 12
263.60835667531842
 22
1320.502123880322
 32
0.0
 13
263.60835667531842
 23
1320.502123880322
 33
0.0
  0
LINE
  5
193
  8
DIM
 10
157.52789901250409
 20
1317.102123880321
 30
0.0
 11
157.52789901250409
 21
1115.9898634733311
 31
0.0
  0
SOLID
  5
194
  8
DIM
 10
155.52789901250449
 20
1279.102123880321
 30
0.0
 11
159.52789901250429
 21
1279.102123880321
 31
0.0
 12
157.52789901250409
 22
1267.102123880321
 32
0.0
 13
157.52789901250409
 23
1267.102123880321
 33
0.0
  0
SOLID
  5
195
  8
DIM
 10
155.52789901250449
 20
1305.102123880321
 30
0.0
 11
159.52789901250429
 21
1305.102123880321
 31
0.0
 12
157.52789901250409
 22
1317.102123880321
 32
0.0
 13
157.52789901250409
 23
1317.102123880321
 33
0.0
  0
TEXT
  5
196
  8
DIM
 10
172.5767225829039
 20
1119.3907088505191
 30
0.0
 40
9.9960000000000004
  1
(%%c1.969" -0.002")
 50
90.0
 72
     4
 11
168.29272258290391
 21
1188.6487088505189
 31
0.0
  0
TEXT
  5
197
  8
DIM
 10
151.10189901250411
 20
1138.203279266917
 30
0.0
 40
9.9960000000000004
  1
%%c50.00 -0.05
 50
90.0
 72
     4
 11
146.10389901250409
 21
1190.087279266917
 31
0.0
  0
LINE
  5
198
  8
DIM
 10
400.27480925017062
 20
1362.6021238803201
 30
0.0
 11
400.27480925017062
 21
1493.7056111196621
 31
0.0
  0
LINE
  5
199
  8
DIM
 10
400.27480925017062
 20
1489.7056111196621
 30
0.0
 11
906.57480925017046
 21
1489.7056111196621
 31
0.0
  0
SOLID
  5
19A
  8
DIM
 10
412.27480925017062
 20
1491.7056111196621
 30
0.0
 11
412.27480925017062
 21
1487.7056111196621
 31
0.0
 12
400.27480925017062
 22
1489.7056111196621
 32
0.0
 13
400.27480925017062
 23
1489.7056111196621
 33
0.0
  0
SOLID
  5
19B
  8
DIM
 10
894.57480925017046
 20
1491.7056111196621
 30
0.0
 11
894.57480925017046
 21
1487.7056111196621
 31
0.0
 12
906.57480925017046
 22
1489.7056111196621
 32
0.0
 13
906.57480925017046
 23
1489.7056111196621
 33
0.0
  0
TEXT
  5
19C
  8
DIM
 10
640.45507909777677
 20
1496.1296111196621
 30
0.0
 40
10.0
  1
506
 72
     4
 11
653.07412671682425
 21
1501.1296111196621
 31
0.0
  0
LINE
  5
19D
  8
DIM
 10
579.27480925016926
 20
1362.1021238803201
 30
0.0
 11
579.27480925016926
 21
1439.632035705702
 31
0.0
  0
LINE
  5
19E
  8
DIM
 10
579.27480925016903
 20
1435.632035705702
 30
0.0
 11
906.57480925017046
 21
1435.632035705702
 31
0.0
  0
SOLID
  5
19F
  8
DIM
 10
591.27480925016926
 20
1437.632035705702
 30
0.0
 11
591.27480925016926
 21
1433.632035705702
 31
0.0
 12
579.27480925016926
 22
1435.632035705702
 32
0.0
 13
579.27480925016926
 23
1435.632035705702
 33
0.0
  0
SOLID
  5
1A0
  8
DIM
 10
894.57480925017046
 20
1437.632035705702
 30
0.0
 11
894.57480925017046
 21
1433.632035705702
 31
0.0
 12
906.57480925017046
 22
1435.632035705702
 32
0.0
 13
906.57480925017046
 23
1435.632035705702
 33
0.0
  0
TEXT
  5
1A1
  8
DIM
 10
729.26400284029114
 20
1442.056035705702
 30
0.0
 40
10.0
  1
327
 72
     4
 11
742.12114569743403
 21
1447.056035705702
 31
0.0
  0
LINE
  5
1A2
  8
DIM
 10
591.27480925016971
 20
1359.729598563378
 30
0.0
 11
591.27480925016971
 21
1406.2618269469281
 31
0.0
  0
LINE
  5
1A3
  8
DIM
 10
567.27480925016926
 20
1402.2618269469281
 30
0.0
 11
555.27480925016926
 21
1402.2618269469281
 31
0.0
  0
LINE
  5
1A4
  8
DIM
 10
603.27480925016971
 20
1402.2618269469281
 30
0.0
 11
661.83127362447544
 21
1402.2618269469281
 31
0.0
  0
SOLID
  5
1A5
  8
DIM
 10
567.27480925016926
 20
1404.2618269469281
 30
0.0
 11
567.27480925016926
 21
1400.2618269469281
 31
0.0
 12
579.27480925016926
 22
1402.2618269469281
 32
0.0
 13
579.27480925016926
 23
1402.2618269469281
 33
0.0
  0
SOLID
  5
1A6
  8
DIM
 10
603.27480925016971
 20
1404.2618269469281
 30
0.0
 11
603.27480925016971
 21
1400.2618269469281
 31
0.0
 12
591.27480925016971
 22
1402.2618269469281
 32
0.0
 13
591.27480925016971
 23
1402.2618269469281
 33
0.0
  0
TEXT
  5
1A7
  8
DIM
 10
628.16346175429771
 20
1408.685826946928
 30
0.0
 40
10.0
  1
12
 72
     4
 11
635.30631889715482
 21
1413.685826946928
 31
0.0
  0
LINE
  5
1A8
  8
DRG2
 10
721.27480925017062
 20
1054.389587540164
 30
0.0
 11
706.27480925017062
 21
1054.389587540164
 31
0.0
  0
LINE
  5
1A9
  8
DRG2
 10
721.27480925017062
 20
1030.0495875401641
 30
0.0
 11
706.27480925017062
 21
1030.0495875401641
 31
0.0
  0
LINE
  5
1AA
  8
DRG2
 10
722.27480925017062
 20
1053.389587540164
 30
0.0
 11
722.27480925017062
 21
1031.0495875401641
 31
0.0
  0
LINE
  5
1AB
  8
DRG2
 10
721.27480925017062
 20
1054.389587540164
 30
0.0
 11
722.27480925017062
 21
1053.389587540164
 31
0.0
  0
LINE
  5
1AC
  8
DRG2
 10
722.27480925017062
 20
1031.0495875401641
 30
0.0
 11
721.27480925017062
 21
1030.0495875401641
 31
0.0
  0
LINE
  5
1AD
  8
DRG
 10
706.27480925017062
 20
1098.5021238803199
 30
0.0
 11
706.27480925017085
 21
936.47215232778706
 31
0.0
  0
LINE
  5
1AE
  8
DRG2
 10
721.27480925017062
 20
1054.389587540164
 30
0.0
 11
721.27480925017062
 21
1030.0495875401641
 31
0.0
  0
LINE
  5
1AF
  8
CRS
 10
724.38726490510737
 20
1042.219587540164
 30
0.0
 11
703.86765893755967
 21
1042.219587540164
 31
0.0
  0
LINE
  5
1B0
  8
DRG
 10
706.27480925017062
 20
578.50212388032048
 30
0.0
 11
706.27480925017085
 21
740.53209543285402
 31
0.0
  0
LINE
  5
1B1
  8
DIM
 10
722.27480925017085
 20
1063.389587540164
 30
0.0
 11
722.27480925017085
 21
1238.194526604346
 31
0.0
  0
LINE
  5
1B2
  8
DIM
 10
722.27480925017085
 20
1234.194526604346
 30
0.0
 11
906.57480925017046
 21
1234.194526604346
 31
0.0
  0
SOLID
  5
1B3
  8
DIM
 10
734.27480925017085
 20
1236.194526604346
 30
0.0
 11
734.27480925017085
 21
1232.194526604346
 31
0.0
 12
722.27480925017085
 22
1234.194526604346
 32
0.0
 13
722.27480925017085
 23
1234.194526604346
 33
0.0
  0
SOLID
  5
1B4
  8
DIM
 10
894.57480925017046
 20
1236.194526604346
 30
0.0
 11
894.57480925017046
 21
1232.194526604346
 31
0.0
 12
906.57480925017046
 22
1234.194526604346
 32
0.0
 13
906.57480925017046
 23
1234.194526604346
 33
0.0
  0
TEXT
  5
1B5
  8
DIM
 10
803.31172487135416
 20
1240.618526604346
 30
0.0
 40
10.0
  1
184
 72
     4
 11
815.45458201421138
 21
1245.618526604346
 31
0.0
  0
LINE
  5
1B6
  8
DIM
 10
381.27480925017062
 20
711.5021238803206
 30
0.0
 11
381.27480925017062
 21
461.16980927259198
 31
0.0
  0
LINE
  5
1B7
  8
DIM
 10
393.27480925017062
 20
465.16980927259198
 30
0.0
 11
906.57480925017057
 21
465.16980927259198
 31
0.0
  0
SOLID
  5
1B8
  8
DIM
 10
393.27480925017062
 20
467.16980927259209
 30
0.0
 11
393.27480925017062
 21
463.16980927259209
 31
0.0
 12
381.27480925017062
 22
465.16980927259198
 32
0.0
 13
381.27480925017062
 23
465.16980927259198
 33
0.0
  0
SOLID
  5
1B9
  8
DIM
 10
894.57480925017069
 20
467.1698092725922
 30
0.0
 11
894.57480925017069
 21
463.1698092725922
 31
0.0
 12
906.5748092501708
 22
465.16980927259209
 32
0.0
 13
906.5748092501708
 23
465.16980927259209
 33
0.0
  0
TEXT
  5
1BA
  8
DIM
 10
637.16103460774866
 20
471.59380927259201
 30
0.0
 40
10.0
  1
525
 72
     4
 11
650.01817746489155
 21
476.59380927259201
 31
0.0
  0
LINE
  5
1BB
  8
DIM
 10
635.97480925017055
 20
749.34212388031676
 30
0.0
 11
635.97480925017055
 21
525.99978046367505
 31
0.0
  0
LINE
  5
1BC
  8
DIM
 10
635.97480925017055
 20
529.99978046367505
 30
0.0
 11
906.5748092501708
 21
529.99978046367505
 31
0.0
  0
SOLID
  5
1BD
  8
DIM
 10
647.97480925017055
 20
531.99978046367505
 30
0.0
 11
647.97480925017055
 21
527.99978046367505
 31
0.0
 12
635.97480925017055
 22
529.99978046367505
 32
0.0
 13
635.97480925017055
 23
529.99978046367505
 33
0.0
  0
SOLID
  5
1BE
  8
DIM
 10
894.57480925017069
 20
531.99978046367517
 30
0.0
 11
894.57480925017069
 21
527.99978046367517
 31
0.0
 12
906.5748092501708
 22
529.99978046367528
 32
0.0
 13
906.5748092501708
 23
529.99978046367528
 33
0.0
  0
TEXT
  5
1BF
  8
DIM
 10
759.88118937789602
 20
536.42378046367503
 30
0.0
 40
10.0
  1
271
 72
     4
 11
770.59547509218169
 21
541.42378046367503
 31
0.0
  0
LINE
  5
1C0
  8
DIM
 10
782.47480925017237
 20
529.99978046367505
 30
0.0
 11
770.47480925017237
 21
529.99978046367505
 31
0.0
  0
LINE
  5
1C1
  8
DIM
 10
926.57480925017092
 20
529.99978046367528
 30
0.0
 11
981.16076637466404
 21
529.99978046367528
 31
0.0
  0
SOLID
  5
1C2
  8
DIM
 10
894.57480925017069
 20
531.99978046367517
 30
0.0
 11
894.57480925017069
 21
527.99978046367517
 31
0.0
 12
906.5748092501708
 22
529.99978046367528
 32
0.0
 13
906.5748092501708
 23
529.99978046367528
 33
0.0
  0
SOLID
  5
1C3
  8
DIM
 10
926.57480925017092
 20
531.99978046367517
 30
0.0
 11
926.57480925017092
 21
527.99978046367517
 31
0.0
 12
914.57480925017103
 22
529.99978046367528
 32
0.0
 13
914.57480925017103
 23
529.99978046367528
 33
0.0
  0
TEXT
  5
1C4
  8
DIM
 10
952.68583958621241
 20
536.42378046367514
 30
0.0
 40
10.0
  1
8
 72
     4
 11
956.01917291954567
 21
541.42378046367514
 31
0.0
  0
LINE
  5
1C5
  8
DIM
 10
1438.4380402993081
 20
838.5021238803206
 30
0.0
 11
1489.2905026464341
 21
838.5021238803206
 31
0.0
  0
LINE
  5
1C6
  8
DIM
 10
1438.4380402993081
 20
1292.1021238803201
 30
0.0
 11
1489.2905026464341
 21
1292.1021238803201
 31
0.0
  0
LINE
  5
1C7
  8
DIM
 10
1485.2905026464341
 20
850.50212388032048
 30
0.0
 11
1485.2905026464341
 21
1280.1021238803201
 31
0.0
  0
SOLID
  5
1C8
  8
DIM
 10
1483.2905026464341
 20
850.50212388032048
 30
0.0
 11
1487.2905026464341
 21
850.50212388032048
 31
0.0
 12
1485.2905026464341
 22
838.5021238803206
 32
0.0
 13
1485.2905026464341
 23
838.5021238803206
 33
0.0
  0
SOLID
  5
1C9
  8
DIM
 10
1483.2905026464341
 20
1280.1021238803201
 30
0.0
 11
1487.2905026464341
 21
1280.1021238803201
 31
0.0
 12
1485.2905026464341
 22
1292.1021238803201
 32
0.0
 13
1485.2905026464341
 23
1292.1021238803201
 33
0.0
  0
TEXT
  5
1CA
  8
DIM
 10
1478.8665026464339
 20
1052.206885785082
 30
0.0
 40
10.0
  1
454
 50
90.0
 72
     4
 11
1473.8665026464339
 21
1065.3021238803201
 31
0.0
  0
LINE
  5
1CB
  8
DIM
 10
1418.348483911104
 20
1374.1021238803201
 30
0.0
 11
1489.2905026464341
 21
1374.1021238803201
 31
0.0
  0
LINE
  5
1CC
  8
DIM
 10
1485.2905026464341
 20
1304.1021238803201
 30
0.0
 11
1485.2905026464341
 21
1362.1021238803201
 31
0.0
  0
SOLID
  5
1CD
  8
DIM
 10
1483.2905026464341
 20
1304.1021238803201
 30
0.0
 11
1487.2905026464341
 21
1304.1021238803201
 31
0.0
 12
1485.2905026464341
 22
1292.1021238803201
 32
0.0
 13
1485.2905026464341
 23
1292.1021238803201
 33
0.0
  0
SOLID
  5
1CE
  8
DIM
 10
1483.2905026464341
 20
1362.1021238803201
 30
0.0
 11
1487.2905026464341
 21
1362.1021238803201
 31
0.0
 12
1485.2905026464341
 22
1374.1021238803201
 32
0.0
 13
1485.2905026464341
 23
1374.1021238803201
 33
0.0
  0
TEXT
  5
1CF
  8
DIM
 10
1478.8665026464339
 20
1325.006885785082
 30
0.0
 40
10.0
  1
82
 50
90.0
 72
     4
 11
1473.8665026464339
 21
1333.1021238803201
 31
0.0
  0
TEXT
  5
1D0
  8
DIM
 10
950.26832016825972
 20
1142.5373567333961
 30
0.0
 40
10.0
  1
8 OFF M16 BASEPLATE SECURING
  0
TEXT
  5
1D1
  8
DIM
 10
950.26832016825972
 20
1125.3944995905399
 30
0.0
 40
10.0
  1
SCREWS EQUALLY SPACED 11.25%%D
  0
TEXT
  5
1D2
  8
DIM
 10
950.26832016825972
 20
1108.2516424476819
 30
0.0
 40
10.0
  1
OFF CENTRES ON %%C490 PC (19.29")
  0
SOLID
  5
1D4
  8
DIM
 10
1255.366401429626
 20
1059.6656249484799
 30
0.0
 11
1253.2299678591739
 21
1056.283960920365
 31
0.0
 12
1264.4431767287449
 22
1051.5654922230669
 32
0.0
 13
1264.4431767287449
 23
1051.5654922230669
 33
0.0
  0
LINE
  5
1D5
  8
DIM
 10
1254.2981846444
 20
1057.9747929344221
 30
0.0
 11
1186.888647332948
 21
1101.7673079324361
 31
0.0
  0
SOLID
  5
1D6
  8
DIM
 10
1345.3745919310049
 20
1358.0787953174131
 30
0.0
 11
1342.648311447989
 21
1355.151784089569
 31
0.0
 12
1352.792485373031
 22
1348.436448254444
 32
0.0
 13
1352.792485373031
 23
1348.436448254444
 33
0.0
  0
LINE
  5
1D7
  8
DIM
 10
1344.0114516894971
 20
1356.615289703491
 30
0.0
 11
1289.3848317239169
 21
1407.4956848480449
 31
0.0
  0
LINE
  5
1D8
  8
DIM
 10
1289.3848317239169
 20
1407.4956848480449
 30
0.0
 11
1272.5096698633381
 21
1407.4956848480449
 31
0.0
  0
LINE
  5
1D9
  8
DIM
 10
275.49300978645817
 20
1082.3814367107591
 30
0.0
 11
252.56091218506069
 21
1082.3814367107591
 31
0.0
  0
TEXT
  5
1DA
  8
DIM
 10
61.674208934826083
 20
1077.3410810496689
 30
0.0
 40
10.0
  1
%%C154 (%%c6.06") P.C. FOR
  0
TEXT
  5
1DB
  8
DIM
 10
61.674208934826083
 20
1094.483938192526
 30
0.0
 40
10.0
  1
4 OFF M16 SCREWS ON 
  0
SOLID
  5
1DC
  8
DIM
 10
365.31638146755012
 20
1233.4033760663931
 30
0.0
 11
368.73076344418899
 21
1231.3196304682931
 31
0.0
 12
373.27480925017039
 22
1242.60464919726
 32
0.0
 13
373.27480925017039
 23
1242.60464919726
 33
0.0
  0
LINE
  5
1DD
  8
DIM
 10
367.0235724558695
 20
1232.3615032673431
 30
0.0
 11
275.49300978645817
 21
1082.3814367107591
 31
0.0
  0
LINE
  5
1DE
  8
HID
 10
381.27480925017062
 20
936.00212388032037
 30
0.0
 11
417.27480925017062
 21
936.00212388032037
 31
0.0
  0
LINE
  5
1DF
  8
HID
 10
381.27480925017062
 20
741.00212388032026
 30
0.0
 11
417.27480925017062
 21
741.00212388032026
 31
0.0
  0
SOLID
  5
1E0
  8
DIM
 10
1440.3467762688599
 20
816.37955969903362
 30
0.0
 11
1437.905879511341
 21
813.21064458197384
 31
0.0
 12
1448.633073241281
 22
807.47241186794508
 32
0.0
 13
1448.633073241281
 23
807.47241186794508
 33
0.0
  0
SOLID
  5
1E1
  8
DIM
 10
1430.84003091768
 20
823.70224997159301
 30
0.0
 11
1428.39913416016
 21
820.53333485453265
 31
0.0
 12
1439.1263278900999
 22
814.79510214050424
 32
0.0
 13
1439.1263278900999
 23
814.79510214050424
 33
0.0
  0
LINE
  5
1E2
  8
DIM
 10
1448.6330732412789
 20
807.47241186794565
 30
0.0
 11
1181.9630363811859
 21
1012.878364458849
 31
0.0
  0
ARC
  5
1E3
  8
DRG
 10
1408.348483911104
 20
838.5021238803206
 30
0.0
 40
170.0
 50
90.0
 51
270.0
  0
ARC
  5
1E4
  8
DRG
 10
1408.348483911104
 20
838.5021238803206
 30
0.0
 40
85.0
 50
90.0
 51
270.0
  0
ARC
  5
1E5
  8
DRG
 10
1330.658483911104
 20
1026.0521238803201
 30
0.0
 40
35.0
 50
14.622427622922929
 51
210.379786905793
  0
LINE
  5
1E6
  8
CRS
 10
1309.708582465197
 20
1026.2329420831629
 30
0.0
 11
1351.458582465207
 21
1026.2329420831641
 31
0.0
  0
LINE
  5
1E7
  8
CRS
 10
1330.583582465202
 20
1005.357942083158
 30
0.0
 11
1330.583582465202
 21
1047.1079420831691
 31
0.0
  0
ARC
  5
1E8
  8
DRG
 10
1408.348483911104
 20
838.5021238803206
 30
0.0
 40
190.0
 50
90.0
 51
99.175953439024525
  0
ARC
  5
1E9
  8
DIM
 10
1408.348483911104
 20
838.50212388032082
 30
0.0
 40
238.0
 50
140.79199345513891
 51
153.04000354184379
  0
ARC
  5
1EA
  8
DRG
 10
1408.348483911104
 20
838.5021238803206
 30
0.0
 40
190.0
 50
125.8262610896915
 51
144.1737389103084
  0
SOLID
  5
1EB
  8
DIM
 10
1228.0843314184569
 20
974.82833312164382
 30
0.0
 11
1230.525228175977
 21
977.99724823870406
 31
0.0
 12
1219.798034446037
 22
983.73548095273259
 32
0.0
 13
1219.798034446037
 23
983.73548095273259
 33
0.0
  0
ARC
  5
1EC
  8
DRG
 10
1220.7984839111041
 20
916.19212388032042
 30
0.0
 40
35.0
 50
59.62021309420669
 51
255.3775723770772
  0
ARC
  5
1ED
  8
DRG
 10
1220.7984839111041
 20
760.81212388032054
 30
0.0
 40
35.0
 50
104.6224276229227
 51
300.37978690579331
  0
ARC
  5
1EE
  8
DRG
 10
1408.348483911104
 20
838.5021238803206
 30
0.0
 40
190.0
 50
170.8240465609754
 51
189.17595343902451
  0
ARC
  5
1EF
  8
DRG
 10
1330.658483911104
 20
650.95212388032064
 30
0.0
 40
35.0
 50
149.62021309420689
 51
345.377572377077
  0
ARC
  5
1F0
  8
DRG
 10
1408.348483911104
 20
838.5021238803206
 30
0.0
 40
190.0
 50
260.82404656097549
 51
270.0
  0
ARC
  5
1F1
  8
DRG
 10
1408.348483911104
 20
838.5021238803206
 30
0.0
 40
190.0
 50
215.82626108969151
 51
234.17373891030849
  0
ARC
  5
1F2
  8
DRG
 10
716.27480925017085
 20
1071.052123880314
 30
0.0
 40
10.0
 50
180.00000000000071
 51
270.00000000000068
  0
ARC
  5
1F3
  8
DRG
 10
716.27480925017176
 20
1009.996930919369
 30
0.0
 40
10.0
 50
196.54756189717531
 51
270.00000000000068
  0
LINE
  5
1F4
  8
DRG
 10
906.57480925017046
 20
999.99693091937172
 30
0.0
 11
716.27480925017176
 21
999.99693091936956
 31
0.0
  0
LINE
  5
1F5
  8
DRG
 10
906.57480925017046
 20
1061.052123880316
 30
0.0
 11
716.27480925017085
 21
1061.052123880314
 31
0.0
  0
LINE
  5
1F6
  8
DRG
 10
914.57480925017046
 20
952.80212388032055
 30
0.0
 11
914.5748092501708
 21
724.20212388032064
 31
0.0
  0
LINE
  5
1F7
  8
DRG
 10
906.57480925017046
 20
1061.052123880316
 30
0.0
 11
906.5748092501708
 21
615.95212388032382
 31
0.0
  0
LINE
  5
1F8
  8
DRG
 10
906.57480925017046
 20
951.19212388031838
 30
0.0
 11
716.27480925017244
 21
951.19212388031588
 31
0.0
  0
LINE
  5
1F9
  8
DRG
 10
906.5748092501708
 20
952.80212388032055
 30
0.0
 11
914.57480925017046
 21
952.80212388032055
 31
0.0
  0
ARC
  5
1FA
  8
DRG
 10
716.27480925017221
 20
961.19212388031588
 30
0.0
 40
10.0
 50
180.00000000000071
 51
270.00000000000068
  0
LINE
  5
1FB
  8
DRG
 10
906.5748092501708
 20
615.95212388032382
 30
0.0
 11
716.27480925017085
 21
615.9521238803261
 31
0.0
  0
LINE
  5
1FC
  8
DRG
 10
906.57480925017046
 20
677.00731684126856
 30
0.0
 11
716.27480925017176
 21
677.00731684127095
 31
0.0
  0
LINE
  5
1FD
  8
DRG
 10
906.57480925017057
 20
724.20212388032064
 30
0.0
 11
914.5748092501708
 21
724.20212388032064
 31
0.0
  0
LINE
  5
1FE
  8
DRG
 10
906.57480925017046
 20
725.81212388032213
 30
0.0
 11
716.27480925017244
 21
725.81212388032463
 31
0.0
  0
ARC
  5
1FF
  8
DRG
 10
716.27480925017221
 20
715.81212388032463
 30
0.0
 40
10.0
 50
89.999999999999275
 51
179.9999999999992
  0
ARC
  5
200
  8
DRG
 10
716.27480925017085
 20
605.95212388032598
 30
0.0
 40
10.0
 50
89.999999999999275
 51
179.9999999999992
  0
ARC
  5
201
  8
DRG
 10
716.27480925017176
 20
667.00731684127095
 30
0.0
 40
10.0
 50
89.999999999999275
 51
163.4524381028246
  0
LINE
  5
202
  8
HID
 10
665.47480925017055
 20
755.50212388031639
 30
0.0
 11
635.97480925017055
 21
755.50212388031639
 31
0.0
  0
LINE
  5
203
  8
HID
 10
665.47480925017055
 20
921.5021238803165
 30
0.0
 11
635.97480925017055
 21
921.5021238803165
 31
0.0
  0
LINE
  5
204
  8
HID
 10
665.47480925017044
 20
754.26212388031649
 30
0.0
 11
635.97480925017055
 21
754.26212388031649
 31
0.0
  0
LINE
  5
205
  8
HID
 10
665.4748092501701
 20
922.74212388031651
 30
0.0
 11
635.97480925017055
 21
922.74212388031651
 31
0.0
  0
LINE
  5
206
  8
HID
 10
635.97480925017055
 20
922.74212388031651
 30
0.0
 11
635.97480925017055
 21
754.26212388031649
 31
0.0
  0
LINE
  5
207
  8
HID
 10
789.22480925017067
 20
943.3821238803165
 30
0.0
 11
789.22480925017067
 21
923.29212388031658
 31
0.0
  0
LINE
  5
208
  8
HID
 10
821.17480925017071
 20
943.3821238803165
 30
0.0
 11
821.17480925017071
 21
923.29212388031658
 31
0.0
  0
LINE
  5
209
  8
HID
 10
789.22480925017021
 20
733.62212388031639
 30
0.0
 11
821.17480925017026
 21
733.62212388031662
 31
0.0
  0
LINE
  5
20A
  8
HID
 10
676.97480925017055
 20
753.71212388031654
 30
0.0
 11
789.22480925017067
 21
753.71212388031654
 31
0.0
  0
LINE
  5
20B
  8
HID
 10
669.47480925017089
 20
753.55212388031634
 30
0.0
 11
669.47480925017055
 21
755.69212388031644
 31
0.0
  0
LINE
  5
20C
  8
HID
 10
665.47480925017044
 20
754.26212388031649
 30
0.0
 11
665.47480925017055
 21
755.69212388031644
 31
0.0
  0
LINE
  5
20D
  8
HID
 10
676.97480925017055
 20
753.71212388031654
 30
0.0
 11
676.97480925017055
 21
753.55212388031634
 31
0.0
  0
LINE
  5
20E
  8
HID
 10
676.97480925017055
 20
753.55212388031634
 30
0.0
 11
669.47480925017089
 21
753.55212388031634
 31
0.0
  0
LINE
  5
20F
  8
HID
 10
669.47480925017055
 20
755.69212388031644
 30
0.0
 11
665.47480925017055
 21
755.69212388031644
 31
0.0
  0
LINE
  5
210
  8
HID
 10
789.22480925017067
 20
753.71212388031654
 30
0.0
 11
789.22480925017021
 21
733.62212388031639
 31
0.0
  0
LINE
  5
211
  8
HID
 10
676.97480925017055
 20
923.2921238803159
 30
0.0
 11
789.22480925017067
 21
923.29212388031658
 31
0.0
  0
LINE
  5
212
  8
HID
 10
676.97480925017055
 20
923.45212388031655
 30
0.0
 11
676.97480925017055
 21
923.2921238803159
 31
0.0
  0
LINE
  5
213
  8
HID
 10
676.97480925017055
 20
923.45212388031655
 30
0.0
 11
669.47480925017055
 21
923.45212388031655
 31
0.0
  0
LINE
  5
214
  8
HID
 10
669.47480925017055
 20
921.31212388031645
 30
0.0
 11
665.47480925017055
 21
921.31212388031645
 31
0.0
  0
LINE
  5
215
  8
HID
 10
665.4748092501701
 20
922.74212388031651
 30
0.0
 11
665.47480925017055
 21
921.31212388031645
 31
0.0
  0
LINE
  5
216
  8
HID
 10
669.47480925017055
 20
923.45212388031655
 30
0.0
 11
669.47480925017055
 21
921.31212388031645
 31
0.0
  0
LINE
  5
217
  8
HID
 10
895.72480925016998
 20
923.29212388031658
 30
0.0
 11
895.72480925017067
 21
753.71212388031654
 31
0.0
  0
LINE
  5
218
  8
HID
 10
821.17480925017071
 20
753.71212388031654
 30
0.0
 11
895.72480925017067
 21
753.71212388031654
 31
0.0
  0
LINE
  5
219
  8
HID
 10
821.17480925017071
 20
753.71212388031654
 30
0.0
 11
821.17480925017026
 21
733.62212388031639
 31
0.0
  0
LINE
  5
21A
  8
HID
 10
821.17480925017071
 20
923.29212388031635
 30
0.0
 11
895.72480925016998
 21
923.29212388031658
 31
0.0
  0
LINE
  5
21B
  8
HID
 10
789.22480925017021
 20
943.3821238803165
 30
0.0
 11
821.17480925017071
 21
943.3821238803165
 31
0.0
  0
ARC
  5
21C
  8
DRG
 10
1376.1361739970439
 20
1037.917186225171
 30
0.0
 40
12.0
 50
194.6224276229226
 51
279.17595343902462
  0
ARC
  5
21D
  8
DRG
 10
1290.111953487369
 20
1002.282839696796
 30
0.0
 40
12.0
 50
305.82626108969163
 51
30.379786905793431
  0
ARC
  5
21E
  8
DRG
 10
1244.567768094628
 20
956.73865430405533
 30
0.0
 40
12.0
 50
239.6202130942068
 51
324.17373891030871
  0
ARC
  5
21F
  8
DRG
 10
1208.9334215662529
 20
870.71443379438017
 30
0.0
 40
12.0
 50
350.82404656097532
 51
75.377572377076859
  0
ARC
  5
220
  8
DRG
 10
1208.9334215662529
 20
806.28981396626068
 30
0.0
 40
12.0
 50
284.62242762292311
 51
9.1759534390246564
  0
ARC
  5
221
  8
DRG
 10
1244.567768094628
 20
720.26559345658541
 30
0.0
 40
12.0
 50
35.826261089691222
 51
120.3797869057931
  0
ARC
  5
222
  8
DRG
 10
1290.111953487369
 20
674.72140806384448
 30
0.0
 40
12.0
 50
329.62021309420652
 51
54.173738910308323
  0
ARC
  5
223
  8
DRG
 10
1376.1361739970439
 20
639.08706153547007
 30
0.0
 40
12.0
 50
80.824046560975347
 51
165.37757237707731
  0
LINE
  5
224
  8
CRS
 10
724.38726490510737
 20
634.78466022047655
 30
0.0
 11
703.86765893755967
 21
634.78466022047655
 31
0.0
  0
LINE
  5
225
  8
DRG2
 10
721.27480925017062
 20
622.61466022047659
 30
0.0
 11
706.27480925017062
 21
622.61466022047659
 31
0.0
  0
LINE
  5
226
  8
DRG2
 10
721.27480925017062
 20
646.95466022047663
 30
0.0
 11
706.27480925017062
 21
646.95466022047663
 31
0.0
  0
LINE
  5
227
  8
DRG2
 10
722.27480925017062
 20
623.61466022047671
 30
0.0
 11
722.27480925017062
 21
645.95466022047663
 31
0.0
  0
LINE
  5
228
  8
DRG2
 10
721.27480925017062
 20
622.61466022047659
 30
0.0
 11
721.27480925017062
 21
646.95466022047663
 31
0.0
  0
LINE
  5
229
  8
DRG2
 10
722.27480925017062
 20
645.95466022047663
 30
0.0
 11
721.27480925017062
 21
646.95466022047663
 31
0.0
  0
LINE
  5
22A
  8
DRG2
 10
721.27480925017062
 20
622.61466022047659
 30
0.0
 11
722.27480925017062
 21
623.61466022047671
 31
0.0
  0
LINE
  5
22B
  8
DIM
 10
914.5748092501708
 20
716.5389081321598
 30
0.0
 11
914.57480925017103
 21
525.99978046367528
 31
0.0
  0
LINE
  5
22C
  8
DIM
 10
906.5748092501708
 20
605.19654220910616
 30
0.0
 11
906.5748092501708
 21
461.1698092725922
 31
0.0
  0
LINE
  5
22D
  8
DIM
 10
906.57480925017046
 20
1072.145234133719
 30
0.0
 11
906.57480925017046
 21
1493.7056111196621
 31
0.0
  0
TEXT
  5
22E
  8
DIM
 10
975.07218819070397
 20
1385.1790478385569
 30
0.0
 40
10.0
  1
THIS SIDE ONLY FOR G30 & ISO F30
  0
TEXT
  5
22F
  8
DIM
 10
975.07218819070397
 20
1402.8514372
 30
0.0
 40
10.0
  1
%%C140 (%%c5.51) P.C.
  0
TEXT
  5
230
  8
DIM
 10
975.07218819070397
 20
1419.9942943428571
 30
0.0
 40
10.0
  1
4 OFF M12 SCREWS EACH SIDE ON
  0
ARC
  5
231
  8
DRG
 10
1408.348483911104
 20
1101.3021238803201
 30
0.0
 40
30.0
 50
90.0
 51
188.62192824309639
  0
LINE
  5
232
  8
CRS
 10
374.70802435981682
 20
948.5021238803206
 30
0.0
 11
411.17021942931859
 21
948.5021238803206
 31
0.0
  0
LINE
  5
233
  8
CRS
 10
374.70802435981682
 20
728.50212388032026
 30
0.0
 11
411.17021942931859
 21
728.50212388032026
 31
0.0
  0
LINE
  5
234
  8
HID
 10
399.0180256830788
 20
944.25212388032048
 30
0.0
 11
401.27480925017079
 21
944.25212388032048
 31
0.0
  0
LINE
  5
235
  8
HID
 10
399.0180256830788
 20
952.7521238803206
 30
0.0
 11
401.27480925017079
 21
952.7521238803206
 31
0.0
  0
LINE
  5
236
  8
HID
 10
381.27480925017079
 20
943.50212388032048
 30
0.0
 11
384.9098940931064
 21
943.50212388032048
 31
0.0
  0
LINE
  5
237
  8
HID
 10
381.27480925017079
 20
944.25212388032048
 30
0.0
 11
384.51412485087729
 21
944.25212388032048
 31
0.0
  0
LINE
  5
238
  8
HID
 10
381.27480925017079
 20
953.5021238803206
 30
0.0
 11
384.9098940931064
 21
953.5021238803206
 31
0.0
  0
LINE
  5
239
  8
HID
 10
381.27480925017079
 20
952.7521238803206
 30
0.0
 11
384.51412485087729
 21
952.7521238803206
 31
0.0
  0
LINE
  5
23A
  8
HID
 10
397.27480925017079
 20
945.02174212465752
 30
0.0
 11
397.27480925017079
 21
943.50212388032048
 31
0.0
  0
LINE
  5
23B
  8
HID
 10
387.91233431422108
 20
943.50212388032048
 30
0.0
 11
392.40629311661741
 21
943.50212388032048
 31
0.0
  0
LINE
  5
23C
  8
HID
 10
394.47847411744499
 20
943.50212388032048
 30
0.0
 11
397.27480925017079
 21
943.50212388032048
 31
0.0
  0
LINE
  5
23D
  8
HID
 10
394.65354640812461
 20
944.25212388032048
 30
0.0
 11
397.91458598503908
 21
944.25212388032048
 31
0.0
  0
LINE
  5
23E
  8
HID
 10
387.691645453099
 20
944.25212388032048
 30
0.0
 11
392.193939377378
 21
944.25212388032048
 31
0.0
  0
LINE
  5
23F
  8
HID
 10
387.91233431422108
 20
953.5021238803206
 30
0.0
 11
392.40629311661741
 21
953.5021238803206
 31
0.0
  0
LINE
  5
240
  8
HID
 10
387.691645453099
 20
952.7521238803206
 30
0.0
 11
392.193939377378
 21
952.7521238803206
 31
0.0
  0
LINE
  5
241
  8
HID
 10
394.47847411744499
 20
953.5021238803206
 30
0.0
 11
397.27480925017079
 21
953.5021238803206
 31
0.0
  0
LINE
  5
242
  8
HID
 10
394.65354640812461
 20
952.7521238803206
 30
0.0
 11
397.91458598503908
 21
952.7521238803206
 31
0.0
  0
LINE
  5
243
  8
HID
 10
397.27480925017079
 20
951.98250563598356
 30
0.0
 11
397.27480925017079
 21
953.5021238803206
 31
0.0
  0
LINE
  5
244
  8
HID
 10
397.27480925017079
 20
949.62935379096473
 30
0.0
 11
397.27480925017079
 21
950.95300106173431
 31
0.0
  0
LINE
  5
245
  8
HID
 10
397.27480925017079
 20
946.29595443329015
 30
0.0
 11
397.27480925017079
 21
947.98728093078194
 31
0.0
  0
LINE
  5
246
  8
HID
 10
397.27480925017079
 20
943.50212388032048
 30
0.0
 11
397.27480925017079
 21
944.84951699501005
 31
0.0
  0
LINE
  5
247
  8
HID
 10
397.27480925017079
 20
945.02174212465729
 30
0.0
 11
397.27480925017079
 21
943.50212388032048
 31
0.0
  0
LINE
  5
248
  8
HID
 10
402.98928752871069
 20
949.78256039341613
 30
0.0
 11
403.72854789422661
 21
948.5021238803206
 31
0.0
  0
LINE
  5
249
  8
HID
 10
401.27480925017079
 20
952.75212388032082
 30
0.0
 11
402.26094799310721
 21
951.04408147424294
 31
0.0
  0
LINE
  5
24A
  8
HID
 10
402.98928752871069
 20
947.22168736722494
 30
0.0
 11
403.72854789422661
 21
948.5021238803206
 31
0.0
  0
LINE
  5
24B
  8
HID
 10
401.27480925017079
 20
947.45641019485117
 30
0.0
 11
401.27480925017079
 21
949.54999523733522
 31
0.0
  0
LINE
  5
24C
  8
HID
 10
401.27480925017079
 20
944.25212388032048
 30
0.0
 11
402.26094799310721
 21
945.96016628639825
 31
0.0
  0
LINE
  5
24D
  8
HID
 10
401.27480925017079
 20
951.32068028845595
 30
0.0
 11
401.27480925017079
 21
952.7521238803206
 31
0.0
  0
LINE
  5
24E
  8
HID
 10
401.27480925017079
 20
944.25212388032048
 30
0.0
 11
401.27480925017079
 21
945.29073275193343
 31
0.0
  0
LINE
  5
24F
  8
HID
 10
401.27480925017079
 20
944.25212388032037
 30
0.0
 11
402.26094799310721
 21
945.96016628639825
 31
0.0
  0
LINE
  5
250
  8
HID
 10
399.0180256830788
 20
724.2521238803206
 30
0.0
 11
401.27480925017079
 21
724.2521238803206
 31
0.0
  0
LINE
  5
251
  8
HID
 10
399.0180256830788
 20
732.7521238803206
 30
0.0
 11
401.27480925017079
 21
732.7521238803206
 31
0.0
  0
LINE
  5
252
  8
HID
 10
381.27480925017079
 20
723.5021238803206
 30
0.0
 11
384.9098940931064
 21
723.5021238803206
 31
0.0
  0
LINE
  5
253
  8
HID
 10
381.27480925017079
 20
724.2521238803206
 30
0.0
 11
384.51412485087729
 21
724.2521238803206
 31
0.0
  0
LINE
  5
254
  8
HID
 10
381.27480925017079
 20
732.7521238803206
 30
0.0
 11
384.51412485087729
 21
732.7521238803206
 31
0.0
  0
LINE
  5
255
  8
HID
 10
381.27480925017079
 20
733.50212388032048
 30
0.0
 11
384.9098940931064
 21
733.50212388032048
 31
0.0
  0
LINE
  5
256
  8
HID
 10
397.27480925017079
 20
731.9825056359839
 30
0.0
 11
397.27480925017079
 21
733.50212388032048
 31
0.0
  0
LINE
  5
257
  8
HID
 10
397.27480925017079
 20
733.50212388032048
 30
0.0
 11
397.27480925017079
 21
732.15473076563103
 31
0.0
  0
LINE
  5
258
  8
HID
 10
397.27480925017079
 20
727.37489396967658
 30
0.0
 11
397.27480925017079
 21
726.05124669890688
 31
0.0
  0
LINE
  5
259
  8
HID
 10
397.27480925017079
 20
725.02174212465752
 30
0.0
 11
397.27480925017079
 21
723.5021238803206
 31
0.0
  0
LINE
  5
25A
  8
HID
 10
387.91233431422108
 20
723.5021238803206
 30
0.0
 11
392.40629311661741
 21
723.5021238803206
 31
0.0
  0
LINE
  5
25B
  8
HID
 10
394.47847411744499
 20
723.5021238803206
 30
0.0
 11
397.27480925017079
 21
723.5021238803206
 31
0.0
  0
LINE
  5
25C
  8
HID
 10
394.65354640812461
 20
724.2521238803206
 30
0.0
 11
397.91458598503908
 21
724.2521238803206
 31
0.0
  0
LINE
  5
25D
  8
HID
 10
387.691645453099
 20
724.2521238803206
 30
0.0
 11
392.193939377378
 21
724.2521238803206
 31
0.0
  0
LINE
  5
25E
  8
HID
 10
387.691645453099
 20
732.7521238803206
 30
0.0
 11
392.193939377378
 21
732.7521238803206
 31
0.0
  0
LINE
  5
25F
  8
HID
 10
394.65354640812461
 20
732.7521238803206
 30
0.0
 11
397.91458598503908
 21
732.7521238803206
 31
0.0
  0
LINE
  5
260
  8
HID
 10
394.47847411744499
 20
733.50212388032048
 30
0.0
 11
397.27480925017079
 21
733.50212388032048
 31
0.0
  0
LINE
  5
261
  8
HID
 10
387.91233431422108
 20
733.50212388032048
 30
0.0
 11
392.40629311661741
 21
733.50212388032048
 31
0.0
  0
LINE
  5
262
  8
HID
 10
397.27480925017079
 20
731.98250563598356
 30
0.0
 11
397.27480925017079
 21
733.50212388032048
 31
0.0
  0
LINE
  5
263
  8
HID
 10
397.27480925017079
 20
730.70829332735093
 30
0.0
 11
397.27480925017079
 21
729.01696682985926
 31
0.0
  0
LINE
  5
264
  8
HID
 10
401.27480925017079
 20
732.7521238803206
 30
0.0
 11
401.27480925017079
 21
731.71351500870787
 31
0.0
  0
LINE
  5
265
  8
HID
 10
401.27480925017079
 20
725.68356747218513
 30
0.0
 11
401.27480925017079
 21
724.2521238803206
 31
0.0
  0
LINE
  5
266
  8
HID
 10
401.27480925017079
 20
729.54783756578991
 30
0.0
 11
401.27480925017079
 21
727.45425252330585
 31
0.0
  0
LINE
  5
267
  8
HID
 10
401.27480925017079
 20
732.7521238803206
 30
0.0
 11
402.26094799310721
 21
731.04408147424283
 31
0.0
  0
LINE
  5
268
  8
HID
 10
401.27480925017079
 20
732.75212388032082
 30
0.0
 11
402.26094799310721
 21
731.04408147424283
 31
0.0
  0
LINE
  5
269
  8
HID
 10
402.98928752871069
 20
729.78256039341613
 30
0.0
 11
403.72854789422661
 21
728.5021238803206
 31
0.0
  0
LINE
  5
26A
  8
HID
 10
401.27480925017079
 20
724.25212388032026
 30
0.0
 11
402.26094799310721
 21
725.96016628639836
 31
0.0
  0
LINE
  5
26B
  8
HID
 10
402.98928752871069
 20
727.22168736722494
 30
0.0
 11
403.72854789422661
 21
728.5021238803206
 31
0.0
  0
TEXT
  5
26C
  8
TXT
 10
586.76190476190482
 20
117.7234491247048
 30
0.0
 40
10.0
  1
8.87
 72
     4
 11
602.0
 21
122.7234491247048
 31
0.0
  0
TEXT
  5
26D
  8
TXT
 10
580.57142857142856
 20
149.72344912470481
 30
0.0
 40
10.0
  1
9.86:1
 72
     4
 11
602.0
 21
154.72344912470481
 31
0.0
  0
TEXT
  5
26E
  8
TXT
 10
588.66666666666663
 20
181.72344912470481
 30
0.0
 40
10.0
  1
10:1
 72
     4
 11
602.0
 21
186.72344912470481
 31
0.0
  0
LINE
  5
26F
  8
DRG2
 10
312.0
 20
106.7234491247048
 30
0.0
 11
852.0
 21
106.7234491247048
 31
0.0
  0
LINE
  5
270
  8
DRG2
 10
312.0
 20
138.72344912470481
 30
0.0
 11
852.0
 21
138.72344912470481
 31
0.0
  0
LINE
  5
271
  8
DRG2
 10
312.0
 20
170.72344912470481
 30
0.0
 11
852.0
 21
170.72344912470481
 31
0.0
  0
LINE
  5
272
  8
DRG2
 10
312.0
 20
202.72344912470481
 30
0.0
 11
852.0
 21
202.72344912470481
 31
0.0
  0
TEXT
  5
273
  8
TXT
 10
321.52380952380958
 20
118.43773483899049
 30
0.0
 40
10.0
  1
FACTOR (MECH. ADVANTAGE)
 72
     4
 11
432.0
 21
122.7234491247048
 31
0.0
  0
LINE
  5
274
  8
DRG2
 10
312.0
 20
106.7234491247048
 30
0.0
 11
312.0
 21
202.72344912470481
 31
0.0
  0
TEXT
  5
275
  8
TXT
 10
374.61904761904748
 20
181.72344912470481
 30
0.0
 40
10.0
  1
NOMINAL RATIO
 72
     4
 11
432.0
 21
186.72344912470481
 31
0.0
  0
TEXT
  5
276
  8
TXT
 10
383.42857142857139
 20
149.72344912470481
 30
0.0
 40
10.0
  1
EXACT RATIO
 72
     4
 11
432.0
 21
154.72344912470481
 31
0.0
  0
LINE
  5
277
  8
DRG2
 10
552.0
 20
106.7234491247048
 30
0.0
 11
552.0
 21
202.72344912470481
 31
0.0
  0
TEXT
  5
278
  8
TXT
 10
782.95238095238085
 20
117.7234491247048
 30
0.0
 40
10.0
  1
13.50
 72
     4
 11
802.0
 21
122.7234491247048
 31
0.0
  0
TEXT
  5
279
  8
TXT
 10
776.76190476190482
 20
149.72344912470481
 30
0.0
 40
10.0
  1
15.00:1
 72
     4
 11
802.0
 21
154.72344912470481
 31
0.0
  0
TEXT
  5
27A
  8
TXT
 10
788.66666666666663
 20
181.72344912470481
 30
0.0
 40
10.0
  1
15:1
 72
     4
 11
802.0
 21
186.72344912470481
 31
0.0
  0
TEXT
  5
27B
  8
TXT
 10
682.95238095238085
 20
117.7234491247048
 30
0.0
 40
10.0
  1
10.80
 72
     4
 11
702.0
 21
122.7234491247048
 31
0.0
  0
TEXT
  5
27C
  8
TXT
 10
676.76190476190482
 20
149.72344912470481
 30
0.0
 40
10.0
  1
12.00:1
 72
     4
 11
702.0
 21
154.72344912470481
 31
0.0
  0
TEXT
  5
27D
  8
TXT
 10
688.66666666666663
 20
181.72344912470481
 30
0.0
 40
10.0
  1
12:1
 72
     4
 11
702.0
 21
186.72344912470481
 31
0.0
  0
LINE
  5
27E
  8
DRG2
 10
652.0
 20
106.7234491247048
 30
0.0
 11
652.0
 21
202.72344912470481
 31
0.0
  0
LINE
  5
27F
  8
DRG2
 10
752.0
 20
106.7234491247048
 30
0.0
 11
752.0
 21
202.72344912470481
 31
0.0
  0
LINE
  5
280
  8
DRG2
 10
852.0
 20
106.7234491247048
 30
0.0
 11
852.0
 21
202.72344912470481
 31
0.0
  0
ARC
  5
281
  8
DRG
 10
1408.348483911104
 20
838.5021238803206
 30
0.0
 40
114.2999999999999
 50
90.0
 51
270.0
  0
ARC
  5
282
  8
DRG2
 10
1330.583582465202
 20
1026.2329420831641
 30
0.0
 40
15.875
 50
61.796803806659497
 51
17.518053290210158
  0
CIRCLE
  5
283
  8
DRG2
 10
1330.583582465202
 20
1026.2329420831641
 30
0.0
 40
14.084300000000001
  0
TEXT
  5
284
  8
DIM
 10
980.87996768151038
 20
1099.574370901958
 30
0.0
 40
9.9960000000000004
  1

  0
TEXT
  5
286
  8
DIM
 10
1501.0002169321481
 20
1307.8640286422251
 30
0.0
 40
10.0
  1
(3.23")
 50
90.0
 72
     4
 11
1496.7145026464341
 21
1333.1021238803201
 31
0.0
  0
TEXT
  5
287
  8
DIM
 10
1501.0002169321481
 20
1036.2545048327011
 30
0.0
 40
10.0
  1
(17.86")
 50
90.0
 72
     4
 11
1496.7145026464341
 21
1065.3021238803201
 31
0.0
  0
TEXT
  5
288
  8
DIM
 10
1084.2574733463221
 20
997.39374906562171
 30
0.0
 40
9.9960000000000004
  1
(%%c18.74")
 50
0.0000000000001599
 72
     4
 11
1117.8154733463221
 21
1001.677749065621
 31
0.0
  0
TEXT
  5
289
  8
DIM
 10
1100.679473346323
 20
1019.080979852077
 30
0.0
 40
9.9960000000000004
  1
%%C476
 72
     4
 11
1117.815473346323
 21
1024.0789798520771
 31
0.0
  0
LINE
  5
28A
  8
DIM
 10
1181.9630363811859
 20
1012.878364458849
 30
0.0
 11
1085.8911513230439
 21
1012.878364458849
 31
0.0
  0
TEXT
  5
28B
  8
DIM
 10
1294.7383641407571
 20
514.29178046367497
 30
0.0
 40
9.9960000000000004
  1
(20.47")
 72
     4
 11
1324.7263641407569
 21
518.57578046367496
 31
0.0
  0
TEXT
  5
28C
  8
DIM
 10
735.75543047912379
 20
882.36908960387757
 30
0.0
 40
9.9960000000000004
  1
(10.23")
 72
     4
 11
764.79143047912385
 21
886.65308960387756
 31
0.0
  0
TEXT
  5
28D
  8
DIM
 10
741.54785604456265
 20
514.29006617796074
 30
0.0
 40
10.0
  1
(10.65")
 72
     4
 11
770.59547509218169
 21
518.57578046367496
 31
0.0
  0
TEXT
  5
28E
  8
DIM
 10
931.73345863383145
 20
514.29006617796051
 30
0.0
 40
10.0
  1
(0.31")
 72
     4
 11
956.01917291954567
 21
518.57578046367485
 31
0.0
  0
TEXT
  5
28F
  8
DIM
 10
620.01817746489155
 20
449.46009498687772
 30
0.0
 40
10.0
  1
(20.68")
 72
     4
 11
650.01817746489155
 21
453.745809272592
 31
0.0
  0
TEXT
  5
290
  8
DIM
 10
205.1792777013016
 20
813.27412388032087
 30
0.0
 40
9.9960000000000004
  1
(7.69")
 50
90.0
 72
     4
 11
200.89527770130161
 21
838.50212388032082
 31
0.0
  0
TEXT
  5
291
  8
DIM
 10
290.0468092501701
 20
1473.997611119662
 30
0.0
 40
9.9960000000000004
  1
(6.69")
 72
     4
 11
315.27480925017011
 21
1478.281611119661
 31
0.0
  0
TEXT
  5
292
  8
DIM
 10
624.02650766920533
 20
1473.995896833947
 30
0.0
 40
10.0
  1
(19.93")
 72
     4
 11
653.07412671682425
 21
1478.281611119661
 31
0.0
  0
TEXT
  5
293
  8
DIM
 10
713.07352664981499
 20
1419.9223214199881
 30
0.0
 40
10.0
  1
(12.89")
 72
     4
 11
742.12114569743403
 21
1424.2080357057021
 31
0.0
  0
TEXT
  5
294
  8
DIM
 10
319.21601205035432
 20
1419.974681291249
 30
0.0
 40
9.9960000000000004
  1
(0.59")
 72
     4
 11
344.44401205035427
 21
1424.2586812912491
 31
0.0
  0
TEXT
  5
295
  8
DIM
 10
162.28455224874301
 20
1419.974681291249
 30
0.0
 40
9.9960000000000004
  1
(0.20")
 72
     4
 11
187.51255224874299
 21
1424.2586812912491
 31
0.0
  0
TEXT
  5
296
  8
DIM
 10
610.06822365905964
 20
1386.5521126612141
 30
0.0
 40
10.0
  1
(0.47")
 72
     4
 11
635.30631889715482
 21
1390.8378269469281
 31
0.0
  0
TEXT
  5
297
  8
DIM
 10
790.2164867761162
 20
1218.4848123186321
 30
0.0
 40
10.0
  1
(7.26")
 72
     4
 11
815.45458201421138
 21
1222.770526604347
 31
0.0
  0
TEXT
  5
298
  8
DIM
 10
61.674208934826083
 20
1060.1982239068111
 30
0.0
 40
10.0
  1
G30 & ISO F30 ONLY
  0
TEXT
  5
299
  8
DIM
 10
100.9269611597438
 20
1385.6058044913609
 30
0.0
 40
10.0
  1
14x9x55
 72
     4
 11
130.45077068355329
 21
1390.6058044913609
 31
0.0
  0
TEXT
  5
29A
  8
DIM
 10
57.59362782641054
 20
1369.17723306279
 30
0.0
 40
10.0
  1
(0.55"x0.35"x2.17")
 72
     4
 11
130.45077068355329
 21
1373.462947348504
 31
0.0
  0
TEXT
  5
29B
  8
DIM
 10
117.11743735022
 20
1351.3200902056469
 30
0.0
 40
10.0
  1
KEY
 72
     4
 11
130.45077068355329
 21
1356.3200902056469
 31
0.0
  0
LINE
  5
29C
  8
DIM
 10
208.65086216293841
 20
1373.462947348504
 30
0.0
 11
246.43357292692571
 21
1373.462947348504
 31
0.0
  0
LINE
  5
29D
  8
DIM
 10
235.27480925017011
 20
1377.066820706895
 30
0.0
 11
235.27480925017011
 21
1439.7733923038161
 31
0.0
  0
LINE
  5
29E
  8
DIM
 10
230.27480925017011
 20
1377.066820706895
 30
0.0
 11
230.27480925017011
 21
1493.614851501465
 31
0.0
  0
LINE
  5
29F
  8
DIM
 10
230.27480925017011
 20
1320.002776240412
 30
0.0
 11
230.27480925017011
 21
1369.6819276984211
 31
0.0
  0
LINE
  5
2A0
  8
DIM
 10
227.58889734925759
 20
1317.102123880321
 30
0.0
 11
155.52789901250409
 21
1317.102123880321
 31
0.0
  0
LINE
  5
2A1
  8
DIM
 10
228.5097001811784
 20
1267.102123880321
 30
0.0
 11
155.52789901250409
 21
1267.102123880321
 31
0.0
  0
LINE
  5
2A2
  8
CRS
 10
1220.614660171474
 20
895.38476931854404
 30
0.0
 11
1220.6146601714729
 21
937.13476931855462
 31
0.0
  0
LINE
  5
2A3
  8
CRS
 10
1241.489660171479
 20
916.25976931854939
 30
0.0
 11
1199.7396601714679
 21
916.25976931854939
 31
0.0
  0
LINE
  5
2A4
  8
CRS
 10
1220.6176657082599
 20
739.86222243441352
 30
0.0
 11
1220.6176657082599
 21
781.61222243442398
 31
0.0
  0
LINE
  5
2A5
  8
CRS
 10
1241.4926657082649
 20
760.73722243441875
 30
0.0
 11
1199.7426657082549
 21
760.73722243441875
 31
0.0
  0
LINE
  5
2A6
  8
CRS
 10
1351.46583847288
 20
650.76830014069037
 30
0.0
 11
1309.7158384728691
 21
650.76830014069014
 31
0.0
  0
LINE
  5
2A7
  8
CRS
 10
1330.590838472875
 20
671.64330014069526
 30
0.0
 11
1330.590838472875
 21
629.89330014068491
 31
0.0
  0
CIRCLE
  5
2A8
  8
DRG2
 10
1220.614660171474
 20
916.25976931854939
 30
0.0
 40
14.084300000000001
  0
ARC
  5
2A9
  8
DRG2
 10
1220.614660171474
 20
916.25976931854939
 30
0.0
 40
15.875
 50
61.796803806659497
 51
17.518053290210158
  0
CIRCLE
  5
2AA
  8
DRG2
 10
1220.6176657082599
 20
760.73722243441875
 30
0.0
 40
14.084300000000001
  0
ARC
  5
2AB
  8
DRG2
 10
1220.6176657082599
 20
760.73722243441875
 30
0.0
 40
15.875
 50
61.796803806659497
 51
17.518053290210158
  0
CIRCLE
  5
2AC
  8
DRG2
 10
1330.590838472875
 20
650.76830014069037
 30
0.0
 40
14.084300000000001
  0
ARC
  5
2AD
  8
DRG2
 10
1330.590838472875
 20
650.76830014069037
 30
0.0
 40
15.875
 50
61.796803806659497
 51
17.518053290210158
  0
TEXT
  5
2AE
  8
TXT
 10
732.39276915535277
 20
1896.1327735544851
 30
0.0
 40
10.0
  1
EXTENSION
 72
     4
 11
770.96419772678144
 21
1901.1327735544851
 31
0.0
  0
TEXT
  5
2AF
  8
TXT
 10
748.10705486963855
 20
1917.1327735544851
 30
0.0
 40
10.0
  1
SHAFT
 72
     4
 11
770.96419772678144
 21
1922.1327735544851
 31
0.0
  0
TEXT
  5
2B0
  8
TXT
 10
762.86895963154325
 20
1864.1327735544851
 30
0.0
 40
10.0
  1
60
 72
     4
 11
770.96419772678144
 21
1869.1327735544851
 31
0.0
  0
TEXT
  5
2B1
  8
TXT
 10
745.72610248868625
 20
1843.8470592687711
 30
0.0
 40
10.0
  1
(2.36")
 72
     4
 11
770.96419772678144
 21
1848.1327735544851
 31
0.0
  0
TEXT
  5
2B2
  8
TXT
 10
762.86895963154325
 20
1811.132773554486
 30
0.0
 40
10.0
  1
60
 72
     4
 11
770.96419772678144
 21
1816.132773554486
 31
0.0
  0
TEXT
  5
2B3
  8
TXT
 10
745.72610248868625
 20
1790.847059268772
 30
0.0
 40
10.0
  1
(2.36")
 72
     4
 11
770.96419772678144
 21
1795.132773554486
 31
0.0
  0
TEXT
  5
2B4
  8
TXT
 10
745.72610248868625
 20
1737.847059268772
 30
0.0
 40
10.0
  1
(2.36")
 72
     4
 11
770.96419772678144
 21
1742.1327735544869
 31
0.0
  0
TEXT
  5
2B5
  8
TXT
 10
762.86895963154325
 20
1705.1327735544869
 30
0.0
 40
10.0
  1
60
 72
     4
 11
770.96419772678144
 21
1710.1327735544869
 31
0.0
  0
TEXT
  5
2B6
  8
TXT
 10
762.86895963154325
 20
1758.1327735544869
 30
0.0
 40
10.0
  1
60
 72
     4
 11
770.96419772678144
 21
1763.132773554486
 31
0.0
  0
TEXT
  5
2B7
  8
TXT
 10
745.72610248868625
 20
1684.8470592687729
 30
0.0
 40
10.0
  1
(2.36")
 72
     4
 11
770.96419772678144
 21
1689.1327735544869
 31
0.0
  0
LINE
  5
2B8
  8
DRG2
 10
340.96419772678149
 20
1673.132773554486
 30
0.0
 11
1510.9641977267811
 21
1673.132773554486
 31
0.0
  0
LINE
  5
2B9
  8
DRG2
 10
340.96419772678149
 20
1726.132773554486
 30
0.0
 11
1510.9641977267811
 21
1726.1327735544869
 31
0.0
  0
LINE
  5
2BA
  8
DRG2
 10
340.96419772678149
 20
1779.132773554486
 30
0.0
 11
1510.9641977267811
 21
1779.132773554486
 31
0.0
  0
LINE
  5
2BB
  8
DRG2
 10
340.96419772678149
 20
1779.132773554486
 30
0.0
 11
1510.9641977267811
 21
1779.132773554486
 31
0.0
  0
LINE
  5
2BC
  8
DRG2
 10
340.96419772678149
 20
1885.1327735544851
 30
0.0
 11
1510.9641977267811
 21
1885.132773554486
 31
0.0
  0
LINE
  5
2BD
  8
DRG2
 10
340.96419772678149
 20
1832.1327735544851
 30
0.0
 11
1510.9641977267811
 21
1832.132773554486
 31
0.0
  0
LINE
  5
2BE
  8
DRG2
 10
340.96419772678149
 20
1938.1327735544851
 30
0.0
 11
1510.9641977267811
 21
1938.132773554486
 31
0.0
  0
LINE
  5
2BF
  8
DRG2
 10
340.96419772678149
 20
1970.1327735544851
 30
0.0
 11
1510.9641977267811
 21
1970.132773554486
 31
0.0
  0
LINE
  5
2C0
  8
DRG2
 10
340.96419772678149
 20
1620.132773554486
 30
0.0
 11
1510.9641977267811
 21
1620.1327735544869
 31
0.0
  0
LINE
  5
2C1
  8
DRG2
 10
340.96419772678149
 20
1567.132773554486
 30
0.0
 11
1510.9641977267811
 21
1567.132773554486
 31
0.0
  0
LINE
  5
2C2
  8
DIM
 10
213.68865428788209
 20
2068.2228146164648
 30
0.0
 11
307.68865428788189
 21
2068.2228146164648
 31
0.0
  0
ARC
  5
2C3
  8
DRG
 10
294.43865428788189
 20
1799.222814616465
 30
0.0
 40
5.0
 50
270.0
 51
0.0
  0
ARC
  5
2C4
  8
DRG
 10
294.43865428788189
 20
1750.222814616465
 30
0.0
 40
5.0
 50
270.0
 51
0.0
  0
ARC
  5
2C5
  8
DRG
 10
294.43865428788189
 20
1728.222814616465
 30
0.0
 40
5.0
 50
0.0
 51
89.999999999999915
  0
ARC
  5
2C6
  8
DRG
 10
294.43865428788189
 20
1679.222814616465
 30
0.0
 40
5.0
 50
0.0
 51
90.0
  0
LINE
  5
2C7
  8
CRS
 10
80.709182509522208
 20
1739.222814616465
 30
0.0
 11
334.32598597421611
 21
1739.222814616465
 31
0.0
  0
LINE
  5
2C8
  8
DRG
 10
225.68865428788169
 20
1948.222814616465
 30
0.0
 11
299.43865428788189
 21
1811.722814616465
 31
0.0
  0
LINE
  5
2C9
  8
DRG
 10
225.68865428788189
 20
1530.222814616465
 30
0.0
 11
299.43865428788189
 21
1666.722814616465
 31
0.0
  0
LINE
  5
2CA
  8
HID
 10
211.93865428788169
 20
1847.2728146164629
 30
0.0
 11
211.93865428788209
 21
1631.1728146164639
 31
0.0
  0
LINE
  5
2CB
  8
DIM
 10
35.688654287882649
 20
1948.2228146164659
 30
0.0
 11
35.688654287882883
 21
1530.2228146164659
 31
0.0
  0
LINE
  5
2CC
  8
DRG
 10
225.68865428788169
 20
1948.222814616465
 30
0.0
 11
225.6886542878822
 21
1530.222814616465
 31
0.0
  0
LINE
  5
2CD
  8
DRG
 10
205.68865428788169
 20
1948.222814616465
 30
0.0
 11
205.68865428788189
 21
1530.222814616465
 31
0.0
  0
LINE
  5
2CE
  8
DIM
 10
198.04132909010491
 20
1530.222814616465
 30
0.0
 11
33.688654287882649
 21
1530.2228146164659
 31
0.0
  0
SOLID
  5
2CF
  8
DIM
 10
33.688654287883111
 20
1542.2228146164659
 30
0.0
 11
37.688654287883111
 21
1542.2228146164659
 31
0.0
 12
35.688654287882649
 22
1530.2228146164659
 32
0.0
 13
35.688654287882649
 23
1530.2228146164659
 33
0.0
  0
LINE
  5
2D0
  8
CRS
 10
202.58243040947781
 20
1561.222814616465
 30
0.0
 11
227.83647979889881
 21
1561.222814616465
 31
0.0
  0
LINE
  5
2D1
  8
DRG
 10
205.68865428788189
 20
1530.222814616465
 30
0.0
 11
225.68865428788189
 21
1530.222814616465
 31
0.0
  0
LINE
  5
2D2
  8
HID
 10
205.68865428788331
 20
1549.722814616465
 30
0.0
 11
225.68865428788331
 21
1549.7228146164639
 31
0.0
  0
LINE
  5
2D3
  8
HID
 10
205.68865428788209
 20
1631.1728146164639
 30
0.0
 11
211.93865428788209
 21
1631.1728146164639
 31
0.0
  0
LINE
  5
2D4
  8
HID
 10
205.68865428788331
 20
1572.722814616465
 30
0.0
 11
225.68865428788331
 21
1572.722814616465
 31
0.0
  0
LINE
  5
2D5
  8
DIM
 10
201.11488405357559
 20
1948.222814616465
 30
0.0
 11
33.688654287882649
 21
1948.2228146164659
 31
0.0
  0
TEXT
  5
2D6
  8
DIM
 10
52.110654287882639
 20
1703.760814616466
 30
0.0
 40
9.9960000000000004
  1
SEE TABLE
 50
90.0
 72
     4
 11
47.112654287882627
 21
1743.7448146164661
 31
0.0
  0
TEXT
  5
2D7
  8
DIM
 10
29.262654287882679
 20
1668.298814616466
 30
0.0
 40
9.9960000000000004
  1
FOR INPUT OPTIONS
 50
90.0
 72
     4
 11
24.264654287882671
 21
1743.7448146164661
 31
0.0
  0
SOLID
  5
2D8
  8
DIM
 10
33.688654287883111
 20
1936.222814616465
 30
0.0
 11
37.688654287883111
 21
1936.222814616465
 31
0.0
 12
35.688654287882649
 22
1948.2228146164659
 32
0.0
 13
35.688654287882649
 23
1948.2228146164659
 33
0.0
  0
LINE
  5
2D9
  8
DIM
 10
205.68865428788209
 20
1953.060358167711
 30
0.0
 11
205.68865428788209
 21
2070.2228146164648
 31
0.0
  0
LINE
  5
2DA
  8
DRG
 10
97.188654287881974
 20
1714.222814616465
 30
0.0
 11
205.68865428788189
 21
1714.222814616465
 31
0.0
  0
LINE
  5
2DB
  8
DRG
 10
97.188654287881747
 20
1764.222814616465
 30
0.0
 11
205.68865428788169
 21
1764.222814616465
 31
0.0
  0
LINE
  5
2DC
  8
DRG
 10
100.6886542878819
 20
1767.6228146164649
 30
0.0
 11
200.68865428788189
 21
1767.6228146164649
 31
0.0
  0
LINE
  5
2DD
  8
DIM
 10
112.6886542878821
 20
1827.6228146164649
 30
0.0
 11
165.9461874958422
 21
1827.6228146164649
 31
0.0
  0
TEXT
  5
2DE
  8
DIM
 10
117.692313669078
 20
1811.914814616465
 30
0.0
 40
9.9960000000000004
  1
(0.20")
 72
     4
 11
142.92031366907801
 21
1816.1988146164649
 31
0.0
  0
LINE
  5
2DF
  8
DRG
 10
95.688654287881747
 20
1762.722814616465
 30
0.0
 11
95.688654287881974
 21
1715.722814616465
 31
0.0
  0
LINE
  5
2E0
  8
DRG2
 10
97.188654287881747
 20
1764.222814616465
 30
0.0
 11
97.188654287881974
 21
1714.222814616465
 31
0.0
  0
LINE
  5
2E1
  8
DRG
 10
95.688654287881974
 20
1715.722814616465
 30
0.0
 11
97.188654287881974
 21
1714.222814616465
 31
0.0
  0
SOLID
  5
2E2
  8
DIM
 10
83.688654287882201
 20
1829.6228146164649
 30
0.0
 11
83.688654287882201
 21
1825.6228146164649
 31
0.0
 12
95.688654287882187
 22
1827.6228146164649
 32
0.0
 13
95.688654287882187
 23
1827.6228146164649
 33
0.0
  0
LINE
  5
2E3
  8
DIM
 10
83.688654287882201
 20
1827.6228146164649
 30
0.0
 11
68.897105825998352
 21
1827.6228146164649
 31
0.0
  0
LINE
  5
2E4
  8
DIM
 10
95.688654287882187
 20
1766.5259048776411
 30
0.0
 11
95.688654287882187
 21
1830.6906121398849
 31
0.0
  0
LINE
  5
2E5
  8
DIM
 10
100.6886542878822
 20
1771.0347760799309
 30
0.0
 11
100.6886542878822
 21
1832.962177714717
 31
0.0
  0
LINE
  5
2E6
  8
DRG
 10
100.6886542878819
 20
1767.6228146164649
 30
0.0
 11
100.6886542878819
 21
1764.222814616465
 31
0.0
  0
LINE
  5
2E7
  8
DRG
 10
97.188654287881747
 20
1764.222814616465
 30
0.0
 11
95.688654287881747
 21
1762.722814616465
 31
0.0
  0
SOLID
  5
2E8
  8
DIM
 10
112.6886542878821
 20
1829.6228146164649
 30
0.0
 11
112.6886542878821
 21
1825.6228146164649
 31
0.0
 12
100.6886542878822
 22
1827.6228146164649
 32
0.0
 13
100.6886542878822
 23
1827.6228146164649
 33
0.0
  0
TEXT
  5
2E9
  8
DIM
 10
139.58831366907799
 20
1834.0488146164651
 30
0.0
 40
9.9960000000000004
  1
5
 72
     4
 11
142.92031366907801
 21
1839.0468146164651
 31
0.0
  0
LINE
  5
2EA
  8
DRG
 10
230.68865428788189
 20
1794.222814616465
 30
0.0
 11
294.43865428788189
 21
1794.222814616465
 31
0.0
  0
LINE
  5
2EB
  8
DRG
 10
230.68865428788189
 20
1684.222814616465
 30
0.0
 11
294.43865428788189
 21
1684.222814616465
 31
0.0
  0
LINE
  5
2EC
  8
DRG
 10
230.68865428788189
 20
1733.222814616465
 30
0.0
 11
294.43865428788189
 21
1733.222814616465
 31
0.0
  0
LINE
  5
2ED
  8
DRG
 10
230.68865428788189
 20
1745.222814616465
 30
0.0
 11
294.43865428788189
 21
1745.222814616465
 31
0.0
  0
ARC
  5
2EE
  8
DRG
 10
230.68865428788189
 20
1679.222814616465
 30
0.0
 40
5.0
 50
90.0
 51
180.0
  0
ARC
  5
2EF
  8
DRG
 10
230.68865428788189
 20
1728.222814616465
 30
0.0
 40
5.0
 50
90.0
 51
180.0
  0
LINE
  5
2F0
  8
DRG
 10
200.68865428788189
 20
1767.6228146164649
 30
0.0
 11
200.68865428788189
 21
1764.222814616465
 31
0.0
  0
ARC
  5
2F1
  8
DRG
 10
230.68865428788189
 20
1750.222814616465
 30
0.0
 40
5.0
 50
180.0
 51
270.0
  0
ARC
  5
2F2
  8
DRG
 10
230.68865428788189
 20
1799.222814616465
 30
0.0
 40
5.0
 50
180.0
 51
270.0
  0
SOLID
  5
2F3
  8
DIM
 10
237.68865428788169
 20
2010.222814616465
 30
0.0
 11
237.68865428788169
 21
2006.222814616465
 31
0.0
 12
225.68865428788169
 22
2008.222814616465
 32
0.0
 13
225.68865428788169
 23
2008.222814616465
 33
0.0
  0
LINE
  5
2F4
  8
CRS
 10
202.5824304094765
 20
1917.222814616465
 30
0.0
 11
227.83647979889719
 21
1917.222814616465
 31
0.0
  0
LINE
  5
2F5
  8
HID
 10
205.68865428788169
 20
1905.722814616465
 30
0.0
 11
225.68865428788169
 21
1905.722814616465
 31
0.0
  0
LINE
  5
2F6
  8
HID
 10
205.68865428788189
 20
1847.2728146164629
 30
0.0
 11
211.93865428788169
 21
1847.2728146164629
 31
0.0
  0
LINE
  5
2F7
  8
DRG
 10
205.68865428788169
 20
1948.222814616465
 30
0.0
 11
225.68865428788169
 21
1948.222814616465
 31
0.0
  0
LINE
  5
2F8
  8
HID
 10
205.68865428788169
 20
1928.722814616465
 30
0.0
 11
225.68865428788169
 21
1928.722814616465
 31
0.0
  0
LINE
  5
2F9
  8
DIM
 10
193.6886542878822
 20
2008.222814616465
 30
0.0
 11
181.6886542878822
 21
2008.222814616465
 31
0.0
  0
SOLID
  5
2FA
  8
DIM
 10
193.6886542878822
 20
2010.222814616465
 30
0.0
 11
193.6886542878822
 21
2006.222814616465
 31
0.0
 12
205.68865428788209
 22
2008.222814616465
 32
0.0
 13
205.68865428788209
 23
2008.222814616465
 33
0.0
  0
LINE
  5
2FB
  8
DIM
 10
225.68865428788169
 20
1953.060358167711
 30
0.0
 11
225.68865428788169
 21
2010.222814616465
 31
0.0
  0
LINE
  5
2FC
  8
DIM
 10
237.68865428788169
 20
2008.222814616465
 30
0.0
 11
291.160926530898
 21
2008.222814616465
 31
0.0
  0
TEXT
  5
2FD
  8
DIM
 10
239.71694604302161
 20
1992.5148146164649
 30
0.0
 40
9.9960000000000004
  1
(0.79")
 72
     4
 11
264.94494604302162
 21
1996.7988146164651
 31
0.0
  0
TEXT
  5
2FE
  8
DIM
 10
235.46065428788211
 20
2052.5148146164652
 30
0.0
 40
9.9960000000000004
  1
(4.33")
 72
     4
 11
260.68865428788212
 21
2056.7988146164648
 31
0.0
  0
SOLID
  5
2FF
  8
DIM
 10
217.68865428788209
 20
2070.2228146164648
 30
0.0
 11
217.68865428788209
 21
2066.2228146164648
 31
0.0
 12
205.68865428788209
 22
2068.2228146164648
 32
0.0
 13
205.68865428788209
 23
2068.2228146164648
 33
0.0
  0
TEXT
  5
300
  8
DIM
 10
249.74065428788211
 20
2074.6488146164652
 30
0.0
 40
9.9960000000000004
  1
110
 72
     4
 11
260.68865428788212
 21
2079.6468146164648
 31
0.0
  0
TEXT
  5
301
  8
DIM
 10
256.85294604302157
 20
2014.648814616465
 30
0.0
 40
9.9960000000000004
  1
20
 72
     4
 11
264.94494604302162
 21
2019.646814616465
 31
0.0
  0
TEXT
  5
302
  8
TXT
 10
579.05943582201951
 20
1652.132773554486
 30
0.0
 40
10.0
  1
%%c50.00 -0.05
 72
     4
 11
630.96419772678144
 21
1657.132773554486
 31
0.0
  0
LINE
  5
303
  8
DRG2
 10
540.96419772678144
 20
1567.132773554486
 30
0.0
 11
540.96419772678144
 21
1938.1327735544851
 31
0.0
  0
LINE
  5
304
  8
DRG2
 10
720.96419772678144
 20
1567.132773554486
 30
0.0
 11
720.96419772678144
 21
1938.132773554486
 31
0.0
  0
LINE
  5
305
  8
DRG2
 10
440.96419772678149
 20
1567.132773554486
 30
0.0
 11
440.96419772678149
 21
1938.1327735544851
 31
0.0
  0
LINE
  5
306
  8
DRG2
 10
340.96419772678149
 20
1567.132773554486
 30
0.0
 11
340.96419772678149
 21
1970.1327735544851
 31
0.0
  0
TEXT
  5
307
  8
TXT
 10
473.58324534582903
 20
1652.132773554486
 30
0.0
 40
10.0
  1
%%c350
 72
     4
 11
490.96419772678138
 21
1657.132773554486
 31
0.0
  0
TEXT
  5
308
  8
TXT
 10
362.1546739172577
 20
1641.632773554486
 30
0.0
 40
10.0
  1
ISO F30
 72
     4
 11
390.96419772678149
 21
1646.6327735544851
 31
0.0
  0
TEXT
  5
309
  8
TXT
 10
362.86895963154342
 20
1599.132773554486
 30
0.0
 40
10.0
  1
ROTORK
 72
     4
 11
390.96419772678149
 21
1604.132773554486
 31
0.0
  0
TEXT
  5
30A
  8
TXT
 10
377.86895963154342
 20
1578.1327735544851
 30
0.0
 40
10.0
  1
G30
 72
     4
 11
390.96419772678149
 21
1583.132773554486
 31
0.0
  0
TEXT
  5
30B
  8
TXT
 10
457.39276915535282
 20
1578.8470592687711
 30
0.0
 40
10.0
  1
(%%c16.46")
 72
     4
 11
490.96419772678138
 21
1583.132773554486
 31
0.0
  0
TEXT
  5
30C
  8
TXT
 10
474.53562629820999
 20
1599.132773554486
 30
0.0
 40
10.0
  1
%%c418
 72
     4
 11
490.96419772678138
 21
1604.132773554486
 31
0.0
  0
TEXT
  5
30D
  8
TXT
 10
457.39276915535282
 20
1631.8470592687711
 30
0.0
 40
10.0
  1
(%%c13.78")
 72
     4
 11
490.96419772678138
 21
1636.1327735544851
 31
0.0
  0
TEXT
  5
30E
  8
TXT
 10
561.6784834410671
 20
1631.8470592687711
 30
0.0
 40
10.0
  1
(%%c1.969" -0.002")
 72
     4
 11
630.96419772678144
 21
1636.1327735544851
 31
0.0
  0
TEXT
  5
30F
  8
TXT
 10
579.05943582201951
 20
1599.132773554486
 30
0.0
 40
10.0
  1
%%c50.00 -0.05
 72
     4
 11
630.96419772678144
 21
1604.132773554486
 31
0.0
  0
TEXT
  5
310
  8
TXT
 10
561.6784834410671
 20
1578.8470592687711
 30
0.0
 40
10.0
  1
(%%c1.969" -0.002")
 72
     4
 11
630.96419772678144
 21
1583.132773554486
 31
0.0
  0
LINE
  5
311
  8
DIM
 10
315.68865428788189
 20
1816.521671151608
 30
0.0
 11
315.68865428788189
 21
2070.2228146164648
 31
0.0
  0
TEXT
  5
312
  8
TXT
 10
363.3451501077339
 20
1853.6327735544851
 30
0.0
 40
10.0
  1
ISO F16
 72
     4
 11
390.96419772678149
 21
1858.632773554486
 31
0.0
  0
TEXT
  5
313
  8
TXT
 10
362.1546739172577
 20
1747.632773554486
 30
0.0
 40
10.0
  1
ISO F25
 72
     4
 11
390.96419772678149
 21
1752.632773554486
 31
0.0
  0
LINE
  5
314
  8
DRG
 10
315.68865428788189
 20
1811.722814616465
 30
0.0
 11
315.68865428788189
 21
1666.722814616465
 31
0.0
  0
LINE
  5
315
  8
DRG
 10
299.43865428788189
 20
1811.722814616465
 30
0.0
 11
299.43865428788189
 21
1666.722814616465
 31
0.0
  0
LINE
  5
316
  8
DRG
 10
299.43865428788189
 20
1666.722814616465
 30
0.0
 11
315.68865428788189
 21
1666.722814616465
 31
0.0
  0
LINE
  5
317
  8
DRG
 10
299.43865428788189
 20
1811.722814616465
 30
0.0
 11
315.68865428788189
 21
1811.722814616465
 31
0.0
  0
TEXT
  5
318
  8
TXT
 10
373.3451501077339
 20
1694.6327735544851
 30
0.0
 40
10.0
  1
FA25
 72
     4
 11
390.96419772678149
 21
1699.632773554486
 31
0.0
  0
TEXT
  5
319
  8
TXT
 10
374.5356262982101
 20
1800.6327735544851
 30
0.0
 40
10.0
  1
FA16
 72
     4
 11
390.96419772678149
 21
1805.6327735544851
 31
0.0
  0
TEXT
  5
31A
  8
TXT
 10
461.20229296487662
 20
1790.847059268772
 30
0.0
 40
10.0
  1
(%%c8.27")
 72
     4
 11
490.96419772678138
 21
1795.132773554486
 31
0.0
  0
TEXT
  5
31B
  8
TXT
 10
459.29753106011481
 20
1684.847059268772
 30
0.0
 40
10.0
  1
(%%c11.81")
 72
     4
 11
490.96419772678138
 21
1689.132773554486
 31
0.0
  0
TEXT
  5
31C
  8
TXT
 10
459.29753106011481
 20
1737.8470592687711
 30
0.0
 40
10.0
  1
(%%c11.81")
 72
     4
 11
490.96419772678138
 21
1742.1327735544851
 31
0.0
  0
TEXT
  5
31D
  8
TXT
 10
473.58324534582903
 20
1705.132773554486
 30
0.0
 40
10.0
  1
%%c300
 72
     4
 11
490.96419772678138
 21
1710.132773554486
 31
0.0
  0
TEXT
  5
31E
  8
TXT
 10
473.58324534582903
 20
1758.1327735544851
 30
0.0
 40
10.0
  1
%%c300
 72
     4
 11
490.96419772678138
 21
1763.1327735544851
 31
0.0
  0
TEXT
  5
31F
  8
TXT
 10
474.53562629820999
 20
1811.132773554486
 30
0.0
 40
10.0
  1
%%c210
 72
     4
 11
490.96419772678138
 21
1816.132773554486
 31
0.0
  0
TEXT
  5
320
  8
TXT
 10
461.20229296487662
 20
1843.8470592687711
 30
0.0
 40
10.0
  1
(%%c8.27")
 72
     4
 11
490.96419772678138
 21
1848.1327735544851
 31
0.0
  0
TEXT
  5
321
  8
TXT
 10
474.53562629820999
 20
1864.1327735544851
 30
0.0
 40
10.0
  1
%%c210
 72
     4
 11
490.96419772678138
 21
1869.1327735544851
 31
0.0
  0
TEXT
  5
322
  8
TXT
 10
467.86895963154331
 20
1896.8470592687711
 30
0.0
 40
10.0
  1
O/DIA.
 72
     4
 11
490.96419772678138
 21
1901.1327735544851
 31
0.0
  0
TEXT
  5
323
  8
TXT
 10
464.0594358220194
 20
1917.1327735544851
 30
0.0
 40
10.0
  1
FLANGE
 72
     4
 11
490.96419772678138
 21
1922.1327735544851
 31
0.0
  0
SOLID
  5
324
  8
DIM
 10
303.68865428788189
 20
2070.2228146164648
 30
0.0
 11
303.68865428788189
 21
2066.2228146164648
 31
0.0
 12
315.68865428788189
 22
2068.2228146164648
 32
0.0
 13
315.68865428788189
 23
2068.2228146164648
 33
0.0
  0
TEXT
  5
325
  8
TXT
 10
561.6784834410671
 20
1843.8470592687711
 30
0.0
 40
10.0
  1
(%%c1.575" -0.002")
 72
     4
 11
630.96419772678144
 21
1848.1327735544851
 31
0.0
  0
TEXT
  5
326
  8
TXT
 10
579.05943582201951
 20
1811.132773554486
 30
0.0
 40
10.0
  1
%%c40.00 -0.05
 72
     4
 11
630.96419772678144
 21
1816.1327735544851
 31
0.0
  0
TEXT
  5
327
  8
TXT
 10
579.05943582201951
 20
1864.1327735544851
 30
0.0
 40
10.0
  1
%%c40.00 -0.05
 72
     4
 11
630.96419772678144
 21
1869.1327735544851
 31
0.0
  0
TEXT
  5
328
  8
TXT
 10
561.6784834410671
 20
1790.8470592687711
 30
0.0
 40
10.0
  1
(%%c1.575" -0.002")
 72
     4
 11
630.96419772678144
 21
1795.132773554486
 31
0.0
  0
TEXT
  5
329
  8
TXT
 10
579.05943582201951
 20
1758.1327735544851
 30
0.0
 40
10.0
  1
%%c50.00 -0.05
 72
     4
 11
630.96419772678144
 21
1763.1327735544851
 31
0.0
  0
TEXT
  5
32A
  8
TXT
 10
561.6784834410671
 20
1737.8470592687711
 30
0.0
 40
10.0
  1
(%%c1.969" -0.002")
 72
     4
 11
630.96419772678144
 21
1742.1327735544851
 31
0.0
  0
TEXT
  5
32B
  8
TXT
 10
561.6784834410671
 20
1684.8470592687711
 30
0.0
 40
10.0
  1
(%%c1.969" -0.002")
 72
     4
 11
630.96419772678144
 21
1689.132773554486
 31
0.0
  0
TEXT
  5
32C
  8
TXT
 10
579.05943582201951
 20
1705.132773554486
 30
0.0
 40
10.0
  1
%%c50.00 -0.05
 72
     4
 11
630.96419772678144
 21
1710.132773554486
 31
0.0
  0
TEXT
  5
32D
  8
TXT
 10
608.10705486963855
 20
1917.1327735544851
 30
0.0
 40
10.0
  1
SHAFT
 72
     4
 11
630.96419772678144
 21
1922.1327735544851
 31
0.0
  0
TEXT
  5
32E
  8
TXT
 10
618.34515010773384
 20
1896.1327735544851
 30
0.0
 40
10.0
  1
DIA.
 72
     4
 11
630.96419772678144
 21
1901.1327735544851
 31
0.0
  0
TEXT
  5
32F
  8
TXT
 10
1159.0594358220201
 20
1917.1327735544851
 30
0.0
 40
10.0
  1
HOLE DETAILS
 72
     4
 11
1210.964197726782
 21
1922.1327735544851
 31
0.0
  0
TEXT
  5
330
  8
TXT
 10
1154.297531060115
 20
1896.8470592687711
 30
0.0
 40
10.0
  1
(OFF CENTRES)
 72
     4
 11
1210.964197726782
 21
1901.1327735544851
 31
0.0
  0
TEXT
  5
331
  8
TXT
 10
1118.8213405839249
 20
1811.8470592687711
 30
0.0
 40
10.0
  1
4 HOLES %%c20.5 (%%c0.81")
 72
     4
 11
1210.964197726782
 21
1816.1327735544851
 31
0.0
  0
TEXT
  5
332
  8
TXT
 10
1118.8213405839249
 20
1864.8470592687711
 30
0.0
 40
10.0
  1
4 HOLES %%c20.5 (%%c0.81")
 72
     4
 11
1210.964197726782
 21
1869.1327735544851
 31
0.0
  0
TEXT
  5
333
  8
TXT
 10
1117.630864393449
 20
1843.8470592687711
 30
0.0
 40
10.0
  1
ON %%c165.0 (%%c6.50") P.C.
 72
     4
 11
1210.964197726782
 21
1848.1327735544851
 31
0.0
  0
TEXT
  5
334
  8
TXT
 10
1113.8213405839249
 20
1631.8470592687711
 30
0.0
 40
10.0
  1
ON %%c298.0 (%%c11.73") P.C.
 72
     4
 11
1210.964197726782
 21
1636.1327735544851
 31
0.0
  0
TEXT
  5
335
  8
TXT
 10
1118.8213405839249
 20
1652.8470592687711
 30
0.0
 40
10.0
  1
8 HOLES %%c20.5 (%%c0.81")
 72
     4
 11
1210.964197726782
 21
1657.132773554486
 31
0.0
  0
TEXT
  5
336
  8
TXT
 10
1118.8213405839249
 20
1705.847059268772
 30
0.0
 40
10.0
  1
8 HOLES %%c16.5 (%%c0.65")
 72
     4
 11
1210.964197726782
 21
1710.132773554486
 31
0.0
  0
TEXT
  5
337
  8
TXT
 10
1112.8689596315439
 20
1684.8470592687711
 30
0.0
 40
10.0
  1
ON %%c254.0 (%%c10.00") P.C.
 72
     4
 11
1210.964197726782
 21
1689.132773554486
 31
0.0
  0
TEXT
  5
338
  8
TXT
 10
1112.8689596315439
 20
1737.8470592687711
 30
0.0
 40
10.0
  1
ON %%c254.0 (%%c10.00") P.C.
 72
     4
 11
1210.964197726782
 21
1742.1327735544851
 31
0.0
  0
TEXT
  5
339
  8
TXT
 10
1118.8213405839249
 20
1758.8470592687711
 30
0.0
 40
10.0
  1
8 HOLES %%c16.5 (%%c0.65")
 72
     4
 11
1210.964197726782
 21
1763.1327735544851
 31
0.0
  0
TEXT
  5
33A
  8
TXT
 10
1117.630864393449
 20
1790.8470592687711
 30
0.0
 40
10.0
  1
ON %%c165.0 (%%c6.50") P.C.
 72
     4
 11
1210.964197726782
 21
1795.132773554486
 31
0.0
  0
TEXT
  5
33B
  8
TXT
 10
1112.8689596315439
 20
1578.8470592687711
 30
0.0
 40
10.0
  1
ON %%c356.0 (%%c14.02") P.C.
 72
     4
 11
1210.964197726782
 21
1583.132773554486
 31
0.0
  0
TEXT
  5
33C
  8
TXT
 10
1118.8213405839249
 20
1599.8470592687711
 30
0.0
 40
10.0
  1
8 HOLES %%c23.0 (%%c0.91")
 72
     4
 11
1210.964197726782
 21
1604.132773554486
 31
0.0
  0
TEXT
  5
33D
  8
TXT
 10
1042.868959631543
 20
1652.132773554486
 30
0.0
 40
10.0
  1
6
 72
     4
 11
1045.9641977267811
 21
1657.132773554486
 31
0.0
  0
TEXT
  5
33E
  8
TXT
 10
856.20229296487651
 20
1652.132773554486
 30
0.0
 40
10.0
  1
%%c230.10 +0.10
 72
     4
 11
910.96419772678144
 21
1657.132773554486
 31
0.0
  0
LINE
  5
33F
  8
DRG2
 10
1090.9641977267811
 20
1567.132773554486
 30
0.0
 11
1090.9641977267811
 21
1938.1327735544851
 31
0.0
  0
LINE
  5
340
  8
DRG2
 10
1000.964197726782
 20
1567.132773554486
 30
0.0
 11
1000.964197726781
 21
1938.1327735544851
 31
0.0
  0
LINE
  5
341
  8
DRG2
 10
820.96419772678144
 20
1567.132773554486
 30
0.0
 11
820.96419772678144
 21
1938.1327735544851
 31
0.0
  0
TEXT
  5
342
  8
TXT
 10
857.15467391725747
 20
1599.132773554486
 30
0.0
 40
10.0
  1
%%c216.10 +0.10
 72
     4
 11
910.96419772678144
 21
1604.132773554486
 31
0.0
  0
TEXT
  5
343
  8
TXT
 10
834.53562629820999
 20
1631.8470592687711
 30
0.0
 40
10.0
  1
(%%c9.059" +0.004") 
 72
     4
 11
910.96419772678144
 21
1636.1327735544851
 31
0.0
  0
TEXT
  5
344
  8
TXT
 10
834.53562629820999
 20
1578.8470592687711
 30
0.0
 40
10.0
  1
(%%c8.508" +0.004") 
 72
     4
 11
910.96419772678144
 21
1583.132773554486
 31
0.0
  0
TEXT
  5
345
  8
TXT
 10
1020.726102488686
 20
1631.847059268772
 30
0.0
 40
10.0
  1
(0.24")
 72
     4
 11
1045.9641977267811
 21
1636.132773554486
 31
0.0
  0
TEXT
  5
346
  8
TXT
 10
1020.726102488686
 20
1578.8470592687711
 30
0.0
 40
10.0
  1
(0.24")
 72
     4
 11
1045.9641977267811
 21
1583.132773554486
 31
0.0
  0
TEXT
  5
347
  8
TXT
 10
1042.868959631543
 20
1599.132773554486
 30
0.0
 40
10.0
  1
6
 72
     4
 11
1045.9641977267811
 21
1604.132773554486
 31
0.0
  0
TEXT
  5
348
  8
TXT
 10
838.58324534582914
 20
1949.1327735544851
 30
0.0
 40
10.0
  1
INPUT FLANGE DETAILS
 72
     4
 11
925.96419772678155
 21
1954.1327735544851
 31
0.0
  0
TEXT
  5
349
  8
TXT
 10
835.48800725059095
 20
1843.8470592687711
 30
0.0
 40
10.0
  1
(%%c5.120" +0.002") 
 72
     4
 11
910.96419772678144
 21
1848.1327735544851
 31
0.0
  0
TEXT
  5
34A
  8
TXT
 10
855.24991201249577
 20
1811.132773554486
 30
0.0
 40
10.0
  1
%%c126.92 +0.05
 72
     4
 11
910.96419772678144
 21
1816.1327735544851
 31
0.0
  0
TEXT
  5
34B
  8
TXT
 10
855.24991201249566
 20
1864.1327735544851
 30
0.0
 40
10.0
  1
%%c130.05 +0.05
 72
     4
 11
910.96419772678144
 21
1869.1327735544851
 31
0.0
  0
TEXT
  5
34C
  8
TXT
 10
883.82134058392421
 20
1917.1327735544851
 30
0.0
 40
10.0
  1
RECESS
 72
     4
 11
910.96419772678144
 21
1922.1327735544851
 31
0.0
  0
TEXT
  5
34D
  8
TXT
 10
856.20229296487651
 20
1705.132773554486
 30
0.0
 40
10.0
  1
%%c152.37 +0.10
 72
     4
 11
910.96419772678144
 21
1710.132773554486
 31
0.0
  0
TEXT
  5
34E
  8
TXT
 10
856.20229296487651
 20
1758.1327735544851
 30
0.0
 40
10.0
  1
%%c200.10 +0.10
 72
     4
 11
910.96419772678144
 21
1763.1327735544851
 31
0.0
  0
TEXT
  5
34F
  8
TXT
 10
834.53562629820999
 20
1684.8470592687711
 30
0.0
 40
10.0
  1
(%%c5.999" +0.004") 
 72
     4
 11
910.96419772678144
 21
1689.132773554486
 31
0.0
  0
TEXT
  5
350
  8
TXT
 10
834.53562629820999
 20
1737.8470592687711
 30
0.0
 40
10.0
  1
(%%c7.878" +0.004") 
 72
     4
 11
910.96419772678144
 21
1742.1327735544851
 31
0.0
  0
TEXT
  5
351
  8
TXT
 10
834.53562629820999
 20
1790.8470592687711
 30
0.0
 40
10.0
  1
(%%c4.997" +0.002") 
 72
     4
 11
910.96419772678144
 21
1795.132773554486
 31
0.0
  0
TEXT
  5
352
  8
TXT
 10
898.34515010773384
 20
1896.1327735544851
 30
0.0
 40
10.0
  1
DIA.
 72
     4
 11
910.96419772678144
 21
1901.1327735544851
 31
0.0
  0
TEXT
  5
353
  8
TXT
 10
1020.726102488686
 20
1737.847059268772
 30
0.0
 40
10.0
  1
(0.20")
 72
     4
 11
1045.9641977267811
 21
1742.132773554486
 31
0.0
  0
TEXT
  5
354
  8
TXT
 10
1020.726102488686
 20
1684.8470592687711
 30
0.0
 40
10.0
  1
(0.20")
 72
     4
 11
1045.9641977267811
 21
1689.132773554486
 31
0.0
  0
TEXT
  5
355
  8
TXT
 10
1042.6308643934481
 20
1705.132773554486
 30
0.0
 40
10.0
  1
5
 72
     4
 11
1045.9641977267811
 21
1710.132773554486
 31
0.0
  0
TEXT
  5
356
  8
TXT
 10
1020.726102488686
 20
1790.847059268772
 30
0.0
 40
10.0
  1
(0.20")
 72
     4
 11
1045.9641977267811
 21
1795.132773554486
 31
0.0
  0
TEXT
  5
357
  8
TXT
 10
1042.6308643934481
 20
1758.132773554486
 30
0.0
 40
10.0
  1
5
 72
     4
 11
1045.9641977267811
 21
1763.132773554486
 31
0.0
  0
TEXT
  5
358
  8
TXT
 10
1042.6308643934481
 20
1811.132773554486
 30
0.0
 40
10.0
  1
5
 72
     4
 11
1045.9641977267811
 21
1816.132773554486
 31
0.0
  0
TEXT
  5
359
  8
TXT
 10
1018.821340583924
 20
1917.1327735544851
 30
0.0
 40
10.0
  1
RECESS
 72
     4
 11
1045.9641977267811
 21
1922.1327735544851
 31
0.0
  0
TEXT
  5
35A
  8
TXT
 10
1020.726102488686
 20
1843.847059268772
 30
0.0
 40
10.0
  1
(0.20")
 72
     4
 11
1045.9641977267811
 21
1848.132773554486
 31
0.0
  0
TEXT
  5
35B
  8
TXT
 10
1023.821340583924
 20
1896.1327735544851
 30
0.0
 40
10.0
  1
DEPTH
 72
     4
 11
1045.9641977267811
 21
1901.1327735544851
 31
0.0
  0
TEXT
  5
35C
  8
TXT
 10
1042.6308643934481
 20
1864.132773554486
 30
0.0
 40
10.0
  1
5
 72
     4
 11
1045.9641977267811
 21
1869.132773554486
 31
0.0
  0
LINE
  5
35D
  8
DRG2
 10
1510.9641977267811
 20
1567.132773554486
 30
0.0
 11
1510.9641977267811
 21
1970.132773554486
 31
0.0
  0
LINE
  5
35E
  8
DRG2
 10
1330.964197726782
 20
1567.132773554486
 30
0.0
 11
1330.964197726782
 21
1938.1327735544851
 31
0.0
  0
TEXT
  5
35F
  8
TXT
 10
1349.0594358220189
 20
1843.8470592687711
 30
0.0
 40
10.0
  1
(0.47"x0.31"x2.17")
 72
     4
 11
1420.9641977267811
 21
1848.1327735544851
 31
0.0
  0
TEXT
  5
360
  8
TXT
 10
1349.0594358220189
 20
1790.8470592687711
 30
0.0
 40
10.0
  1
(0.47"x0.31"x2.17")
 72
     4
 11
1420.9641977267811
 21
1795.132773554486
 31
0.0
  0
TEXT
  5
361
  8
TXT
 10
1348.107054869638
 20
1684.8470592687711
 30
0.0
 40
10.0
  1
(0.55"x0.35"x2.17")
 72
     4
 11
1420.9641977267811
 21
1689.132773554486
 31
0.0
  0
TEXT
  5
362
  8
TXT
 10
1348.107054869638
 20
1737.8470592687711
 30
0.0
 40
10.0
  1
(0.55"x0.35"x2.17")
 72
     4
 11
1420.9641977267811
 21
1742.1327735544851
 31
0.0
  0
TEXT
  5
363
  8
TXT
 10
1391.4403882029719
 20
1811.132773554486
 30
0.0
 40
10.0
  1
12x8x55
 72
     4
 11
1420.9641977267811
 21
1816.1327735544851
 31
0.0
  0
TEXT
  5
364
  8
TXT
 10
1391.4403882029719
 20
1705.132773554486
 30
0.0
 40
10.0
  1
14x9x55
 72
     4
 11
1420.9641977267811
 21
1710.132773554486
 31
0.0
  0
TEXT
  5
365
  8
TXT
 10
1391.4403882029719
 20
1758.1327735544851
 30
0.0
 40
10.0
  1
14x9x55
 72
     4
 11
1420.9641977267811
 21
1763.1327735544851
 31
0.0
  0
TEXT
  5
366
  8
TXT
 10
1392.6308643934481
 20
1896.1327735544851
 30
0.0
 40
10.0
  1
DETAILS
 72
     4
 11
1420.9641977267811
 21
1901.1327735544851
 31
0.0
  0
TEXT
  5
367
  8
TXT
 10
1407.6308643934481
 20
1917.1327735544851
 30
0.0
 40
10.0
  1
KEY
 72
     4
 11
1420.9641977267811
 21
1922.1327735544851
 31
0.0
  0
TEXT
  5
368
  8
TXT
 10
1391.4403882029719
 20
1864.1327735544851
 30
0.0
 40
10.0
  1
12x8x55
 72
     4
 11
1420.9641977267811
 21
1869.1327735544851
 31
0.0
  0
TEXT
  5
369
  8
TXT
 10
1109.869593109481
 20
401.33745020618852
 30
0.0
 40
10.0
  1
BASEPLATE DETAILS
 72
     4
 11
1185.3457835856721
 21
406.33745020618841
 31
0.0
  0
LINE
  5
36A
  8
DRG2
 10
885.3457835856733
 20
390.33745020618852
 30
0.0
 11
1485.3457835856709
 21
390.33745020618852
 31
0.0
  0
LINE
  5
36B
  8
DRG2
 10
885.3457835856733
 20
358.33745020618852
 30
0.0
 11
1485.3457835856709
 21
358.33745020618852
 31
0.0
  0
LINE
  5
36C
  8
DRG2
 10
885.3457835856733
 20
422.33745020618852
 30
0.0
 11
1485.3457835856709
 21
422.33745020618852
 31
0.0
  0
TEXT
  5
36D
  8
TXT
 10
1197.7267359666239
 20
370.05173592047419
 30
0.0
 40
10.0
  1
HOLE DETAILS (22.5%%d OFF CENTRES)
 72
     4
 11
1335.3457835856721
 21
374.33745020618852
 31
0.0
  0
TEXT
  5
36E
  8
TXT
 10
1216.536259776148
 20
338.05173592047407
 30
0.0
 40
10.0
  1
8 HOLES M36x45 (1.77") DEEP
 72
     4
 11
1335.3457835856721
 21
342.33745020618829
 31
0.0
  0
LINE
  5
36F
  8
DRG2
 10
885.3457835856733
 20
305.33745020618841
 30
0.0
 11
1485.3457835856709
 21
305.33745020618841
 31
0.0
  0
LINE
  5
370
  8
DRG2
 10
885.3457835856733
 20
252.33745020618849
 30
0.0
 11
1485.3457835856709
 21
252.33745020618849
 31
0.0
  0
TEXT
  5
371
  8
TXT
 10
1197.0124502523381
 20
285.05173592047419
 30
0.0
 40
10.0
  1
8 HOLES 1.25"UNCx45 (1.77") DEEP
 72
     4
 11
1335.3457835856721
 21
289.33745020618852
 31
0.0
  0
LINE
  5
372
  8
DRG2
 10
1185.345783585673
 20
252.33745020618869
 30
0.0
 11
1185.345783585673
 21
390.33745020618852
 31
0.0
  0
LINE
  5
373
  8
DRG2
 10
985.3457835856733
 20
252.33745020618861
 30
0.0
 11
985.3457835856733
 21
390.33745020618852
 31
0.0
  0
LINE
  5
374
  8
DRG2
 10
885.3457835856733
 20
252.33745020618849
 30
0.0
 11
885.3457835856733
 21
422.33745020618852
 31
0.0
  0
TEXT
  5
375
  8
TXT
 10
917.72673596662582
 20
273.83745020618852
 30
0.0
 40
10.0
  1
FA40
 72
     4
 11
935.3457835856733
 21
278.83745020618852
 31
0.0
  0
TEXT
  5
376
  8
TXT
 10
1029.631497871387
 20
284.33745020618852
 30
0.0
 40
10.0
  1
%%c228.60 -0.15
 72
     4
 11
1085.345783585673
 21
289.33745020618852
 31
0.0
  0
TEXT
  5
377
  8
TXT
 10
1008.9172121571009
 20
264.05173592047419
 30
0.0
 40
10.0
  1
(%%c9.000" -0.006") 
 72
     4
 11
1085.345783585673
 21
268.33745020618852
 31
0.0
  0
TEXT
  5
378
  8
TXT
 10
906.53625977614945
 20
326.83745020618852
 30
0.0
 40
10.0
  1
ISO F40
 72
     4
 11
935.3457835856733
 21
331.83745020618852
 31
0.0
  0
TEXT
  5
379
  8
TXT
 10
1042.0124502523399
 20
369.33745020618852
 30
0.0
 40
10.0
  1
SPIGOT DIA.
 72
     4
 11
1085.345783585673
 21
374.33745020618852
 31
0.0
  0
TEXT
  5
37A
  8
TXT
 10
1028.679116919006
 20
337.33745020618841
 30
0.0
 40
10.0
  1
%%c299.95 -0.05
 72
     4
 11
1085.345783585673
 21
342.33745020618829
 31
0.0
  0
TEXT
  5
37B
  8
TXT
 10
1006.060069299959
 20
317.05173592047419
 30
0.0
 40
10.0
  1
(%%c11.809" -0.002") 
 72
     4
 11
1085.345783585673
 21
321.33745020618852
 31
0.0
  0
LINE
  5
37C
  8
DRG2
 10
1485.3457835856709
 20
252.33745020618909
 30
0.0
 11
1485.3457835856709
 21
422.33745020618892
 31
0.0
  0
TEXT
  5
37D
  8
TXT
 10
1237.250545490434
 20
264.05173592047419
 30
0.0
 40
10.0
  1
ON %%c406.4 (%%c16.00") P.C.
 72
     4
 11
1335.3457835856721
 21
268.33745020618852
 31
0.0
  0
TEXT
  5
37E
  8
TXT
 10
1237.250545490434
 20
317.05173592047419
 30
0.0
 40
10.0
  1
ON %%c406.0 (%%c15.98") P.C.
 72
     4
 11
1335.3457835856721
 21
321.33745020618852
 31
0.0
  0
TEXT
  5
37F
  8
BORT
 10
26.809523809523821
 20
279.72344912470481
 30
0.0
 40
10.0
  1
1
 72
     4
 11
28.0
 21
284.72344912470481
 31
0.0
  0
TEXT
  5
380
  8
BORT
 10
110.4285714285714
 20
279.72344912470481
 30
0.0
 40
10.0
  1
CN915 JMO 19.6.97
 72
     4
 11
184.0
 21
284.72344912470481
 31
0.0
  0
TEXT
  5
381
  8
BORT
 10
24.666666666666661
 20
307.72344912470481
 30
0.0
 40
10.0
  1
2
 72
     4
 11
28.0
 21
312.7234491247047
 31
0.0
  0
TEXT
  5
383
  8
BORT
 10
106.38095238095229
 20
307.72344912470481
 30
0.0
 40
10.0
  1
CN959 B.T. 20.11.97
 72
     4
 11
184.0
 21
312.7234491247047
 31
0.0
  0
LINE
  5
384
  8
BORT
 39
3.6000000000000001
 10
312.0
 20
298.72344912470481
 30
0.0
 11
0.0
 21
298.72344912470481
 31
0.0
  0
LINE
  5
385
  8
BORT
 39
3.6000000000000001
 10
312.0
 20
326.72344912470481
 30
0.0
 11
0.0
 21
326.72344912470481
 31
0.0
  0
TEXT
  5
386
  8
TXT
 10
1348.107054869638
 20
1578.8470592687711
 30
0.0
 40
10.0
  1
(0.55"x0.35"x2.17")
 72
     4
 11
1420.9641977267811
 21
1583.132773554486
 31
0.0
  0
TEXT
  5
387
  8
TXT
 10
1348.107054869638
 20
1631.8470592687711
 30
0.0
 40
10.0
  1
(0.55"x0.35"x2.17")
 72
     4
 11
1420.9641977267811
 21
1636.1327735544851
 31
0.0
  0
TEXT
  5
388
  8
TXT
 10
1391.4403882029719
 20
1652.132773554486
 30
0.0
 40
10.0
  1
14x9x55
 72
     4
 11
1420.9641977267811
 21
1657.132773554486
 31
0.0
  0
TEXT
  5
389
  8
TXT
 10
1391.4403882029719
 20
1599.132773554486
 30
0.0
 40
10.0
  1
14x9x55
 72
     4
 11
1420.9641977267811
 21
1604.132773554486
 31
0.0
  0
LINE
  5
38A
  8
BORT
 39
3.6000000000000001
 10
312.0
 20
354.72344912470481
 30
0.0
 11
0.0
 21
354.72344912470481
 31
0.0
  0
TEXT
  5
38B
  8
TXT
 10
745.72610248868625
 20
1578.8470592687729
 30
0.0
 40
10.0
  1
(2.36")
 72
     4
 11
770.96419772678144
 21
1583.1327735544869
 31
0.0
  0
TEXT
  5
38C
  8
TXT
 10
745.72610248868625
 20
1631.847059268772
 30
0.0
 40
10.0
  1
(2.36")
 72
     4
 11
770.96419772678144
 21
1636.1327735544869
 31
0.0
  0
TEXT
  5
38D
  8
TXT
 10
762.86895963154325
 20
1599.1327735544869
 30
0.0
 40
10.0
  1
60
 72
     4
 11
770.96419772678144
 21
1604.1327735544869
 31
0.0
  0
TEXT
  5
38E
  8
TXT
 10
762.86895963154325
 20
1652.1327735544869
 30
0.0
 40
10.0
  1
60
 72
     4
 11
770.96419772678144
 21
1657.132773554486
 31
0.0
  0
LINE
  5
412
  8
HID
 10
635.97480925017055
 20
868.50212388032071
 30
0.0
 11
895.72480925017021
 21
868.50212388032048
 31
0.0
  0
LINE
  5
413
  8
HID
 10
635.97480925017055
 20
808.50212388032048
 30
0.0
 11
895.72480925017032
 21
808.50212388032071
 31
0.0
  0
LINE
  5
414
  8
DIM
 10
992.39245513021888
 20
952.80212388032055
 30
0.0
 11
1064.0892473582101
 21
952.80212388032055
 31
0.0
  0
TEXT
  5
415
  8
DIM
 10
962.7027023895688
 20
880.52293080206437
 30
0.0
 40
9.9960000000000004
  1
ALUMINIUM BRONZE ONLY
 50
90.0
 72
     4
 11
957.70470238956887
 21
977.86493080206435
 31
0.0
  0
LINE
  5
416
  8
DIM
 10
986.42432135016247
 20
868.50212388032048
 30
0.0
 11
986.42432135016247
 21
1051.3195277239879
 31
0.0
  0
TEXT
  5
417
  8
DIM
 10
981.1828056597459
 20
879.3847758517054
 30
0.0
 40
9.9960000000000004
  1
%%C65 CAST PILOT BORE
 50
90.0
 72
     4
 11
976.18480565974573
 21
965.06477585170535
 31
0.0
  0
LINE
  5
418
  8
DIM
 10
901.72480925017055
 20
808.50212388032071
 30
0.0
 11
992.13632135016235
 21
808.50212388032071
 31
0.0
  0
LINE
  5
419
  8
DIM
 10
901.72480925017055
 20
868.50212388032048
 30
0.0
 11
992.13632135016235
 21
868.50212388032048
 31
0.0
  0
TEXT
  5
41A
  8
DIM
 10
1001.807744425976
 20
878.15431002270657
 30
0.0
 40
9.9960000000000004
  1
(2.56")
 50
90.0
 72
     4
 11
997.52374442597591
 21
903.38231002270652
 31
0.0
  0
LINE
  5
41B
  8
DIM
 10
986.42432135016247
 20
819.92612388032057
 30
0.0
 11
986.42432135016247
 21
868.50212388032048
 31
0.0
  0
SOLID
  5
41C
  8
DIM
 10
984.52032135016225
 20
819.92612388032057
 30
0.0
 11
988.32832135016247
 21
819.92612388032057
 31
0.0
 12
986.42432135016247
 22
808.50212388032071
 32
0.0
 13
986.42432135016247
 23
808.50212388032071
 33
0.0
  0
SOLID
  5
41D
  8
DIM
 10
984.52032135016225
 20
857.07812388032062
 30
0.0
 11
988.32832135016247
 21
857.07812388032062
 31
0.0
 12
986.42432135016247
 22
868.50212388032048
 32
0.0
 13
986.42432135016247
 23
868.50212388032048
 33
0.0
  0
TEXT
  5
41F
  8
BORT
 10
98.761904761904745
 20
335.72344912470481
 30
0.0
 40
10.0
  1
CN1094 D.J.G. 20.5.99
 72
     4
 11
184.0
 21
340.72344912470481
 31
0.0
  0
TEXT
  5
420
  8
BORT
 10
24.666666666666661
 20
335.72344912470481
 30
0.0
 40
10.0
  1
3
 72
     4
 11
28.0
 21
340.72344912470481
 31
0.0
  0
INSERT
  5
5C3
  8
0
  2
ROTORK_GEARS_LOGO
 10
5.1148158201716853
 20
46.30906575485055
 30
0.0
 41
1.4700000000000151
 42
1.4700000000000151
 43
1.4699999999999991
  0
ENDSEC
  0
EOF
