  0
SECTION
  2
HEADER
  9
$ACADVER
  1
AC1009
  9
$INSBASE
 10
0.0
 20
0.0
 30
0.0
  9
$EXTMIN
 10
-59.818810499382607
 20
475.4923190452941
 30
0.0
  9
$EXTMAX
 10
1991.8757729958079
 20
2869.5688617766118
 30
4.3200000000000003
  9
$LIMMIN
 10
0.0
 20
0.0
  9
$LIMMAX
 10
1850.0
 20
2600.0
  9
$ORTHOMODE
 70
     1
  9
$REGENMODE
 70
     1
  9
$FILLMODE
 70
     1
  9
$QTEXTMODE
 70
     0
  9
$MIRRTEXT
 70
     0
  9
$DRAGMODE
 70
     2
  9
$LTSCALE
 40
2.0
  9
$OSMODE
 70
    47
  9
$ATTMODE
 70
     1
  9
$TEXTSIZE
 40
12.0
  9
$TRACEWID
 40
10.0
  9
$TEXTSTYLE
  7
STANDARD
  9
$CLAYER
  8
DIM
  9
$CELTYPE
  6
BYLAYER
  9
$CECOLOR
 62
   256
  9
$DIMSCALE
 40
1.0
  9
$DIMASZ
 40
14.0
  9
$DIMEXO
 40
7.5
  9
$DIMDLI
 40
10.0
  9
$DIMRND
 40
0.0
  9
$DIMDLE
 40
1.25
  9
$DIMEXE
 40
2.0
  9
$DIMTP
 40
0.0
  9
$DIMTM
 40
0.0
  9
$DIMTXT
 40
12.0
  9
$DIMCEN
 40
-3.0
  9
$DIMTSZ
 40
0.0
  9
$DIMTOL
 70
     0
  9
$DIMLIM
 70
     0
  9
$DIMTIH
 70
     0
  9
$DIMTOH
 70
     0
  9
$DIMSE1
 70
     0
  9
$DIMSE2
 70
     0
  9
$DIMTAD
 70
     0
  9
$DIMZIN
 70
     0
  9
$DIMBLK
  1

  9
$DIMASO
 70
     0
  9
$DIMSHO
 70
     0
  9
$DIMPOST
  1

  9
$DIMAPOST
  1

  9
$DIMALT
 70
     0
  9
$DIMALTD
 70
     2
  9
$DIMALTF
 40
0.039
  9
$DIMLFAC
 40
1.0
  9
$DIMTOFL
 70
     0
  9
$DIMTVP
 40
1.25
  9
$DIMTIX
 70
     0
  9
$DIMSOXD
 70
     0
  9
$DIMSAH
 70
     0
  9
$DIMBLK1
  1

  9
$DIMBLK2
  1

  9
$DIMSTYLE
  2
STD
  9
$DIMCLRD
 70
   256
  9
$DIMCLRE
 70
   256
  9
$DIMCLRT
 70
   256
  9
$DIMTFAC
 40
0.25
  9
$DIMGAP
 40
1.5
  9
$LUNITS
 70
     2
  9
$LUPREC
 70
     2
  9
$SKETCHINC
 40
1.0
  9
$FILLETRAD
 40
0.0
  9
$AUNITS
 70
     0
  9
$AUPREC
 70
     2
  9
$MENU
  1
ACAD
  9
$ELEVATION
 40
0.0
  9
$PELEVATION
 40
0.0
  9
$THICKNESS
 40
0.0
  9
$LIMCHECK
 70
     0
  9
$BLIPMODE
 70
     0
  9
$CHAMFERA
 40
0.0
  9
$CHAMFERB
 40
0.0
  9
$SKPOLY
 70
     1
  9
$TDCREATE
 40
2449755.425428356
  9
$TDUPDATE
 40
2452817.467263808
  9
$TDINDWG
 40
0.436228831
  9
$TDUSRTIMER
 40
0.436228831
  9
$USRTIMER
 70
     1
  9
$ANGBASE
 50
0.0
  9
$ANGDIR
 70
     0
  9
$PDMODE
 70
     3
  9
$PDSIZE
 40
0.0
  9
$PLINEWID
 40
0.0
  9
$COORDS
 70
     1
  9
$SPLFRAME
 70
     0
  9
$SPLINETYPE
 70
     6
  9
$SPLINESEGS
 70
     6
  9
$ATTDIA
 70
     0
  9
$ATTREQ
 70
     1
  9
$HANDLING
 70
  4097
  9
$HANDSEED
  5
7F4
  9
$SURFTAB1
 70
    18
  9
$SURFTAB2
 70
    18
  9
$SURFTYPE
 70
     6
  9
$SURFU
 70
    18
  9
$SURFV
 70
    18
  9
$UCSNAME
  2

  9
$UCSORG
 10
0.0
 20
0.0
 30
0.0
  9
$UCSXDIR
 10
1.0
 20
0.0
 30
0.0
  9
$UCSYDIR
 10
0.0
 20
1.0
 30
0.0
  9
$PUCSNAME
  2

  9
$PUCSORG
 10
0.0
 20
0.0
 30
0.0
  9
$PUCSXDIR
 10
1.0
 20
0.0
 30
0.0
  9
$PUCSYDIR
 10
0.0
 20
1.0
 30
0.0
  9
$USERI1
 70
     0
  9
$USERI2
 70
     0
  9
$USERI3
 70
     0
  9
$USERI4
 70
     0
  9
$USERI5
 70
     0
  9
$USERR1
 40
0.0
  9
$USERR2
 40
0.0
  9
$USERR3
 40
0.0
  9
$USERR4
 40
0.0
  9
$USERR5
 40
0.0
  9
$WORLDVIEW
 70
     0
  9
$SHADEDGE
 70
     3
  9
$SHADEDIF
 70
    70
  9
$TILEMODE
 70
     1
  9
$MAXACTVP
 70
    16
  9
$PLIMCHECK
 70
     0
  9
$PEXTMIN
 10
1.0000000000000000E+020
 20
1.0000000000000000E+020
 30
1.0000000000000000E+020
  9
$PEXTMAX
 10
-1.0000000000000000E+020
 20
-1.0000000000000000E+020
 30
-1.0000000000000000E+020
  9
$PLIMMIN
 10
0.0
 20
0.0
  9
$PLIMMAX
 10
420.0
 20
297.0
  9
$UNITMODE
 70
     0
  9
$VISRETAIN
 70
     0
  9
$PLINEGEN
 70
     0
  9
$PSLTSCALE
 70
     0
  0
ENDSEC
  0
SECTION
  2
TABLES
  0
TABLE
  2
VPORT
 70
     2
  0
VPORT
  2
*ACTIVE
 70
     0
 10
0.0
 20
0.0
 11
1.0
 21
1.0
 12
379.3968152155357
 22
-0.0255163104425265
 13
0.0
 23
0.0
 14
5.0
 24
5.0
 15
10.0
 25
10.0
 16
0.0
 26
0.0
 36
1.0
 17
1021.645598286879
 27
1672.5942199643421
 37
0.0
 40
2413.64453474828
 41
1.7512195121951211
 42
50.0
 43
0.0
 44
0.0
 50
0.0
 51
0.0
 71
     0
 72
  2000
 73
     1
 74
     2
 75
     0
 76
     0
 77
     0
 78
     1
  0
ENDTAB
  0
TABLE
  2
LTYPE
 70
    13
  0
LTYPE
  2
CONTINUOUS
 70
     0
  3
Solid line
 72
    65
 73
     0
 40
0.0
  0
LTYPE
  2
CENTER
 70
     0
  3
____ _ ____ _ ____ _ ____ _ ____ _ ____ _ ____ 
 72
    65
 73
     4
 40
50.0
 49
31.25
 49
-6.25
 49
6.25
 49
-6.25
  0
LTYPE
  2
HIDDEN
 70
     0
  3
_ _ _ _ _ _ _ _ _ _ _ _ _ _ _ _ _ _ _ _ _ _ _ _
 72
    65
 73
     2
 40
9.375
 49
6.25
 49
-3.125
  0
LTYPE
  2
PHANTOM2
 70
     0
  3
Phantom (.5x) ___ _ _ ___ _ _ ___ _ _ ___ _ _
 72
    65
 73
     6
 40
1.25
 49
0.625
 49
-0.125
 49
0.125
 49
-0.125
 49
0.125
 49
-0.125
  0
LTYPE
  2
ASULTYPE
 70
     0
  3
Solid line
 72
    65
 73
     2
 40
3.0
 49
2.5
 49
0.5
  0
LTYPE
  2
ASVLTYPE
 70
     0
  3
__ __ __ __ __ __ __ __ __ __ __ __ __ __ __ __ __ __ __ __ __
 72
    65
 73
     2
 40
0.75
 49
0.5
 49
-0.25
  0
LTYPE
  2
AM_ISO02W050
 70
     0
  3
__ __ __ __ __ __ __ __ __ __ __ __ __ __ __
 72
    65
 73
     2
 40
7.5
 49
6.0
 49
-1.5
  0
LTYPE
  2
AM_ISO08W050
 70
     0
  3
____ . ____ . ____ . ____ . ____ . ____ . ____
 72
    65
 73
     4
 40
18.0
 49
12.0
 49
-1.5
 49
3.0
 49
-1.5
  0
LTYPE
  2
AM_ISO09W050
 70
     0
  3
_____ . . _____ . . _____ . . ____ .. ____
 72
    65
 73
     6
 40
22.5
 49
12.0
 49
-1.5
 49
3.0
 49
-1.5
 49
3.0
 49
-1.5
  0
LTYPE
  2
AMCONSTR
 70
     0
  3
_______________________
 72
    65
 73
     2
 40
9999.0
 49
9999.0
 49
0.0
  0
LTYPE
  2
AM_ISO08W050X2
 70
     0
  3
__ . __ . __ . __ . __ . __
 72
    65
 73
     4
 40
9.0
 49
6.0
 49
-0.75
 49
1.5
 49
-0.75
  0
LTYPE
  2
AM_ISO02W050X2
 70
     0
  3
 _ _ _ _ _ _ _ _ _ _ _ _
 72
    65
 73
     2
 40
3.75
 49
3.0
 49
-0.75
  0
LTYPE
  2
AMZIGZAG
 70
     0
  3
/\/-/\/-/\/-/\/-/\/-/\/
 72
    65
 73
     2
 40
11.000099999999991
 49
0.0001
 49
-11.0
  0
ENDTAB
  0
TABLE
  2
LAYER
 70
     8
  0
LAYER
  2
0
 70
     0
 62
     7
  6
CONTINUOUS
  0
LAYER
  2
DRG
 70
     0
 62
     1
  6
CONTINUOUS
  0
LAYER
  2
CRS
 70
     0
 62
     3
  6
CENTER
  0
LAYER
  2
HID
 70
     0
 62
     6
  6
HIDDEN
  0
LAYER
  2
BORT
 70
     0
 62
     7
  6
CONTINUOUS
  0
LAYER
  2
TXT
 70
     0
 62
     4
  6
CONTINUOUS
  0
LAYER
  2
DIM
 70
     0
 62
     2
  6
CONTINUOUS
  0
LAYER
  2
DRG2
 70
     0
 62
     8
  6
CONTINUOUS
  0
ENDTAB
  0
TABLE
  2
STYLE
 70
     2
  0
STYLE
  2
STANDARD
 70
     0
 40
0.0
 41
1.0
 50
0.0
 71
     0
 42
12.0
  3
SIMPLEX
  4

  0
STYLE
  2

 70
     1
 40
0.0
 41
1.0
 50
0.0
 71
     0
 42
12.0
  3
ltypeshp.shx
  4

  0
ENDTAB
  0
TABLE
  2
VIEW
 70
     0
  0
ENDTAB
  0
TABLE
  2
UCS
 70
     0
  0
ENDTAB
  0
TABLE
  2
APPID
 70
    12
  0
APPID
  2
ACAD
 70
     0
  0
APPID
  2
GENIUS_GENDIM_13
 70
     0
  0
APPID
  2
GENIUS_GENDTOL_13
 70
     0
  0
APPID
  2
GENIUS_GE3DTOL_13
 70
     0
  0
APPID
  2
MCAD_NO_VIS
 70
     0
  0
APPID
  2
ACAD_TEMP_GRAPHIC
 70
     0
  0
APPID
  2
AD_DRAW
 70
     0
  0
APPID
  2
ACATTRIBSERVICES
 70
     0
  0
APPID
  2
ASURF_PCURVE_APPNAME
 70
     0
  0
APPID
  2
DESIGNERASSEMBLIES
 70
     0
  0
APPID
  2
ACADM_DIM_EDIT
 70
     0
  0
APPID
  2
CONTENTBLOCKICON
 70
     0
  0
ENDTAB
  0
TABLE
  2
DIMSTYLE
 70
     1
  0
DIMSTYLE
  2
STD
 70
     0
  3

  4

  5

  6

  7

 40
1.0
 41
14.0
 42
7.5
 43
10.0
 44
2.0
 45
0.0
 46
1.25
 47
0.0
 48
0.0
140
12.0
141
-3.0
142
0.0
143
0.039
144
1.0
145
1.25
146
0.25
147
1.5
 71
     0
 72
     0
 73
     0
 74
     0
 75
     0
 76
     0
 77
     0
 78
     0
170
     0
171
     2
172
     0
173
     0
174
     0
175
     0
176
   256
177
   256
178
   256
  0
ENDTAB
  0
ENDSEC
  0
SECTION
  2
BLOCKS
  0
BLOCK
  8
0
  2
$MODEL_SPACE
 70
     0
 10
0.0
 20
0.0
 30
0.0
  3
$MODEL_SPACE
  1

  0
ENDBLK
  5
42F
  8
0
  0
BLOCK
 67
     1
  8
0
  2
$PAPER_SPACE
 70
     0
 10
0.0
 20
0.0
 30
0.0
  3
$PAPER_SPACE
  1

  0
ENDBLK
  5
42D
 67
     1
  8
0
  0
BLOCK
  8
0
  2
A$C01897E91
 70
     0
 10
0.0
 20
0.0
 30
0.0
  3
A$C01897E91
  1

  0
TEXT
  5
432
  8
DIM
 10
100.08294088186059
 20
69.652181182571724
 30
0.0
 40
9.9960000000000004
  1
(2.36")
 50
90.0
 72
     4
 11
95.798940881860645
 21
94.880181182571732
 31
0.0
  0
LINE
  5
433
  8
DIM
 10
0.0000057060552763
 20
59.999995040185688
 30
0.0
 11
90.411517806047186
 21
59.999995040185688
 31
0.0
  0
LINE
  5
434
  8
DIM
 10
0.0000057060552763
 20
-0.0000049598141914
 30
0.0
 11
90.411517806047186
 21
-0.0000049598141914
 31
0.0
  0
TEXT
  5
435
  8
DIM
 10
60.977898845453588
 20
72.020801961929521
 30
0.0
 40
9.9960000000000004
  1
ALUMINIUM BRONZE ONLY
 50
90.0
 72
     4
 11
55.97989884545359
 21
169.36280196192939
 31
0.0
  0
LINE
  5
436
  8
DIM
 10
84.699517806047197
 20
59.999995040185688
 30
0.0
 11
84.699517806047197
 21
242.8173988838534
 31
0.0
  0
TEXT
  5
437
  8
DIM
 10
79.458002115630563
 20
70.882647011570583
 30
0.0
 40
9.9960000000000004
  1
%%C60 CAST PILOT BORE
 50
90.0
 72
     4
 11
74.460002115630573
 21
156.5626470115705
 31
0.0
  0
SOLID
  5
438
  8
DIM
 10
82.795517806047087
 20
48.575995040185717
 30
0.0
 11
86.603517806047179
 21
48.575995040185717
 31
0.0
 12
84.699517806047197
 22
59.999995040185688
 32
0.0
 13
84.699517806047197
 23
59.999995040185688
 33
0.0
  0
SOLID
  5
439
  8
DIM
 10
82.795517806047087
 20
11.42399504018578
 30
0.0
 11
86.603517806047179
 21
11.42399504018578
 31
0.0
 12
84.699517806047197
 22
-0.0000049598141914
 32
0.0
 13
84.699517806047197
 23
-0.0000049598141914
 33
0.0
  0
LINE
  5
43A
  8
DIM
 10
84.699517806047197
 20
11.42399504018578
 30
0.0
 11
84.699517806047197
 21
59.999995040185688
 31
0.0
  0
ENDBLK
  5
43C
  8
0
  0
BLOCK
  8
0
  2
*U1
 70
     1
 10
0.0
 20
0.0
 30
0.0
  3
*U1
  1

  0
ENDBLK
  5
510
  8
0
  0
BLOCK
  8
0
  2
LOGO
 70
     0
 10
0.0
 20
0.0
 30
0.0
  3
LOGO
  1

  0
INSERT
  5
53B
  8
DRG
  6
CONTINUOUS
 62
     7
  2
*U4
 10
0.0
 20
0.0
 30
0.0
1001
ACAD
1002
{
1000
R14_HATCH_DATA
1000
53B
1011
1.0
1021
0.0
1031
0.0
1021
0.0
1031
0.0
1011
0.0
1021
0.0
1031
0.0
1021
1.0
1031
0.0
1011
0.0
1021
0.0
1031
0.0
1021
0.0
1031
1.0
1040
0.0
1010
0.0
1020
0.0
1030
1.0
1000
SOLID
1070
     1
1070
     1
1071
       17
1071
        7
1070
     1
1070
     1
1071
        9
1040
18.821661727211438
1040
85.569427875032716
1040
-0.4142135623730951
1040
26.821661727211438
1040
93.569427875032716
1040
0.0
1040
28.191279411133561
1040
93.56942787503273
1040
0.0
1040
28.191279411133561
1040
102.0369718403326
1040
0.2674368359602434
1040
18.821661727211438
1040
97.915857504065912
1040
0.0
1040
18.821661727211438
1040
102.0369718403326
1040
0.0
1040
7.7802673214059723
1040
102.0369718403326
1040
0.0
1040
7.7802673214059723
1040
62.115696081838671
1040
0.0
1040
18.821661727211438
1040
62.115696081838678
1040
0.0
1071
        9
1005
55E
1005
565
1005
564
1005
563
1005
562
1005
55D
1005
54D
1005
54F
1005
54B
1071
        7
1070
     1
1070
     1
1071
        8
1040
29.838142899665851
1040
72.897331735467191
1040
0.4142135623730863
1040
41.838142899665847
1040
60.89733173546756
1040
0.0
1040
47.650196927116667
1040
60.89733173546756
1040
0.4142126981028046
1040
59.650196927064421
1040
72.897296325816569
1040
0.0348233422700972
1040
59.650196927064421
1040
90.096337111694368
1040
0.4142126981028142
1040
47.650196927116667
1040
102.0963017020437
1040
0.0
1040
41.838142899665847
1040
102.0963017020437
1040
0.4142135623730893
1040
29.838142899665851
1040
90.096301702044016
1040
0.0348231985322414
1071
        8
1005
53F
1005
566
1005
561
1005
560
1005
54C
1005
55C
1005
53E
1005
59D
1071
       22
1070
     1
1070
     1
1071
        4
1040
40.882971825549703
1040
90.337990088334166
1040
-1.0
1040
48.605370470334492
1040
90.337990088334735
1040
-0.0248818291691539
1040
48.605370470334492
1040
72.655643349175492
1040
-1.0
1040
40.882971825549703
1040
72.655643349177595
1040
-0.0248818291691501
1071
        4
1005
541
1005
59C
1005
540
1005
55F
1071
        7
1070
     1
1070
     1
1071
       18
1040
67.331191210151701
1040
68.89733173546756
1040
0.4142135623730951
1040
75.331191210151701
1040
60.89733173546756
1040
0.0
1040
80.675802928262684
1040
60.89733173546756
1040
0.1450058980834471
1040
84.501142256151084
1040
62.072518178885289
1040
0.0
1040
84.501142256151084
1040
70.214764581409185
1040
-0.0833071563303517
1040
83.501142256151255
1040
69.876055965300111
1040
0.0
1040
80.482556033578916
1040
69.876055965300111
1040
-0.4142135623730951
1040
77.482556033578931
1040
72.876055965300111
1040
0.0
1040
77.482556033578931
1040
94.593352860836134
1040
0.0
1040
84.553623006881026
1040
94.593352860836134
1040
0.0
1040
84.553623006881026
1040
101.9948050433795
1040
0.0
1040
77.482556033578931
1040
101.9948050433795
1040
0.0
1040
77.482556033578931
1040
107.1280725498991
1040
0.0
1040
67.331191210151701
1040
107.1280725498991
1040
0.0
1040
67.331191210151701
1040
101.9948050433795
1040
0.0
1040
62.478989637268562
1040
101.9948050433795
1040
0.0
1040
62.478989637268569
1040
94.593352860836134
1040
0.0
1040
67.331191210151687
1040
94.593352860836134
1040
0.0
1071
       18
1005
59A
1005
5AE
1005
59B
1005
5A6
1005
5A4
1005
5A5
1005
5A1
1005
5A3
1005
5A2
1005
59E
1005
570
1005
584
1005
573
1005
571
1005
5AB
1005
599
1005
5A0
1005
59F
1071
        7
1070
     1
1070
     1
1071
        8
1040
85.849782736700035
1040
72.897331735467475
1040
0.4142135623730931
1040
97.849782736700035
1040
60.89733173546756
1040
0.0
1040
103.66183676415081
1040
60.89733173546756
1040
0.4142126981028048
1040
115.6618367640986
1040
72.897296325816569
1040
0.0348233422700971
1040
115.6618367640986
1040
90.096337111694325
1040
0.4142126981028151
1040
103.66183676415081
1040
102.0963017020437
1040
0.0
1040
97.849782736700035
1040
102.0963017020437
1040
0.4142135623730893
1040
85.849782736700035
1040
90.096301702044016
1040
0.0348231985322409
1071
        8
1005
56F
1005
5AF
1005
5AD
1005
5A9
1005
572
1005
598
1005
56E
1005
5D6
1071
       22
1070
     1
1070
     1
1071
        4
1040
96.894611662583884
1040
90.337990088335033
1040
-1.0
1040
104.6170103073686
1040
90.337990088334763
1040
-0.0248818291691539
1040
104.6170103073686
1040
72.655643349175506
1040
-1.0
1040
96.894611662583884
1040
72.655643349177595
1040
-0.0248818291691514
1071
        4
1005
5AC
1005
5A7
1005
5AA
1005
5A8
1071
        7
1070
     1
1070
     1
1071
        9
1040
119.0096173095521
1040
62.115696081838678
1040
0.0
1040
130.05101171535759
1040
62.115696081838671
1040
0.0
1040
130.05101171535759
1040
85.569427875032716
1040
-0.4142135623730946
1040
138.05101171535759
1040
93.569427875032716
1040
0.0
1040
139.4206293992797
1040
93.56942787503273
1040
0.0
1040
139.4206293992797
1040
102.0369718403325
1040
0.2674368359602435
1040
130.05101171535759
1040
97.915857504065855
1040
0.0
1040
130.05101171535759
1040
102.0369718403326
1040
0.0
1040
119.0096173095521
1040
102.0369718403326
1040
0.0
1071
        9
1005
5D5
1005
5DB
1005
5DA
1005
5D7
1005
5D9
1005
5D8
1005
5B1
1005
5C0
1005
5B0
1071
        7
1070
     0
1070
     1
1071
        4
1040
153.2899770207527
1040
102.0369718403326
1040
142.11987082690661
1040
102.0369718403326
1040
142.11987082690661
1040
62.115696081838678
1040
153.2899770207527
1040
62.115696081838678
1071
        4
1005
5D4
1005
5B5
1005
5B9
1005
5B4
1071
        7
1070
     0
1070
     1
1071
        9
1040
161.3332883364622
1040
62.115696081838678
1040
171.78072804963571
1040
62.115696081838678
1040
165.4162645291251
1040
78.311404477182364
1040
176.9709164189357
1040
78.31140447718235
1040
176.9709164189357
1040
86.855763084496857
1040
165.4162645291251
1040
86.855763084496886
1040
171.38205787173379
1040
102.0369718403326
1040
160.9346181585602
1040
102.0369718403326
1040
153.2899770207527
1040
82.583583780839575
1071
        9
1005
5E1
1005
5E0
1005
5DF
1005
5DC
1005
5B3
1005
5CF
1005
5B2
1005
5DE
1005
5DD
1071
        7
1070
     1
1070
     1
1071
       21
1040
152.52515784094209
1040
47.648154099737518
1040
-0.8501159182110916
1040
160.04745823702251
1040
46.421288526219293
1040
0.0
1040
160.04745823702251
1040
45.21828747592599
1040
0.0
1040
171.0912486890569
1040
45.21828747592599
1040
0.4103700463812956
1040
159.0922846938046
1040
57.06060729124669
1040
0.0
1040
153.28023066635379
1040
57.06060729124669
1040
0.3231315706904765
1040
141.8917942032017
1040
48.84260609145101
1040
0.1954153765693974
1040
142.3184035466634
1040
43.115005509834923
1040
0.2113556324406552
1040
155.72873071743231
1040
33.145354604103439
1040
-0.2264685134690167
1040
160.04745823702251
1040
29.300230626583549
1040
0.0
1040
160.04745823702251
1040
27.619948938379359
1040
-1.0
1040
152.32505959223769
1040
27.619948938379359
1040
0.0
1040
152.32505959223769
1040
29.959298931438969
1040
0.0
1040
141.28023066635379
1040
29.95929893143898
1040
0.0
1040
141.28023066635379
1040
27.861637324670479
1040
0.4142135623730951
1040
153.28023066635379
1040
15.861637324670481
1040
0.0
1040
159.0922846938046
1040
15.861637324670481
1040
0.4142135623730951
1040
171.0922846938046
1040
27.861637324670479
1040
0.0
1040
171.0922846938046
1040
29.95929893143904
1040
0.3201720163042325
1040
161.4128172083947
1040
39.98989916707626
1040
-0.1549843570040388
1040
153.4809683549079
1040
44.585756161105429
1040
-0.2969707756967668
1071
       21
1005
5D0
1005
5D2
1005
5CD
1005
5CE
1005
5D3
1005
5B8
1005
5C5
1005
5B6
1005
5CB
1005
5C8
1005
5CA
1005
5C9
1005
5B7
1005
5BD
1005
568
1005
56C
1005
569
1005
5CC
1005
5C7
1005
5C6
1005
5D1
1071
        7
1070
     1
1070
     1
1071
        9
1040
116.19314081319391
1040
17.28637227261407
1040
0.0
1040
127.2345352189994
1040
17.28637227261407
1040
0.0
1040
127.2345352189994
1040
40.740104065808097
1040
-0.4142135623730953
1040
135.23453521899941
1040
48.740104065808111
1040
0.0
1040
136.6041529029215
1040
48.740104065808111
1040
0.0
1040
136.6041529029215
1040
57.207648031108022
1040
0.2674368359602446
1040
127.2345352189994
1040
53.086533694841222
1040
0.0
1040
127.2345352189994
1040
57.207648031108022
1040
0.0
1040
116.19314081319391
1040
57.207648031108022
1040
0.0
1071
        9
1005
5BE
1005
5C2
1005
5C1
1005
5BB
1005
5BC
1005
5BA
1005
5BF
1005
5C4
1005
5C3
1071
        7
1070
     1
1070
     1
1071
       18
1040
111.2523129779601
1040
45.06060729124669
1040
0.4142135623730951
1040
99.252312977960173
1040
57.06060729124669
1040
0.0
1040
93.440258950509346
1040
57.06060729124669
1040
0.3935971290544443
1040
81.470405744524527
1040
45.910674481046733
1040
0.0
1040
92.485087876393209
1040
45.910674481046733
1040
0.0
1040
92.485087876393209
1040
47.313129977668268
1040
-1.0
1040
100.2074865211779
1040
47.313129977668268
1040
0.0
1040
100.207486521178
1040
42.948196427274922
1040
0.0
1040
93.358174068518778
1040
42.948196427274922
1040
0.3803366342075343
1040
81.440258950509346
1040
32.349374231810209
1040
0.0
1040
81.440258950509346
1040
27.861637324670479
1040
0.212203934851876
1040
85.398663329684837
1040
18.95474449545469
1040
0.2715779457989354
1040
94.991749269489972
1040
17.839408458597308
1040
0.2212147422997974
1040
102.1211660476033
1040
23.542010892025001
1040
0.0
1040
102.1211660476033
1040
21.102600968374279
1040
0.048558820350044
1040
102.6710305977499
1040
17.89352120355198
1040
0.0
1040
111.8021775281067
1040
17.893521203552009
1040
-0.0850534761391249
1040
111.2523129779601
1040
23.54201089202471
1040
0.0
1071
       18
1005
56D
1005
594
1005
576
1005
595
1005
596
1005
593
1005
597
1005
592
1005
574
1005
58A
1005
575
1005
567
1005
586
1005
58E
1005
58D
1005
58C
1005
58F
1005
585
1071
       22
1070
     1
1070
     1
1071
        6
1040
101.5095597489034
1040
37.384730871555568
1040
0.0
1040
101.5095597489034
1040
29.984856014372749
1040
-0.4101584254678068
1040
95.863486513980718
1040
23.758749615986972
1040
-0.4142135623730822
1040
92.002287191588479
1040
27.619948938379359
1040
0.0
1040
92.002287191588479
1040
33.041326503689838
1040
-0.3592987923427892
1040
97.969021393668683
1040
37.384730871555568
1040
0.0
1071
        6
1005
590
1005
588
1005
58B
1005
589
1005
587
1005
591
1071
        7
1070
     1
1070
     1
1071
       14
1040
74.280536421539182
1040
35.629722934820848
1040
0.0
1040
74.280536421539182
1040
45.06060729124669
1040
0.4142135623730951
1040
62.280536421539182
1040
57.06060729124669
1040
0.0
1040
56.468482394088369
1040
57.06060729124669
1040
0.4142135623730892
1040
44.468482394088362
1040
45.060607291246939
1040
0.0348231985322411
1040
44.468482394088362
1040
27.861637324670291
1040
0.4142135623730907
1040
56.468482394088369
1040
15.861637324670481
1040
0.0
1040
62.280536421539182
1040
15.861637324670481
1040
0.4142135623730951
1040
74.280536421539182
1040
27.861637324670479
1040
0.0
1040
74.280536421539196
1040
30.816887788353831
1040
0.0
1040
63.235709964757
1040
30.81688778835381
1040
0.0
1040
63.235709964757007
1040
27.61994893837937
1040
-1.0
1040
55.513311319972217
1040
27.61994893837937
1040
0.0
1040
55.513311319972232
1040
35.629722934820848
1040
0.0
1071
       14
1005
57E
1005
583
1005
53D
1005
551
1005
53C
1005
56B
1005
56A
1005
57D
1005
578
1005
57A
1005
57C
1005
57B
1005
579
1005
577
1071
       22
1070
     1
1070
     1
1071
        4
1040
63.235709964756971
1040
41.923431282527652
1040
0.0
1040
55.51331131997221
1040
41.923431282527638
1040
0.0
1040
55.513311319972217
1040
46.690614073903141
1040
-1.0
1040
63.235709964757007
1040
46.690614073903127
1040
0.0
1071
        4
1005
57F
1005
581
1005
580
1005
582
1071
        7
1070
     1
1070
     1
1071
       15
1040
37.639779947293832
1040
57.06060729124669
1040
0.0
1040
27.267121908897028
1040
57.06060729124669
1040
0.0
1040
27.267121908897021
1040
51.255838552818979
1040
0.3392741364964821
1040
18.58303542025671
1040
58.127888502333931
1040
0.3975671648689696
1040
7.030577403887583
1040
46.170226698962978
1040
0.0322586733839356
1040
7.0565934473582743
1040
30.23514359210488
1040
0.381674351628262
1040
18.58303542025671
1040
18.945146626805109
1040
0.3392741364964824
1040
27.267121908897021
1040
25.817196576320061
1040
0.0
1040
27.267121908897021
1040
13.51984597021351
1040
-1.0
1040
19.544723264112228
1040
13.51984597021351
1040
0.0
1040
19.544723264112239
1040
14.846027306936771
1040
0.0
1040
7.7279273094568479
1040
14.846027306936771
1040
0.435111756420548
1040
18.100585347853119
1040
3.392610111620797
1040
0.0
1040
25.69916102541525
1040
3.392610111620797
1040
0.3589835117613411
1040
37.639779947293839
1040
13.760967175618781
1040
0.0
1071
       15
1005
557
1005
55B
1005
55A
1005
54E
1005
550
1005
542
1005
556
1005
543
1005
549
1005
54A
1005
545
1005
546
1005
548
1005
547
1005
544
1071
       22
1070
     1
1070
     1
1071
        6
1040
27.387732575171409
1040
32.086434320449378
1040
-0.3635850888704513
1040
22.683854862926161
1040
25.455509253088579
1040
-0.4081657147783189
1040
17.256300807526252
1040
30.5191262631974
1040
0.0
1040
17.256300807526252
1040
46.312783983787632
1040
-0.4081657147783226
1040
22.683854862926282
1040
51.376400993896397
1040
-0.3635850888704468
1040
27.387732575171409
1040
44.745475926535612
1040
0.0
1071
        6
1005
555
1005
554
1005
553
1005
558
1005
559
1005
552
1070
     0
1070
     1
1040
0.2228598800114194
1071
       17
1040
17.63743802729277
1040
76.626905651017751
1040
0.0
1040
33.91754890401171
1040
77.741205688022092
1040
0.0
1040
33.91754890401171
1040
77.741205688022092
1040
0.0
1040
69.153945982282949
1040
79.301225382558854
1040
0.0
1040
91.455465417142008
1040
80.861243290751887
1040
0.0
1040
91.455465417142008
1040
80.861243290751887
1040
0.0
1040
120.67045393727309
1040
80.861243290751887
1040
0.0
1040
151.44655150816561
1040
79.746945040091759
1040
0.0
1040
157.69097519808881
1040
82.198402263350317
1040
0.0
1040
149.43941532211869
1040
47.209401108474808
1040
0.0
1040
122.2315629880345
1040
49.21514046054449
1040
0.0
1040
107.73557316557979
1040
43.19792419067948
1040
0.0
1040
107.73557316557979
1040
43.19792419067948
1040
0.0
1040
69.376961114066034
1040
40.30074552354403
1040
0.0
1040
69.376961114066034
1040
40.30074552354403
1040
0.0
1040
30.572318798986078
1040
42.306483089269697
1040
0.0
1040
30.572318798986078
1040
42.306483089269697
1040
0.0
1002
}
  0
ARC
  5
53C
  8
DRG
 62
     7
 10
56.468482394088369
 20
27.861637324670479
 30
0.0
 40
12.0
 50
180.0
 51
270.0
  0
ARC
  5
53D
  8
DRG
 62
     7
 10
56.468482394088369
 20
45.06060729124669
 30
0.0
 40
12.0
 50
90.0
 51
180.0
  0
ARC
  5
53E
  8
DRG
 62
     7
 10
47.650196927116667
 20
72.89733173546756
 30
0.0
 40
12.0
 50
270.0
 51
0.0
  0
ARC
  5
53F
  8
DRG
 62
     7
 10
47.650196927116667
 20
90.096301702043775
 30
0.0
 40
12.0
 50
0.0
 51
90.0
  0
ARC
  5
540
  8
DRG
 62
     7
 10
44.74417114794209
 20
72.655643349176444
 30
0.0
 40
3.8611993223923942
 50
180.0
 51
0.0
  0
ARC
  5
541
  8
DRG
 62
     7
 10
44.74417114794209
 20
90.337990088334877
 30
0.0
 40
3.8611993223923942
 50
0.0
 51
180.0
  0
ARC
  5
542
  8
DRG
 62
     7
 10
19.137584483414571
 20
31.0402274344309
 30
0.0
 40
12.107786932649869
 50
183.81258486583951
 51
267.37487616930952
  0
LINE
  5
543
  8
DRG
 62
     7
 10
27.267121908897021
 20
13.51984597021351
 30
0.0
 11
27.267121908897021
 21
25.817196576319979
 31
0.0
  0
LINE
  5
544
  8
DRG
 62
     7
 10
37.639779947293839
 20
13.760967175618591
 30
0.0
 11
37.639779947293839
 21
57.06060729124669
 31
0.0
  0
LINE
  5
545
  8
DRG
 62
     7
 10
7.7279273094568453
 20
14.846027306936771
 30
0.0
 11
19.544723264112228
 21
14.846027306936771
 31
0.0
  0
ARC
  5
546
  8
DRG
 62
     7
 10
18.249110221157022
 20
13.95076893658401
 30
0.0
 40
10.559203445863639
 50
175.13635846835899
 51
269.19405577571678
  0
ARC
  5
547
  8
DRG
 62
     7
 10
25.379351800633462
 20
15.82074347040526
 30
0.0
 40
12.432247452652581
 50
271.47404887186468
 51
350.4632534986161
  0
LINE
  5
548
  8
DRG
 62
     7
 10
18.100585347854121
 20
3.392610111620797
 30
0.0
 11
25.699161025414639
 21
3.392610111620797
 31
0.0
  0
ARC
  5
549
  8
DRG
 62
     7
 10
23.40592258650463
 20
13.51984597021351
 30
0.0
 40
3.8611993223923942
 50
180.0
 51
0.0
  0
LINE
  5
54A
  8
DRG
 62
     7
 10
19.544723264112228
 20
13.51984597021351
 30
0.0
 11
19.544723264112228
 21
14.846027306936771
 31
0.0
  0
LINE
  5
54B
  8
DRG
 62
     7
 10
18.821661727211438
 20
62.115696081838678
 30
0.0
 11
18.821661727211438
 21
85.569427875032716
 31
0.0
  0
ARC
  5
54C
  8
DRG
 62
     7
 10
41.838142899665847
 20
72.89733173546756
 30
0.0
 40
12.0
 50
180.0
 51
270.0
  0
LINE
  5
54D
  8
DRG
 62
     7
 10
7.7802673214059723
 20
102.0369718403326
 30
0.0
 11
7.7802673214059723
 21
62.115696081838678
 31
0.0
  0
ARC
  5
54E
  8
DRG
 62
     7
 10
19.137584483414571
 20
46.032807694708133
 30
0.0
 40
12.107786932649869
 50
92.625123830690427
 51
179.34969965531249
  0
LINE
  5
54F
  8
DRG
 62
     7
 10
7.7802673214059723
 20
62.115696081838678
 30
0.0
 11
18.821661727211438
 21
62.115696081838678
 31
0.0
  0
ARC
  5
550
  8
DRG
 62
     7
 10
130.4096373956734
 20
38.404095866101891
 30
0.0
 40
123.62323904739679
 50
176.39825231050591
 51
183.7888327716102
  0
ARC
  5
551
  8
DRG
 62
     7
 10
167.7922598686371
 20
36.46112230795859
 30
0.0
 40
123.62323904739679
 50
176.01116722839041
 51
183.98883277160959
  0
LINE
  5
552
  8
DRG
 62
     7
 10
27.387732575171409
 20
32.086434320449371
 30
0.0
 11
27.387732575171409
 21
44.745475926535619
 31
0.0
  0
LINE
  5
553
  8
DRG
 62
     7
 10
17.256300807526252
 20
30.519126263197901
 30
0.0
 11
17.256300807526252
 21
46.312783983787199
 31
0.0
  0
ARC
  5
554
  8
DRG
 62
     7
 10
22.554825927420261
 20
30.757839296791811
 30
0.0
 40
5.3038997311936118
 50
182.57958705316651
 51
271.39398239048438
  0
ARC
  5
555
  8
DRG
 62
     7
 10
21.079116203706629
 20
31.577778829510549
 30
0.0
 40
6.3290892655085571
 50
284.68766481341447
 51
4.6097118352224014
  0
ARC
  5
556
  8
DRG
 62
     7
 10
18.444167318675341
 20
28.04361904615444
 30
0.0
 40
9.0995321151857773
 50
270.87442572940842
 51
345.83740798549388
  0
LINE
  5
557
  8
DRG
 62
     7
 10
37.639779947293839
 20
57.06060729124669
 30
0.0
 11
27.267121908897021
 21
57.06060729124669
 31
0.0
  0
ARC
  5
558
  8
DRG
 62
     7
 10
22.554825927420261
 20
46.074070950193168
 30
0.0
 40
5.3038997311936118
 50
88.606017609515575
 51
177.42041294683341
  0
ARC
  5
559
  8
DRG
 62
     7
 10
21.079116203706629
 20
45.254131417474468
 30
0.0
 40
6.3290892655085571
 50
355.39028816477759
 51
75.312335186585557
  0
ARC
  5
55A
  8
DRG
 62
     7
 10
18.444167318675341
 20
49.029416082984589
 30
0.0
 40
9.0995321151857773
 50
14.16259201450603
 51
89.125574270591571
  0
LINE
  5
55B
  8
DRG
 62
     7
 10
27.267121908897021
 20
51.255838552819107
 30
0.0
 11
27.267121908897021
 21
57.06060729124669
 31
0.0
  0
LINE
  5
55C
  8
DRG
 62
     7
 10
41.838142899665847
 20
60.89733173546756
 30
0.0
 11
47.650196927116667
 21
60.89733173546756
 31
0.0
  0
LINE
  5
55D
  8
DRG
 62
     7
 10
7.7802673214059723
 20
102.0369718403326
 30
0.0
 11
18.821661727211438
 21
102.0369718403326
 31
0.0
  0
ARC
  5
55E
  8
DRG
 62
     7
 10
26.821661727211438
 20
85.569427875032716
 30
0.0
 40
8.0
 50
90.0
 51
180.0
  0
ARC
  5
55F
  8
DRG
 62
     7
 10
218.4362314981995
 20
81.496816718755667
 30
0.0
 40
177.77324423808651
 50
177.14934059322539
 51
182.85065940677461
  0
ARC
  5
560
  8
DRG
 62
     7
 10
153.16192037421459
 20
81.496816718755667
 30
0.0
 40
123.62323904739679
 50
176.01116722839041
 51
183.98883277160959
  0
ARC
  5
561
  8
DRG
 62
     7
 10
41.838142899665847
 20
90.096301702043775
 30
0.0
 40
12.0
 50
90.0
 51
180.0
  0
LINE
  5
562
  8
DRG
 62
     7
 10
18.821661727211438
 20
97.915857504065912
 30
0.0
 11
18.821661727211438
 21
102.0369718403326
 31
0.0
  0
ARC
  5
563
  8
DRG
 62
     7
 10
27.083354510939952
 20
91.844139685506846
 30
0.0
 40
10.2528691067876
 50
83.7965056449153
 51
143.68693404466879
  0
LINE
  5
564
  8
DRG
 62
     7
 10
28.191279411133561
 20
102.0369718403326
 30
0.0
 11
28.191279411133561
 21
93.569427875032716
 31
0.0
  0
LINE
  5
565
  8
DRG
 62
     7
 10
28.191279411133561
 20
93.569427875032716
 30
0.0
 11
26.821661727211438
 21
93.569427875032716
 31
0.0
  0
LINE
  5
566
  8
DRG
 62
     7
 10
41.838142899665847
 20
102.0963017020437
 30
0.0
 11
47.650196927116667
 21
102.0963017020437
 31
0.0
  0
ARC
  5
567
  8
DRG
 62
     7
 10
91.146199293645054
 20
26.576636016635941
 30
0.0
 40
9.5460672539884595
 50
232.98068850611
 51
293.75592135571679
  0
ARC
  5
568
  8
DRG
 62
     7
 10
153.28023066635379
 20
27.861637324670479
 30
0.0
 40
12.0
 50
180.0
 51
270.0
  0
ARC
  5
569
  8
DRG
 62
     7
 10
159.0922846938046
 20
27.861637324670479
 30
0.0
 40
12.0
 50
270.0
 51
0.0
  0
ARC
  5
56A
  8
DRG
 62
     7
 10
62.280536421539182
 20
27.861637324670479
 30
0.0
 40
12.0
 50
270.0
 51
0.0
  0
LINE
  5
56B
  8
DRG
 62
     7
 10
56.468482394088369
 20
15.861637324670481
 30
0.0
 11
62.280536421539182
 21
15.861637324670481
 31
0.0
  0
LINE
  5
56C
  8
DRG
 62
     7
 10
153.28023066635379
 20
15.861637324670481
 30
0.0
 11
159.0922846938046
 21
15.861637324670481
 31
0.0
  0
ARC
  5
56D
  8
DRG
 62
     7
 10
99.252312977960173
 20
45.06060729124669
 30
0.0
 40
12.0
 50
0.0
 51
90.0
  0
ARC
  5
56E
  8
DRG
 62
     7
 10
103.66183676415081
 20
72.89733173546756
 30
0.0
 40
12.0
 50
270.0
 51
0.0
  0
ARC
  5
56F
  8
DRG
 62
     7
 10
103.66183676415081
 20
90.096301702043775
 30
0.0
 40
12.0
 50
0.0
 51
90.0
  0
ARC
  5
570
  8
DRG
 62
     7
 10
75.331191210151701
 20
68.89733173546756
 30
0.0
 40
8.0
 50
180.0
 51
270.0
  0
LINE
  5
571
  8
DRG
 62
     7
 10
84.501142256151084
 20
62.072518178885268
 30
0.0
 11
84.501142256151084
 21
70.214764581409213
 31
0.0
  0
ARC
  5
572
  8
DRG
 62
     7
 10
97.849782736700035
 20
72.89733173546756
 30
0.0
 40
12.0
 50
180.0
 51
270.0
  0
ARC
  5
573
  8
DRG
 62
     7
 10
80.604973725058926
 20
67.941395133310024
 30
0.0
 40
7.044419488421358
 50
270.57609896713558
 51
303.5789717876612
  0
ARC
  5
574
  8
DRG
 62
     7
 10
93.358174068518778
 20
30.948196427274919
 30
0.0
 40
12.0
 50
90.0
 51
173.29457252003729
  0
ARC
  5
575
  8
DRG
 62
     7
 10
93.44025895050936
 20
27.861637324670479
 30
0.0
 40
12.0
 50
180.0
 51
227.9226718038604
  0
ARC
  5
576
  8
DRG
 62
     7
 10
93.44025895050936
 20
45.06060729124669
 30
0.0
 40
12.0
 50
90.0
 51
175.93782586434531
  0
LINE
  5
577
  8
DRG
 62
     7
 10
74.280536421539182
 20
45.06060729124669
 30
0.0
 11
74.280536421539182
 21
35.629722934820848
 31
0.0
  0
LINE
  5
578
  8
DRG
 62
     7
 10
63.235709964757007
 20
30.816887788353821
 30
0.0
 11
74.280536421539182
 21
30.816887788353821
 31
0.0
  0
LINE
  5
579
  8
DRG
 62
     7
 10
55.513311319972217
 20
35.629722934820848
 30
0.0
 11
74.280536421539182
 21
35.629722934820848
 31
0.0
  0
LINE
  5
57A
  8
DRG
 62
     7
 10
63.235709964757007
 20
30.816887788353821
 30
0.0
 11
63.235709964757007
 21
27.619948938379359
 31
0.0
  0
LINE
  5
57B
  8
DRG
 62
     7
 10
55.513311319972217
 20
35.629722934820848
 30
0.0
 11
55.513311319972217
 21
27.619948938379359
 31
0.0
  0
ARC
  5
57C
  8
DRG
 62
     7
 10
59.374510642364612
 20
27.619948938379359
 30
0.0
 40
3.8611993223923942
 50
180.0
 51
0.0
  0
LINE
  5
57D
  8
DRG
 62
     7
 10
74.280536421539182
 20
30.816887788353821
 30
0.0
 11
74.280536421539182
 21
27.861637324670479
 31
0.0
  0
ARC
  5
57E
  8
DRG
 62
     7
 10
62.280536421539182
 20
45.06060729124669
 30
0.0
 40
12.0
 50
0.0
 51
90.0
  0
LINE
  5
57F
  8
DRG
 62
     7
 10
55.513311319972217
 20
41.923431282527652
 30
0.0
 11
63.235709964757007
 21
41.923431282527652
 31
0.0
  0
ARC
  5
580
  8
DRG
 62
     7
 10
59.374510642364612
 20
46.690614073903127
 30
0.0
 40
3.8611993223923942
 50
0.0
 51
180.0
  0
LINE
  5
581
  8
DRG
 62
     7
 10
55.513311319972217
 20
46.690614073903127
 30
0.0
 11
55.513311319972217
 21
41.923431282527652
 31
0.0
  0
LINE
  5
582
  8
DRG
 62
     7
 10
63.235709964757007
 20
46.690614073903127
 30
0.0
 11
63.235709964757007
 21
41.923431282527652
 31
0.0
  0
LINE
  5
583
  8
DRG
 62
     7
 10
56.468482394088369
 20
57.06060729124669
 30
0.0
 11
62.280536421539182
 21
57.06060729124669
 31
0.0
  0
LINE
  5
584
  8
DRG
 62
     7
 10
75.331191210151701
 20
60.89733173546756
 30
0.0
 11
80.675802928264815
 21
60.89733173546756
 31
0.0
  0
LINE
  5
585
  8
DRG
 62
     7
 10
111.2523129779601
 20
45.06060729124669
 30
0.0
 11
111.2523129779601
 21
21.10260096837424
 31
0.0
  0
ARC
  5
586
  8
DRG
 62
     7
 10
92.427187023305351
 20
28.353548776339029
 30
0.0
 40
10.822390038051561
 50
283.70766965543032
 51
333.6028219757398
  0
ARC
  5
587
  8
DRG
 62
     7
 10
97.617648860406234
 20
31.597336783954741
 30
0.0
 40
5.7980507916306081
 50
86.525641605078704
 51
165.57884810514051
  0
ARC
  5
588
  8
DRG
 62
     7
 10
95.530005668639475
 20
29.734254501986349
 30
0.0
 40
5.9848030975807349
 50
273.19424815916329
 51
2.3998464036014582
  0
LINE
  5
589
  8
DRG
 62
     7
 10
92.002287191588479
 20
27.619948938379359
 30
0.0
 11
92.002287191588479
 21
33.041326503689788
 31
0.0
  0
LINE
  5
58A
  8
DRG
 62
     7
 10
81.440258950509346
 20
32.349374231809861
 30
0.0
 11
81.440258950509346
 21
27.861637324670479
 31
0.0
  0
ARC
  5
58B
  8
DRG
 62
     7
 10
95.863486513980874
 20
27.619948938379359
 30
0.0
 40
3.8611993223923942
 50
180.0
 51
270.0
  0
LINE
  5
58C
  8
DRG
 62
     7
 10
102.6710305977499
 20
17.89352120355198
 30
0.0
 11
111.8021775281067
 21
17.893521203552009
 31
0.0
  0
ARC
  5
58D
  8
DRG
 62
     7
 10
118.87875205644769
 20
22.322305930199491
 30
0.0
 40
16.801915635954131
 50
175.83705377070211
 51
195.28307330703629
  0
LINE
  5
58E
  8
DRG
 62
     7
 10
102.1211660476033
 20
23.542010892025068
 30
0.0
 11
102.1211660476033
 21
21.102600968374329
 31
0.0
  0
ARC
  5
58F
  8
DRG
 62
     7
 10
128.00989898680459
 20
22.322305930199519
 30
0.0
 40
16.801915635954131
 50
175.83705377070211
 51
195.28307330703629
  0
LINE
  5
590
  8
DRG
 62
     7
 10
101.5095597489034
 20
37.384730871555568
 30
0.0
 11
101.5095597489034
 21
29.483652989600269
 31
0.0
  0
LINE
  5
591
  8
DRG
 62
     7
 10
101.5095597489034
 20
37.384730871555568
 30
0.0
 11
97.266276327143615
 21
37.384730871555568
 31
0.0
  0
LINE
  5
592
  8
DRG
 62
     7
 10
100.2074865211779
 20
42.948196427274922
 30
0.0
 11
93.358174068518778
 21
42.948196427274922
 31
0.0
  0
ARC
  5
593
  8
DRG
 62
     7
 10
96.346287198785603
 20
47.313129977668268
 30
0.0
 40
3.8611993223923942
 50
0.0
 51
180.0
  0
LINE
  5
594
  8
DRG
 62
     7
 10
93.44025895050936
 20
57.06060729124669
 30
0.0
 11
99.252312977960173
 21
57.06060729124669
 31
0.0
  0
LINE
  5
595
  8
DRG
 62
     7
 10
92.485087876393209
 20
45.910674481046733
 30
0.0
 11
81.470405744524555
 21
45.910674481046733
 31
0.0
  0
LINE
  5
596
  8
DRG
 62
     7
 10
92.485087876393209
 20
47.313129977668268
 30
0.0
 11
92.485087876393209
 21
45.910674481046733
 31
0.0
  0
LINE
  5
597
  8
DRG
 62
     7
 10
100.2074865211779
 20
47.313129977668268
 30
0.0
 11
100.2074865211779
 21
42.948196427274922
 31
0.0
  0
LINE
  5
598
  8
DRG
 62
     7
 10
97.849782736700035
 20
60.89733173546756
 30
0.0
 11
103.66183676415081
 21
60.89733173546756
 31
0.0
  0
LINE
  5
599
  8
DRG
 62
     7
 10
80.482556033578916
 20
69.876055965300111
 30
0.0
 11
83.501142256151056
 21
69.876055965300111
 31
0.0
  0
LINE
  5
59A
  8
DRG
 62
     7
 10
77.482556033578931
 20
94.593352860836134
 30
0.0
 11
84.553623006881026
 21
94.593352860836134
 31
0.0
  0
LINE
  5
59B
  8
DRG
 62
     7
 10
77.482556033578931
 20
101.9948050433795
 30
0.0
 11
84.553623006881026
 21
101.9948050433795
 31
0.0
  0
ARC
  5
59C
  8
DRG
 62
     7
 10
-128.9478892023152
 20
81.496816718755667
 30
0.0
 40
177.77324423808651
 50
357.1493405932253
 51
2.8506594067746178
  0
ARC
  5
59D
  8
DRG
 62
     7
 10
-63.673578078330422
 20
81.496816718755667
 30
0.0
 40
123.62323904739679
 50
356.01116722839038
 51
3.9888327716095779
  0
LINE
  5
59E
  8
DRG
 62
     7
 10
67.331191210151701
 20
94.593352860836134
 30
0.0
 11
67.331191210151701
 21
68.89733173546756
 31
0.0
  0
LINE
  5
59F
  8
DRG
 62
     7
 10
77.482556033578931
 20
94.593352860836134
 30
0.0
 11
77.482556033578931
 21
72.876055965300111
 31
0.0
  0
ARC
  5
5A0
  8
DRG
 62
     7
 10
80.482556033578916
 20
72.876055965300111
 30
0.0
 40
3.0
 50
180.0
 51
270.0
  0
LINE
  5
5A1
  8
DRG
 62
     7
 10
62.478989637268569
 20
101.9948050433795
 30
0.0
 11
67.331191210151701
 21
101.9948050433795
 31
0.0
  0
LINE
  5
5A2
  8
DRG
 62
     7
 10
62.478989637268569
 20
94.593352860836134
 30
0.0
 11
67.331191210151701
 21
94.593352860836134
 31
0.0
  0
LINE
  5
5A3
  8
DRG
 62
     7
 10
62.478989637268569
 20
94.593352860836134
 30
0.0
 11
62.478989637268569
 21
101.9948050433795
 31
0.0
  0
LINE
  5
5A4
  8
DRG
 62
     7
 10
67.331191210151701
 20
107.1280725498991
 30
0.0
 11
77.482556033578931
 21
107.1280725498991
 31
0.0
  0
LINE
  5
5A5
  8
DRG
 62
     7
 10
67.331191210151701
 20
107.1280725498991
 30
0.0
 11
67.331191210151701
 21
101.9948050433795
 31
0.0
  0
LINE
  5
5A6
  8
DRG
 62
     7
 10
77.482556033578931
 20
101.9948050433795
 30
0.0
 11
77.482556033578931
 21
107.1280725498991
 31
0.0
  0
ARC
  5
5A7
  8
DRG
 62
     7
 10
-72.936249365281071
 20
81.496816718755667
 30
0.0
 40
177.77324423808651
 50
357.1493405932253
 51
2.8506594067746178
  0
ARC
  5
5A8
  8
DRG
 62
     7
 10
274.44787133523357
 20
81.496816718755667
 30
0.0
 40
177.77324423808651
 50
177.14934059322539
 51
182.85065940677461
  0
ARC
  5
5A9
  8
DRG
 62
     7
 10
209.1735602112488
 20
81.496816718755667
 30
0.0
 40
123.62323904739679
 50
176.01116722839041
 51
183.98883277160959
  0
ARC
  5
5AA
  8
DRG
 62
     7
 10
100.75581098497619
 20
72.655643349176444
 30
0.0
 40
3.8611993223923942
 50
180.0
 51
0.0
  0
ARC
  5
5AB
  8
DRG
 62
     7
 10
82.991751330883176
 20
73.025526152493626
 30
0.0
 40
3.1903983410800212
 50
279.18737892597682
 51
298.2359877234839
  0
ARC
  5
5AC
  8
DRG
 62
     7
 10
100.75581098497619
 20
90.337990088334877
 30
0.0
 40
3.8611993223923942
 50
0.0
 51
180.0
  0
ARC
  5
5AD
  8
DRG
 62
     7
 10
97.849782736700035
 20
90.096301702043775
 30
0.0
 40
12.0
 50
90.0
 51
180.0
  0
LINE
  5
5AE
  8
DRG
 62
     7
 10
84.553623006881026
 20
101.9948050433795
 30
0.0
 11
84.553623006881026
 21
94.593352860836134
 31
0.0
  0
LINE
  5
5AF
  8
DRG
 62
     7
 10
97.849782736700035
 20
102.0963017020437
 30
0.0
 11
103.66183676415081
 21
102.0963017020437
 31
0.0
  0
LINE
  5
5B0
  8
DRG
 62
     7
 10
130.05101171535759
 20
62.115696081838678
 30
0.0
 11
130.05101171535759
 21
85.569427875032716
 31
0.0
  0
LINE
  5
5B1
  8
DRG
 62
     7
 10
119.0096173095521
 20
102.0369718403326
 30
0.0
 11
119.0096173095521
 21
62.115696081838678
 31
0.0
  0
LINE
  5
5B2
  8
DRG
 62
     7
 10
165.4162645291251
 20
78.31140447718235
 30
0.0
 11
171.78072804963571
 21
62.115696081838678
 31
0.0
  0
LINE
  5
5B3
  8
DRG
 62
     7
 10
153.2899770207527
 20
82.583583780839604
 30
0.0
 11
161.3332883364622
 21
62.115696081838678
 31
0.0
  0
LINE
  5
5B4
  8
DRG
 62
     7
 10
153.2899770207527
 20
102.0369718403326
 30
0.0
 11
153.2899770207527
 21
62.115696081838678
 31
0.0
  0
LINE
  5
5B5
  8
DRG
 62
     7
 10
142.11987082690661
 20
102.0369718403326
 30
0.0
 11
142.11987082690661
 21
62.115696081838678
 31
0.0
  0
ARC
  5
5B6
  8
DRG
 62
     7
 10
160.28928843394391
 20
53.283870983727013
 30
0.0
 40
20.648450998997479
 50
209.50344874889601
 51
257.2400493880096
  0
LINE
  5
5B7
  8
DRG
 62
     7
 10
141.28023066635379
 20
29.95929893143898
 30
0.0
 11
152.32505959223769
 21
29.95929893143898
 31
0.0
  0
ARC
  5
5B8
  8
DRG
 62
     7
 10
153.28023066635379
 20
45.06060729124669
 30
0.0
 40
12.0
 50
90.0
 51
161.62913043773071
  0
LINE
  5
5B9
  8
DRG
 62
     7
 10
153.2899770207527
 20
62.115696081838678
 30
0.0
 11
142.11987082690661
 21
62.115696081838678
 31
0.0
  0
LINE
  5
5BA
  8
DRG
 62
     7
 10
127.2345352189994
 20
17.28637227261407
 30
0.0
 11
127.2345352189994
 21
40.740104065808111
 31
0.0
  0
LINE
  5
5BB
  8
DRG
 62
     7
 10
116.19314081319391
 20
57.207648031108022
 30
0.0
 11
116.19314081319391
 21
17.28637227261407
 31
0.0
  0
LINE
  5
5BC
  8
DRG
 62
     7
 10
116.19314081319391
 20
17.28637227261407
 30
0.0
 11
127.2345352189994
 21
17.28637227261407
 31
0.0
  0
LINE
  5
5BD
  8
DRG
 62
     7
 10
141.28023066635379
 20
29.95929893143898
 30
0.0
 11
141.28023066635379
 21
27.861637324670479
 31
0.0
  0
ARC
  5
5BE
  8
DRG
 62
     7
 10
135.496228002728
 20
47.014815876282221
 30
0.0
 40
10.2528691067876
 50
83.7965056449153
 51
143.68693404466879
  0
ARC
  5
5BF
  8
DRG
 62
     7
 10
135.23453521899941
 20
40.740104065808111
 30
0.0
 40
8.0
 50
90.0
 51
180.0
  0
LINE
  5
5C0
  8
DRG
 62
     7
 10
119.0096173095521
 20
62.115696081838678
 30
0.0
 11
130.05101171535759
 21
62.115696081838678
 31
0.0
  0
LINE
  5
5C1
  8
DRG
 62
     7
 10
116.19314081319391
 20
57.207648031108022
 30
0.0
 11
127.2345352189994
 21
57.207648031108022
 31
0.0
  0
LINE
  5
5C2
  8
DRG
 62
     7
 10
127.2345352189994
 20
53.0865336948413
 30
0.0
 11
127.2345352189994
 21
57.207648031108079
 31
0.0
  0
LINE
  5
5C3
  8
DRG
 62
     7
 10
136.6041529029215
 20
57.207648031108022
 30
0.0
 11
136.6041529029215
 21
48.740104065808111
 31
0.0
  0
LINE
  5
5C4
  8
DRG
 62
     7
 10
136.6041529029215
 20
48.740104065808111
 30
0.0
 11
135.23453521899941
 21
48.740104065808111
 31
0.0
  0
ARC
  5
5C5
  8
DRG
 62
     7
 10
149.15275272984229
 20
46.50373678022958
 30
0.0
 40
7.6283568598071962
 50
162.14543119997589
 51
216.29372603558031
  0
ARC
  5
5C6
  8
DRG
 62
     7
 10
164.68224204875119
 20
54.775095406185869
 30
0.0
 40
15.14236331012172
 50
222.29150451995909
 51
257.53093545652467
  0
ARC
  5
5C7
  8
DRG
 62
     7
 10
159.223234097084
 20
28.191351553125511
 30
0.0
 40
12.0
 50
8.4721667757414814
 51
79.486612768212169
  0
LINE
  5
5C8
  8
DRG
 62
     7
 10
160.04745823702251
 20
29.300230626583438
 30
0.0
 11
160.04745823702251
 21
27.619948938379359
 31
0.0
  0
LINE
  5
5C9
  8
DRG
 62
     7
 10
152.32505959223769
 20
27.619948938379359
 30
0.0
 11
152.32505959223769
 21
29.95929893143898
 31
0.0
  0
ARC
  5
5CA
  8
DRG
 62
     7
 10
156.18625891463009
 20
27.619948938379359
 30
0.0
 40
3.8611993223923942
 50
180.0
 51
0.0
  0
ARC
  5
5CB
  8
DRG
 62
     7
 10
153.8611380906755
 20
26.699836406787622
 30
0.0
 40
6.7106338785129491
 50
22.799249772319211
 51
73.841024038773142
  0
LINE
  5
5CC
  8
DRG
 62
     7
 10
171.0922846938046
 20
29.95929893143915
 30
0.0
 11
171.0922846938046
 21
27.861637324670479
 31
0.0
  0
LINE
  5
5CD
  8
DRG
 62
     7
 10
171.0912486890569
 20
45.21828747592599
 30
0.0
 11
160.04745823702251
 21
45.21828747592599
 31
0.0
  0
ARC
  5
5CE
  8
DRG
 62
     7
 10
159.0922846938046
 20
45.06060729124669
 30
0.0
 40
12.0
 50
0.7528890912800703
 51
90.0
  0
LINE
  5
5CF
  8
DRG
 62
     7
 10
161.3332883364622
 20
62.115696081838678
 30
0.0
 11
171.78072804963571
 21
62.115696081838678
 31
0.0
  0
ARC
  5
5D0
  8
DRG
 62
     7
 10
156.18625891463009
 20
46.421288526219307
 30
0.0
 40
3.8611993223923942
 50
0.0
 51
161.4735686305323
  0
ARC
  5
5D1
  8
DRG
 62
     7
 10
155.35373214152469
 20
46.850626662257177
 30
0.0
 40
2.938857360854815
 50
164.25399710017811
 51
230.4135202949499
  0
LINE
  5
5D2
  8
DRG
 62
     7
 10
160.04745823702251
 20
46.421288526219307
 30
0.0
 11
160.04745823702251
 21
45.21828747592599
 31
0.0
  0
LINE
  5
5D3
  8
DRG
 62
     7
 10
153.28023066635379
 20
57.06060729124669
 30
0.0
 11
159.0922846938046
 21
57.06060729124669
 31
0.0
  0
LINE
  5
5D4
  8
DRG
 62
     7
 10
142.11987082690661
 20
102.0369718403326
 30
0.0
 11
153.2899770207527
 21
102.0369718403326
 31
0.0
  0
ARC
  5
5D5
  8
DRG
 62
     7
 10
138.05101171535759
 20
85.569427875032716
 30
0.0
 40
8.0
 50
90.0
 51
180.0
  0
ARC
  5
5D6
  8
DRG
 62
     7
 10
-7.66193824129624
 20
81.496816718755667
 30
0.0
 40
123.62323904739679
 50
356.01116722839038
 51
3.9888327716095779
  0
ARC
  5
5D7
  8
DRG
 62
     7
 10
138.3127044990861
 20
91.844139685506775
 30
0.0
 40
10.2528691067876
 50
83.7965056449153
 51
143.68693404466879
  0
LINE
  5
5D8
  8
DRG
 62
     7
 10
119.0096173095521
 20
102.0369718403326
 30
0.0
 11
130.05101171535759
 21
102.0369718403326
 31
0.0
  0
LINE
  5
5D9
  8
DRG
 62
     7
 10
130.05101171535759
 20
97.915857504065855
 30
0.0
 11
130.05101171535759
 21
102.0369718403326
 31
0.0
  0
LINE
  5
5DA
  8
DRG
 62
     7
 10
139.4206293992797
 20
102.0369718403326
 30
0.0
 11
139.4206293992797
 21
93.569427875032716
 31
0.0
  0
LINE
  5
5DB
  8
DRG
 62
     7
 10
139.4206293992797
 20
93.569427875032716
 30
0.0
 11
138.05101171535759
 21
93.569427875032716
 31
0.0
  0
LINE
  5
5DC
  8
DRG
 62
     7
 10
153.2899770207527
 20
82.583583780839604
 30
0.0
 11
160.9346181585602
 21
102.0369718403326
 31
0.0
  0
LINE
  5
5DD
  8
DRG
 62
     7
 10
176.9709164189357
 20
78.31140447718235
 30
0.0
 11
176.9709164189357
 21
86.855763084496857
 31
0.0
  0
LINE
  5
5DE
  8
DRG
 62
     7
 10
176.9709164189357
 20
78.31140447718235
 30
0.0
 11
165.4162645291251
 21
78.31140447718235
 31
0.0
  0
LINE
  5
5DF
  8
DRG
 62
     7
 10
160.9346181585602
 20
102.0369718403326
 30
0.0
 11
171.38205787173379
 21
102.0369718403326
 31
0.0
  0
LINE
  5
5E0
  8
DRG
 62
     7
 10
165.4162645291251
 20
86.855763084496857
 30
0.0
 11
171.38205787173379
 21
102.0369718403326
 31
0.0
  0
LINE
  5
5E1
  8
DRG
 62
     7
 10
176.9709164189357
 20
86.855763084496857
 30
0.0
 11
165.4162645291251
 21
86.855763084496857
 31
0.0
  0
ENDBLK
  5
5E3
  8
0
  0
BLOCK
  8
0
  2
ROTORK_GEARS_LOGO
 70
     0
 10
0.0
 20
0.0
 30
0.0
  3
ROTORK_GEARS_LOGO
  1

  0
INSERT
  5
5E5
  8
0
  2
LOGO
 10
16.592937132437999
 20
3.1720898939720419
 30
0.0
  0
ENDBLK
  5
5E7
  8
0
  0
BLOCK
  8
0
  2
*U4
 70
     1
 10
0.0
 20
0.0
 30
0.0
  3
*U4
  1

  0
SOLID
  5
648
  8
DRG
  6
CONTINUOUS
 62
     7
 10
28.521311246702879
 20
3.7920749005575649
 30
0.0
 11
18.100585347853119
 21
3.392610111620797
 31
0.0
 12
25.69916102541524
 22
3.392610111620797
 32
0.0
 13
25.69916102541524
 23
3.392610111620797
 33
0.0
210
0.0
220
0.0
230
1.0
  0
SOLID
  5
649
  8
DRG
  6
CONTINUOUS
 62
     7
 10
15.253275093427559
 20
3.825466506601944
 30
0.0
 11
18.100585347853119
 21
3.392610111620797
 31
0.0
 12
28.521311246702879
 22
3.7920749005575649
 32
0.0
 13
28.521311246702879
 23
3.7920749005575649
 33
0.0
210
0.0
220
0.0
230
1.0
  0
SOLID
  5
64A
  8
DRG
  6
CONTINUOUS
 62
     7
 10
31.178312160316999
 20
4.8237968273226679
 30
0.0
 11
15.253275093427559
 21
3.825466506601944
 31
0.0
 12
28.521311246702879
 22
3.7920749005575649
 32
0.0
 13
28.521311246702879
 23
3.7920749005575649
 33
0.0
210
0.0
220
0.0
230
1.0
  0
SOLID
  5
64B
  8
DRG
  6
CONTINUOUS
 62
     7
 10
12.628832942518519
 20
5.011570945580659
 30
0.0
 11
15.253275093427559
 21
3.825466506601944
 31
0.0
 12
31.178312160316999
 22
4.8237968273226679
 32
0.0
 13
31.178312160316999
 23
4.8237968273226679
 33
0.0
  0
SOLID
  5
64C
  8
DRG
  6
CONTINUOUS
 62
     7
 10
33.5305051013693
 20
6.4335459870298406
 30
0.0
 11
12.628832942518519
 21
5.011570945580659
 31
0.0
 12
31.178312160316999
 22
4.8237968273226679
 32
0.0
 13
31.178312160316999
 23
4.8237968273226679
 33
0.0
210
0.0
220
0.0
230
1.0
  0
SOLID
  5
64D
  8
DRG
  6
CONTINUOUS
 62
     7
 10
10.42249809221936
 20
6.8626859803606264
 30
0.0
 11
12.628832942518519
 21
5.011570945580659
 31
0.0
 12
33.5305051013693
 22
6.4335459870298406
 32
0.0
 13
33.5305051013693
 23
6.4335459870298406
 33
0.0
210
0.0
220
0.0
230
1.0
  0
SOLID
  5
64E
  8
DRG
  6
CONTINUOUS
 62
     7
 10
35.454252880266083
 20
8.5367099065339431
 30
0.0
 11
10.42249809221936
 21
6.8626859803606264
 31
0.0
 12
33.5305051013693
 22
6.4335459870298406
 32
0.0
 13
33.5305051013693
 23
6.4335459870298406
 33
0.0
210
0.0
220
0.0
230
1.0
  0
SOLID
  5
64F
  8
DRG
  6
CONTINUOUS
 62
     7
 10
8.7984056310258474
 20
9.2411022645984033
 30
0.0
 11
10.42249809221936
 21
6.8626859803606264
 31
0.0
 12
35.454252880266083
 22
8.5367099065339431
 32
0.0
 13
35.454252880266083
 23
8.5367099065339431
 33
0.0
210
0.0
220
0.0
230
1.0
  0
SOLID
  5
650
  8
DRG
  6
CONTINUOUS
 62
     7
 10
23.40592258650463
 20
9.658646647821115
 30
0.0
 11
8.7984056310258474
 21
9.2411022645984033
 31
0.0
 12
35.454252880266083
 22
8.5367099065339431
 32
0.0
 13
35.454252880266083
 23
8.5367099065339431
 33
0.0
210
0.0
220
0.0
230
1.0
  0
SOLID
  5
651
  8
DRG
  6
CONTINUOUS
 62
     7
 10
21.928305576765752
 20
9.9525629453087276
 30
0.0
 11
8.7984056310258474
 21
9.2411022645984033
 31
0.0
 12
23.40592258650463
 22
9.658646647821115
 32
0.0
 13
23.40592258650463
 23
9.658646647821115
 33
0.0
210
0.0
220
0.0
230
1.0
  0
SOLID
  5
652
  8
DRG
  6
CONTINUOUS
 62
     7
 10
24.883539596243509
 20
9.9525629453087276
 30
0.0
 11
23.40592258650463
 21
9.658646647821115
 31
0.0
 12
35.454252880266083
 22
8.5367099065339431
 32
0.0
 13
35.454252880266083
 23
8.5367099065339431
 33
0.0
210
0.0
220
0.0
230
1.0
  0
SOLID
  5
653
  8
DRG
  6
CONTINUOUS
 62
     7
 10
20.675642362128059
 20
10.78956574583694
 30
0.0
 11
8.7984056310258474
 21
9.2411022645984033
 31
0.0
 12
21.928305576765752
 22
9.9525629453087276
 32
0.0
 13
21.928305576765752
 23
9.9525629453087276
 33
0.0
210
0.0
220
0.0
230
1.0
  0
SOLID
  5
654
  8
DRG
  6
CONTINUOUS
 62
     7
 10
26.136202810881191
 20
10.78956574583694
 30
0.0
 11
24.883539596243509
 21
9.9525629453087276
 31
0.0
 12
35.454252880266083
 22
8.5367099065339431
 32
0.0
 13
35.454252880266083
 23
8.5367099065339431
 33
0.0
210
0.0
220
0.0
230
1.0
  0
SOLID
  5
655
  8
DRG
  6
CONTINUOUS
 62
     7
 10
36.848438465016159
 20
11.022740989281949
 30
0.0
 11
26.136202810881191
 21
10.78956574583694
 31
0.0
 12
35.454252880266083
 22
8.5367099065339431
 32
0.0
 13
35.454252880266083
 23
8.5367099065339431
 33
0.0
210
0.0
220
0.0
230
1.0
  0
SOLID
  5
656
  8
DRG
  6
CONTINUOUS
 62
     7
 10
7.8773760952256326
 20
11.969883116520499
 30
0.0
 11
8.7984056310258474
 21
9.2411022645984033
 31
0.0
 12
20.675642362128059
 22
10.78956574583694
 32
0.0
 13
20.675642362128059
 23
10.78956574583694
 33
0.0
210
0.0
220
0.0
230
1.0
  0
SOLID
  5
657
  8
DRG
  6
CONTINUOUS
 62
     7
 10
19.838639561599841
 20
12.042228960474629
 30
0.0
 11
7.8773760952256326
 21
11.969883116520499
 31
0.0
 12
20.675642362128059
 22
10.78956574583694
 32
0.0
 13
20.675642362128059
 23
10.78956574583694
 33
0.0
210
0.0
220
0.0
230
1.0
  0
SOLID
  5
658
  8
DRG
  6
CONTINUOUS
 62
     7
 10
26.973205611409409
 20
12.042228960474629
 30
0.0
 11
26.136202810881191
 21
10.78956574583694
 31
0.0
 12
36.848438465016159
 22
11.022740989281949
 32
0.0
 13
36.848438465016159
 23
11.022740989281949
 33
0.0
210
0.0
220
0.0
230
1.0
  0
SOLID
  5
659
  8
DRG
  6
CONTINUOUS
 62
     7
 10
19.544723264112228
 20
13.51984597021351
 30
0.0
 11
7.8773760952256326
 21
11.969883116520499
 31
0.0
 12
19.838639561599841
 22
12.042228960474629
 32
0.0
 13
19.838639561599841
 23
12.042228960474629
 33
0.0
210
0.0
220
0.0
230
1.0
  0
SOLID
  5
65A
  8
DRG
  6
CONTINUOUS
 62
     7
 10
27.267121908897021
 20
13.51984597021351
 30
0.0
 11
26.973205611409409
 21
12.042228960474629
 31
0.0
 12
36.848438465016159
 22
11.022740989281949
 32
0.0
 13
36.848438465016159
 23
11.022740989281949
 33
0.0
210
0.0
220
0.0
230
1.0
  0
SOLID
  5
65B
  8
DRG
  6
CONTINUOUS
 62
     7
 10
37.639779947293839
 20
13.760967175618781
 30
0.0
 11
27.267121908897021
 21
13.51984597021351
 31
0.0
 12
36.848438465016159
 22
11.022740989281949
 32
0.0
 13
36.848438465016159
 23
11.022740989281949
 33
0.0
  0
SOLID
  5
65C
  8
DRG
  6
CONTINUOUS
 62
     7
 10
19.544723264112228
 20
13.51984597021351
 30
0.0
 11
19.544723264112239
 21
14.846027306936771
 31
0.0
 12
7.7279273094568479
 22
14.846027306936771
 32
0.0
 13
7.7279273094568479
 23
14.846027306936771
 33
0.0
210
0.0
220
0.0
230
1.0
  0
SOLID
  5
65D
  8
DRG
  6
CONTINUOUS
 62
     7
 10
7.7279273094568479
 20
14.846027306936771
 30
0.0
 11
7.8773760952256326
 21
11.969883116520499
 31
0.0
 12
19.544723264112228
 22
13.51984597021351
 32
0.0
 13
19.544723264112228
 23
13.51984597021351
 33
0.0
210
0.0
220
0.0
230
1.0
  0
SOLID
  5
65E
  8
DRG
  6
CONTINUOUS
 62
     7
 10
53.362653852858138
 20
16.270527409201652
 30
0.0
 11
56.468482394088369
 21
15.861637324670481
 31
0.0
 12
62.280536421539182
 22
15.861637324670481
 32
0.0
 13
62.280536421539182
 23
15.861637324670481
 33
0.0
210
0.0
220
0.0
230
1.0
  0
SOLID
  5
65F
  8
DRG
  6
CONTINUOUS
 62
     7
 10
65.386364962769434
 20
16.270527409201659
 30
0.0
 11
53.362653852858138
 21
16.270527409201652
 31
0.0
 12
62.280536421539182
 22
15.861637324670481
 32
0.0
 13
62.280536421539182
 23
15.861637324670481
 33
0.0
210
0.0
220
0.0
230
1.0
  0
SOLID
  5
660
  8
DRG
  6
CONTINUOUS
 62
     7
 10
162.1981132350349
 20
16.270527409201659
 30
0.0
 11
153.28023066635379
 21
15.861637324670481
 31
0.0
 12
159.0922846938046
 22
15.861637324670481
 32
0.0
 13
159.0922846938046
 23
15.861637324670481
 33
0.0
210
0.0
220
0.0
230
1.0
  0
SOLID
  5
661
  8
DRG
  6
CONTINUOUS
 62
     7
 10
150.17440212512361
 20
16.270527409201659
 30
0.0
 11
153.28023066635379
 21
15.861637324670481
 31
0.0
 12
162.1981132350349
 22
16.270527409201659
 32
0.0
 13
162.1981132350349
 23
16.270527409201659
 33
0.0
210
0.0
220
0.0
230
1.0
  0
SOLID
  5
662
  8
DRG
  6
CONTINUOUS
 62
     7
 10
50.468482394088412
 20
17.469332479257179
 30
0.0
 11
53.362653852858138
 21
16.270527409201652
 31
0.0
 12
65.386364962769434
 22
16.270527409201659
 32
0.0
 13
65.386364962769434
 23
16.270527409201659
 33
0.0
210
0.0
220
0.0
230
1.0
  0
SOLID
  5
663
  8
DRG
  6
CONTINUOUS
 62
     7
 10
165.0922846938046
 20
17.469332479257218
 30
0.0
 11
150.17440212512361
 21
16.270527409201659
 31
0.0
 12
162.1981132350349
 22
16.270527409201659
 32
0.0
 13
162.1981132350349
 23
16.270527409201659
 33
0.0
210
0.0
220
0.0
230
1.0
  0
SOLID
  5
664
  8
DRG
  6
CONTINUOUS
 62
     7
 10
68.280536421539182
 20
17.469332479257218
 30
0.0
 11
50.468482394088412
 21
17.469332479257179
 31
0.0
 12
65.386364962769434
 22
16.270527409201659
 32
0.0
 13
65.386364962769434
 23
16.270527409201659
 33
0.0
210
0.0
220
0.0
230
1.0
  0
SOLID
  5
665
  8
DRG
  6
CONTINUOUS
 62
     7
 10
147.28023066635379
 20
17.469332479257218
 30
0.0
 11
150.17440212512361
 21
16.270527409201659
 31
0.0
 12
165.0922846938046
 22
17.469332479257218
 32
0.0
 13
165.0922846938046
 23
17.469332479257218
 33
0.0
210
0.0
220
0.0
230
1.0
  0
SOLID
  5
666
  8
DRG
  6
CONTINUOUS
 62
     7
 10
87.597152072902304
 20
17.71482672944132
 30
0.0
 11
90.043755964704772
 21
17.09444119032354
 31
0.0
 12
92.567432060215296
 22
17.13695925093587
 32
0.0
 13
92.567432060215296
 23
17.13695925093587
 33
0.0
210
0.0
220
0.0
230
1.0
  0
SOLID
  5
667
  8
DRG
  6
CONTINUOUS
 62
     7
 10
94.991749269489972
 20
17.839408458597301
 30
0.0
 11
87.597152072902304
 21
17.71482672944132
 31
0.0
 12
92.567432060215296
 22
17.13695925093587
 32
0.0
 13
92.567432060215296
 23
17.13695925093587
 33
0.0
210
0.0
220
0.0
230
1.0
  0
SOLID
  5
668
  8
DRG
  6
CONTINUOUS
 62
     7
 10
85.398663329684837
 20
18.95474449545469
 30
0.0
 11
87.597152072902304
 21
17.71482672944132
 31
0.0
 12
94.991749269489972
 22
17.839408458597301
 32
0.0
 13
94.991749269489972
 23
17.839408458597301
 33
0.0
210
0.0
220
0.0
230
1.0
  0
SOLID
  5
669
  8
DRG
  6
CONTINUOUS
 62
     7
 10
97.893803852853168
 20
19.013301104321851
 30
0.0
 11
85.398663329684837
 21
18.95474449545469
 31
0.0
 12
94.991749269489972
 22
17.839408458597301
 32
0.0
 13
94.991749269489972
 23
17.839408458597301
 33
0.0
210
0.0
220
0.0
230
1.0
  0
SOLID
  5
66A
  8
DRG
  6
CONTINUOUS
 62
     7
 10
47.983201019849858
 20
19.37635595043184
 30
0.0
 11
50.468482394088412
 21
17.469332479257179
 31
0.0
 12
68.280536421539182
 22
17.469332479257218
 32
0.0
 13
68.280536421539182
 23
17.469332479257218
 33
0.0
  0
SOLID
  5
66B
  8
DRG
  6
CONTINUOUS
 62
     7
 10
70.76581779577775
 20
19.376355950431911
 30
0.0
 11
47.983201019849858
 21
19.37635595043184
 31
0.0
 12
68.280536421539182
 22
17.469332479257218
 32
0.0
 13
68.280536421539182
 23
17.469332479257218
 33
0.0
210
0.0
220
0.0
230
1.0
  0
SOLID
  5
66C
  8
DRG
  6
CONTINUOUS
 62
     7
 10
167.57756606804321
 20
19.376355950431911
 30
0.0
 11
147.28023066635379
 21
17.469332479257218
 31
0.0
 12
165.0922846938046
 22
17.469332479257218
 32
0.0
 13
165.0922846938046
 23
17.469332479257218
 33
0.0
210
0.0
220
0.0
230
1.0
  0
SOLID
  5
66D
  8
DRG
  6
CONTINUOUS
 62
     7
 10
144.79494929211521
 20
19.376355950431911
 30
0.0
 11
147.28023066635379
 21
17.469332479257218
 31
0.0
 12
167.57756606804321
 22
19.376355950431911
 32
0.0
 13
167.57756606804321
 23
19.376355950431911
 33
0.0
210
0.0
220
0.0
230
1.0
  0
SOLID
  5
66E
  8
DRG
  6
CONTINUOUS
 62
     7
 10
15.68821754148445
 20
19.434178489748358
 30
0.0
 11
18.58303542025671
 21
18.945146626805109
 31
0.0
 12
20.932030560438331
 22
19.29078972041172
 32
0.0
 13
20.932030560438331
 23
19.29078972041172
 33
0.0
210
0.0
220
0.0
230
1.0
  0
SOLID
  5
66F
  8
DRG
  6
CONTINUOUS
 62
     7
 10
102.3181837587821
 20
19.484710699009419
 30
0.0
 11
102.6710305977499
 21
17.89352120355198
 31
0.0
 12
111.8021775281067
 22
17.893521203552009
 32
0.0
 13
111.8021775281067
 23
17.893521203552009
 33
0.0
210
0.0
220
0.0
230
1.0
  0
SOLID
  5
670
  8
DRG
  6
CONTINUOUS
 62
     7
 10
23.111648298363178
 20
20.232338356053141
 30
0.0
 11
15.68821754148445
 21
19.434178489748358
 31
0.0
 12
20.932030560438331
 22
19.29078972041172
 32
0.0
 13
20.932030560438331
 23
19.29078972041172
 33
0.0
210
0.0
220
0.0
230
1.0
  0
SOLID
  5
671
  8
DRG
  6
CONTINUOUS
 62
     7
 10
12.996201983781489
 20
20.605577205523002
 30
0.0
 11
15.68821754148445
 21
19.434178489748358
 31
0.0
 12
23.111648298363178
 22
20.232338356053141
 32
0.0
 13
23.111648298363178
 23
20.232338356053141
 33
0.0
210
0.0
220
0.0
230
1.0
  0
SOLID
  5
672
  8
DRG
  6
CONTINUOUS
 62
     7
 10
111.2870334115631
 20
20.69438210209054
 30
0.0
 11
102.3181837587821
 21
19.484710699009419
 31
0.0
 12
111.8021775281067
 22
17.893521203552009
 32
0.0
 13
111.8021775281067
 23
17.893521203552009
 33
0.0
210
0.0
220
0.0
230
1.0
  0
SOLID
  5
673
  8
DRG
  6
CONTINUOUS
 62
     7
 10
100.3384587128772
 20
20.968705759084241
 30
0.0
 11
85.398663329684837
 21
18.95474449545469
 31
0.0
 12
97.893803852853168
 22
19.013301104321851
 32
0.0
 13
97.893803852853168
 23
19.013301104321851
 33
0.0
210
0.0
220
0.0
230
1.0
  0
SOLID
  5
674
  8
DRG
  6
CONTINUOUS
 62
     7
 10
102.1211660476033
 20
21.102600968374279
 30
0.0
 11
102.3181837587821
 21
19.484710699009419
 31
0.0
 12
111.2870334115631
 22
20.69438210209054
 32
0.0
 13
111.2870334115631
 23
20.69438210209054
 33
0.0
210
0.0
220
0.0
230
1.0
  0
SOLID
  5
675
  8
DRG
  6
CONTINUOUS
 62
     7
 10
83.257964350277348
 20
21.51176514689509
 30
0.0
 11
85.398663329684837
 21
18.95474449545469
 31
0.0
 12
100.3384587128772
 22
20.968705759084241
 32
0.0
 13
100.3384587128772
 23
20.968705759084241
 33
0.0
210
0.0
220
0.0
230
1.0
  0
SOLID
  5
676
  8
DRG
  6
CONTINUOUS
 62
     7
 10
24.97349704072932
 20
21.705690512635009
 30
0.0
 11
12.996201983781489
 21
20.605577205523002
 31
0.0
 12
23.111648298363178
 22
20.232338356053141
 32
0.0
 13
23.111648298363178
 23
20.232338356053141
 33
0.0
210
0.0
220
0.0
230
1.0
  0
SOLID
  5
677
  8
DRG
  6
CONTINUOUS
 62
     7
 10
46.076177548675162
 20
21.861637324670369
 30
0.0
 11
47.983201019849858
 21
19.37635595043184
 31
0.0
 12
70.76581779577775
 22
19.376355950431911
 32
0.0
 13
70.76581779577775
 23
19.376355950431911
 33
0.0
210
0.0
220
0.0
230
1.0
  0
SOLID
  5
678
  8
DRG
  6
CONTINUOUS
 62
     7
 10
169.48458953921789
 20
21.861637324670468
 30
0.0
 11
144.79494929211521
 21
19.376355950431911
 31
0.0
 12
167.57756606804321
 22
19.376355950431911
 32
0.0
 13
167.57756606804321
 23
19.376355950431911
 33
0.0
  0
SOLID
  5
679
  8
DRG
  6
CONTINUOUS
 62
     7
 10
72.672841266952446
 20
21.861637324670468
 30
0.0
 11
46.076177548675162
 21
21.861637324670369
 31
0.0
 12
70.76581779577775
 22
19.376355950431911
 32
0.0
 13
70.76581779577775
 23
19.376355950431911
 33
0.0
  0
SOLID
  5
67A
  8
DRG
  6
CONTINUOUS
 62
     7
 10
142.88792582094061
 20
21.861637324670479
 30
0.0
 11
144.79494929211521
 21
19.376355950431911
 31
0.0
 12
169.48458953921789
 22
21.861637324670468
 32
0.0
 13
169.48458953921789
 23
21.861637324670468
 33
0.0
  0
SOLID
  5
67B
  8
DRG
  6
CONTINUOUS
 62
     7
 10
10.665263297999569
 20
22.390471476161601
 30
0.0
 11
12.996201983781489
 21
20.605577205523002
 31
0.0
 12
24.97349704072932
 22
21.705690512635009
 32
0.0
 13
24.97349704072932
 23
21.705690512635009
 33
0.0
210
0.0
220
0.0
230
1.0
  0
SOLID
  5
67C
  8
DRG
  6
CONTINUOUS
 62
     7
 10
111.2523129779601
 20
23.54201089202471
 30
0.0
 11
102.1211660476033
 21
21.102600968374279
 31
0.0
 12
111.2870334115631
 22
20.69438210209054
 32
0.0
 13
111.2870334115631
 23
20.69438210209054
 33
0.0
210
0.0
220
0.0
230
1.0
  0
SOLID
  5
67D
  8
DRG
  6
CONTINUOUS
 62
     7
 10
102.1211660476033
 20
23.542010892025001
 30
0.0
 11
83.257964350277348
 21
21.51176514689509
 31
0.0
 12
100.3384587128772
 22
20.968705759084241
 32
0.0
 13
100.3384587128772
 23
20.968705759084241
 33
0.0
210
0.0
220
0.0
230
1.0
  0
SOLID
  5
67E
  8
DRG
  6
CONTINUOUS
 62
     7
 10
102.1211660476033
 20
23.542010892025001
 30
0.0
 11
102.1211660476033
 21
21.102600968374279
 31
0.0
 12
111.2523129779601
 22
23.54201089202471
 32
0.0
 13
111.2523129779601
 23
23.54201089202471
 33
0.0
210
0.0
220
0.0
230
1.0
  0
SOLID
  5
67F
  8
DRG
  6
CONTINUOUS
 62
     7
 10
26.390819376565261
 20
23.61053820027184
 30
0.0
 11
10.665263297999569
 21
22.390471476161601
 31
0.0
 12
24.97349704072932
 22
21.705690512635009
 32
0.0
 13
24.97349704072932
 23
21.705690512635009
 33
0.0
210
0.0
220
0.0
230
1.0
  0
SOLID
  5
680
  8
DRG
  6
CONTINUOUS
 62
     7
 10
95.863486513980718
 20
23.758749615986972
 30
0.0
 11
102.1211660476033
 21
23.542010892025001
 31
0.0
 12
111.2523129779601
 22
23.54201089202471
 32
0.0
 13
111.2523129779601
 23
23.54201089202471
 33
0.0
210
0.0
220
0.0
230
1.0
  0
SOLID
  5
681
  8
DRG
  6
CONTINUOUS
 62
     7
 10
95.863486513980718
 20
23.758749615986972
 30
0.0
 11
83.257964350277348
 21
21.51176514689509
 31
0.0
 12
102.1211660476033
 22
23.542010892025001
 32
0.0
 13
102.1211660476033
 23
23.542010892025001
 33
0.0
210
0.0
220
0.0
230
1.0
  0
SOLID
  5
682
  8
DRG
  6
CONTINUOUS
 62
     7
 10
156.18625891463009
 20
23.758749615986972
 30
0.0
 11
142.88792582094061
 21
21.861637324670479
 31
0.0
 12
169.48458953921789
 22
21.861637324670468
 32
0.0
 13
169.48458953921789
 23
21.861637324670468
 33
0.0
210
0.0
220
0.0
230
1.0
  0
SOLID
  5
683
  8
DRG
  6
CONTINUOUS
 62
     7
 10
59.374510642364612
 20
23.758749615986979
 30
0.0
 11
46.076177548675162
 21
21.861637324670369
 31
0.0
 12
72.672841266952446
 22
21.861637324670468
 32
0.0
 13
72.672841266952446
 23
21.861637324670468
 33
0.0
210
0.0
220
0.0
230
1.0
  0
SOLID
  5
684
  8
DRG
  6
CONTINUOUS
 62
     7
 10
154.70864190489121
 20
24.052665913474581
 30
0.0
 11
142.88792582094061
 21
21.861637324670479
 31
0.0
 12
156.18625891463009
 22
23.758749615986972
 32
0.0
 13
156.18625891463009
 23
23.758749615986972
 33
0.0
210
0.0
220
0.0
230
1.0
  0
SOLID
  5
685
  8
DRG
  6
CONTINUOUS
 62
     7
 10
157.66387592436891
 20
24.052665913474581
 30
0.0
 11
156.18625891463009
 21
23.758749615986972
 31
0.0
 12
169.48458953921789
 22
21.861637324670468
 32
0.0
 13
169.48458953921789
 23
21.861637324670468
 33
0.0
  0
SOLID
  5
686
  8
DRG
  6
CONTINUOUS
 62
     7
 10
57.896893632625734
 20
24.052665913474591
 30
0.0
 11
46.076177548675162
 21
21.861637324670369
 31
0.0
 12
59.374510642364612
 22
23.758749615986979
 32
0.0
 13
59.374510642364612
 23
23.758749615986979
 33
0.0
210
0.0
220
0.0
230
1.0
  0
SOLID
  5
687
  8
DRG
  6
CONTINUOUS
 62
     7
 10
60.852127652103491
 20
24.052665913474591
 30
0.0
 11
59.374510642364612
 21
23.758749615986979
 31
0.0
 12
72.672841266952446
 22
21.861637324670468
 32
0.0
 13
72.672841266952446
 23
21.861637324670468
 33
0.0
210
0.0
220
0.0
230
1.0
  0
SOLID
  5
688
  8
DRG
  6
CONTINUOUS
 62
     7
 10
94.385869504241896
 20
24.05266591347463
 30
0.0
 11
83.257964350277348
 21
21.51176514689509
 31
0.0
 12
95.863486513980718
 22
23.758749615986972
 32
0.0
 13
95.863486513980718
 23
23.758749615986972
 33
0.0
210
0.0
220
0.0
230
1.0
  0
SOLID
  5
689
  8
DRG
  6
CONTINUOUS
 62
     7
 10
97.67821582604607
 20
24.148284466582719
 30
0.0
 11
95.863486513980718
 21
23.758749615986972
 31
0.0
 12
111.2523129779601
 22
23.54201089202471
 32
0.0
 13
111.2523129779601
 23
23.54201089202471
 33
0.0
210
0.0
220
0.0
230
1.0
  0
SOLID
  5
68A
  8
DRG
  6
CONTINUOUS
 62
     7
 10
81.903631731023069
 20
24.55917878615589
 30
0.0
 11
83.257964350277348
 21
21.51176514689509
 31
0.0
 12
94.385869504241896
 22
24.05266591347463
 32
0.0
 13
94.385869504241896
 23
24.05266591347463
 33
0.0
  0
SOLID
  5
68B
  8
DRG
  6
CONTINUOUS
 62
     7
 10
8.8324468561460741
 20
24.6839201031652
 30
0.0
 11
10.665263297999569
 21
22.390471476161601
 31
0.0
 12
26.390819376565261
 22
23.61053820027184
 32
0.0
 13
26.390819376565261
 23
23.61053820027184
 33
0.0
210
0.0
220
0.0
230
1.0
  0
SOLID
  5
68C
  8
DRG
  6
CONTINUOUS
 62
     7
 10
44.877372478619591
 20
24.755808783440081
 30
0.0
 11
46.076177548675162
 21
21.861637324670369
 31
0.0
 12
57.896893632625734
 22
24.052665913474591
 32
0.0
 13
57.896893632625734
 23
24.052665913474591
 33
0.0
210
0.0
220
0.0
230
1.0
  0
SOLID
  5
68D
  8
DRG
  6
CONTINUOUS
 62
     7
 10
170.68339460927351
 20
24.75580878344023
 30
0.0
 11
157.66387592436891
 21
24.052665913474581
 31
0.0
 12
169.48458953921789
 22
21.861637324670468
 32
0.0
 13
169.48458953921789
 23
21.861637324670468
 33
0.0
210
0.0
220
0.0
230
1.0
  0
SOLID
  5
68E
  8
DRG
  6
CONTINUOUS
 62
     7
 10
73.871646337008002
 20
24.75580878344023
 30
0.0
 11
60.852127652103491
 21
24.052665913474591
 31
0.0
 12
72.672841266952446
 22
21.861637324670468
 32
0.0
 13
72.672841266952446
 23
21.861637324670468
 33
0.0
210
0.0
220
0.0
230
1.0
  0
SOLID
  5
68F
  8
DRG
  6
CONTINUOUS
 62
     7
 10
141.689120750885
 20
24.75580878344023
 30
0.0
 11
142.88792582094061
 21
21.861637324670479
 31
0.0
 12
154.70864190489121
 22
24.052665913474581
 32
0.0
 13
154.70864190489121
 23
24.052665913474581
 33
0.0
210
0.0
220
0.0
230
1.0
  0
SOLID
  5
690
  8
DRG
  6
CONTINUOUS
 62
     7
 10
153.45597869025349
 20
24.889668714002799
 30
0.0
 11
141.689120750885
 21
24.75580878344023
 31
0.0
 12
154.70864190489121
 22
24.052665913474581
 32
0.0
 13
154.70864190489121
 23
24.052665913474581
 33
0.0
210
0.0
220
0.0
230
1.0
  0
SOLID
  5
691
  8
DRG
  6
CONTINUOUS
 62
     7
 10
158.9165391390066
 20
24.889668714002799
 30
0.0
 11
157.66387592436891
 21
24.052665913474581
 31
0.0
 12
170.68339460927351
 22
24.75580878344023
 32
0.0
 13
170.68339460927351
 23
24.75580878344023
 33
0.0
210
0.0
220
0.0
230
1.0
  0
SOLID
  5
692
  8
DRG
  6
CONTINUOUS
 62
     7
 10
56.644230417988048
 20
24.889668714002809
 30
0.0
 11
44.877372478619591
 21
24.755808783440081
 31
0.0
 12
57.896893632625734
 22
24.052665913474591
 32
0.0
 13
57.896893632625734
 23
24.052665913474591
 33
0.0
210
0.0
220
0.0
230
1.0
  0
SOLID
  5
693
  8
DRG
  6
CONTINUOUS
 62
     7
 10
62.104790866741169
 20
24.889668714002809
 30
0.0
 11
60.852127652103491
 21
24.052665913474591
 31
0.0
 12
73.871646337008002
 22
24.75580878344023
 32
0.0
 13
73.871646337008002
 23
24.75580878344023
 33
0.0
210
0.0
220
0.0
230
1.0
  0
SOLID
  5
694
  8
DRG
  6
CONTINUOUS
 62
     7
 10
93.13320628960426
 20
24.889668714002859
 30
0.0
 11
81.903631731023069
 21
24.55917878615589
 31
0.0
 12
94.385869504241896
 22
24.05266591347463
 32
0.0
 13
94.385869504241896
 23
24.05266591347463
 33
0.0
210
0.0
220
0.0
230
1.0
  0
SOLID
  5
695
  8
DRG
  6
CONTINUOUS
 62
     7
 10
99.286329246363479
 20
25.075080616387432
 30
0.0
 11
97.67821582604607
 21
24.148284466582719
 31
0.0
 12
111.2523129779601
 22
23.54201089202471
 32
0.0
 13
111.2523129779601
 23
23.54201089202471
 33
0.0
210
0.0
220
0.0
230
1.0
  0
SOLID
  5
696
  8
DRG
  6
CONTINUOUS
 62
     7
 10
22.683854862926161
 20
25.455509253088579
 30
0.0
 11
8.8324468561460741
 21
24.6839201031652
 31
0.0
 12
26.390819376565261
 22
23.61053820027184
 32
0.0
 13
26.390819376565261
 23
23.61053820027184
 33
0.0
210
0.0
220
0.0
230
1.0
  0
SOLID
  5
697
  8
DRG
  6
CONTINUOUS
 62
     7
 10
20.670542050473411
 20
25.799933828790859
 30
0.0
 11
8.8324468561460741
 21
24.6839201031652
 31
0.0
 12
22.683854862926161
 22
25.455509253088579
 32
0.0
 13
22.683854862926161
 23
25.455509253088579
 33
0.0
210
0.0
220
0.0
230
1.0
  0
SOLID
  5
698
  8
DRG
  6
CONTINUOUS
 62
     7
 10
27.267121908897021
 20
25.817196576320061
 30
0.0
 11
22.683854862926161
 21
25.455509253088579
 31
0.0
 12
26.390819376565261
 22
23.61053820027184
 32
0.0
 13
26.390819376565261
 23
23.61053820027184
 33
0.0
210
0.0
220
0.0
230
1.0
  0
SOLID
  5
699
  8
DRG
  6
CONTINUOUS
 62
     7
 10
27.267121908897021
 20
25.817196576320061
 30
0.0
 11
27.267121908897021
 21
13.51984597021351
 31
0.0
 12
37.639779947293839
 22
13.760967175618781
 32
0.0
 13
37.639779947293839
 23
13.760967175618781
 33
0.0
  0
SOLID
  5
69A
  8
DRG
  6
CONTINUOUS
 62
     7
 10
152.61897588972531
 20
26.14233192864048
 30
0.0
 11
141.689120750885
 21
24.75580878344023
 31
0.0
 12
153.45597869025349
 22
24.889668714002799
 32
0.0
 13
153.45597869025349
 23
24.889668714002799
 33
0.0
  0
SOLID
  5
69B
  8
DRG
  6
CONTINUOUS
 62
     7
 10
159.7535419395349
 20
26.14233192864048
 30
0.0
 11
158.9165391390066
 21
24.889668714002799
 31
0.0
 12
170.68339460927351
 22
24.75580878344023
 32
0.0
 13
170.68339460927351
 23
24.75580878344023
 33
0.0
  0
SOLID
  5
69C
  8
DRG
  6
CONTINUOUS
 62
     7
 10
55.80722761745983
 20
26.142331928640491
 30
0.0
 11
44.877372478619591
 21
24.755808783440081
 31
0.0
 12
56.644230417988048
 22
24.889668714002809
 32
0.0
 13
56.644230417988048
 23
24.889668714002809
 33
0.0
210
0.0
220
0.0
230
1.0
  0
SOLID
  5
69D
  8
DRG
  6
CONTINUOUS
 62
     7
 10
62.941793667269401
 20
26.142331928640491
 30
0.0
 11
62.104790866741169
 21
24.889668714002809
 31
0.0
 12
73.871646337008002
 22
24.75580878344023
 32
0.0
 13
73.871646337008002
 23
24.75580878344023
 33
0.0
210
0.0
220
0.0
230
1.0
  0
SOLID
  5
69E
  8
DRG
  6
CONTINUOUS
 62
     7
 10
92.296203489076092
 20
26.14233192864052
 30
0.0
 11
81.903631731023069
 21
24.55917878615589
 31
0.0
 12
93.13320628960426
 22
24.889668714002859
 32
0.0
 13
93.13320628960426
 23
24.889668714002859
 33
0.0
210
0.0
220
0.0
230
1.0
  0
SOLID
  5
69F
  8
DRG
  6
CONTINUOUS
 62
     7
 10
24.679246464695101
 20
26.372355404399901
 30
0.0
 11
22.683854862926161
 21
25.455509253088579
 31
0.0
 12
27.267121908897021
 22
25.817196576320061
 32
0.0
 13
27.267121908897021
 23
25.817196576320061
 33
0.0
210
0.0
220
0.0
230
1.0
  0
SOLID
  5
6A0
  8
DRG
  6
CONTINUOUS
 62
     7
 10
100.5331576485324
 20
26.449998363542679
 30
0.0
 11
99.286329246363479
 21
25.075080616387432
 31
0.0
 12
111.2523129779601
 22
23.54201089202471
 32
0.0
 13
111.2523129779601
 23
23.54201089202471
 33
0.0
  0
SOLID
  5
6A1
  8
DRG
  6
CONTINUOUS
 62
     7
 10
18.936680407078839
 20
26.87964701788286
 30
0.0
 11
8.8324468561460741
 21
24.6839201031652
 31
0.0
 12
20.670542050473411
 22
25.799933828790859
 32
0.0
 13
20.670542050473411
 23
25.799933828790859
 33
0.0
210
0.0
220
0.0
230
1.0
  0
SOLID
  5
6A2
  8
DRG
  6
CONTINUOUS
 62
     7
 10
7.6055113962037586
 20
27.351081907662518
 30
0.0
 11
8.8324468561460741
 21
24.6839201031652
 31
0.0
 12
18.936680407078839
 22
26.87964701788286
 32
0.0
 13
18.936680407078839
 23
26.87964701788286
 33
0.0
210
0.0
220
0.0
230
1.0
  0
SOLID
  5
6A3
  8
DRG
  6
CONTINUOUS
 62
     7
 10
152.32505959223769
 20
27.619948938379359
 30
0.0
 11
141.689120750885
 21
24.75580878344023
 31
0.0
 12
152.61897588972531
 22
26.14233192864048
 32
0.0
 13
152.61897588972531
 23
26.14233192864048
 33
0.0
210
0.0
220
0.0
230
1.0
  0
SOLID
  5
6A4
  8
DRG
  6
CONTINUOUS
 62
     7
 10
92.002287191588479
 20
27.619948938379359
 30
0.0
 11
81.903631731023069
 21
24.55917878615589
 31
0.0
 12
92.296203489076092
 22
26.14233192864052
 32
0.0
 13
92.296203489076092
 23
26.14233192864052
 33
0.0
210
0.0
220
0.0
230
1.0
  0
SOLID
  5
6A5
  8
DRG
  6
CONTINUOUS
 62
     7
 10
160.04745823702251
 20
27.619948938379359
 30
0.0
 11
159.7535419395349
 21
26.14233192864048
 31
0.0
 12
170.68339460927351
 22
24.75580878344023
 32
0.0
 13
170.68339460927351
 23
24.75580878344023
 33
0.0
210
0.0
220
0.0
230
1.0
  0
SOLID
  5
6A6
  8
DRG
  6
CONTINUOUS
 62
     7
 10
55.513311319972217
 20
27.61994893837937
 30
0.0
 11
44.877372478619591
 21
24.755808783440081
 31
0.0
 12
55.80722761745983
 22
26.142331928640491
 32
0.0
 13
55.80722761745983
 23
26.142331928640491
 33
0.0
210
0.0
220
0.0
230
1.0
  0
SOLID
  5
6A7
  8
DRG
  6
CONTINUOUS
 62
     7
 10
63.235709964757007
 20
27.61994893837937
 30
0.0
 11
62.941793667269401
 21
26.142331928640491
 31
0.0
 12
73.871646337008002
 22
24.75580878344023
 32
0.0
 13
73.871646337008002
 23
24.75580878344023
 33
0.0
210
0.0
220
0.0
230
1.0
  0
SOLID
  5
6A8
  8
DRG
  6
CONTINUOUS
 62
     7
 10
44.468482394088362
 20
27.861637324670291
 30
0.0
 11
44.877372478619591
 21
24.755808783440081
 31
0.0
 12
55.513311319972217
 22
27.61994893837937
 32
0.0
 13
55.513311319972217
 23
27.61994893837937
 33
0.0
210
0.0
220
0.0
230
1.0
  0
SOLID
  5
6A9
  8
DRG
  6
CONTINUOUS
 62
     7
 10
171.0922846938046
 20
27.861637324670479
 30
0.0
 11
160.04745823702251
 21
27.619948938379359
 31
0.0
 12
170.68339460927351
 22
24.75580878344023
 32
0.0
 13
170.68339460927351
 23
24.75580878344023
 33
0.0
210
0.0
220
0.0
230
1.0
  0
SOLID
  5
6AA
  8
DRG
  6
CONTINUOUS
 62
     7
 10
74.280536421539182
 20
27.861637324670479
 30
0.0
 11
63.235709964757007
 21
27.61994893837937
 31
0.0
 12
73.871646337008002
 22
24.75580878344023
 32
0.0
 13
73.871646337008002
 23
24.75580878344023
 33
0.0
210
0.0
220
0.0
230
1.0
  0
SOLID
  5
6AB
  8
DRG
  6
CONTINUOUS
 62
     7
 10
81.440258950509346
 20
27.861637324670479
 30
0.0
 11
81.903631731023069
 21
24.55917878615589
 31
0.0
 12
92.002287191588479
 22
27.619948938379359
 32
0.0
 13
92.002287191588479
 23
27.619948938379359
 33
0.0
210
0.0
220
0.0
230
1.0
  0
SOLID
  5
6AC
  8
DRG
  6
CONTINUOUS
 62
     7
 10
141.28023066635379
 20
27.861637324670479
 30
0.0
 11
141.689120750885
 21
24.75580878344023
 31
0.0
 12
152.32505959223769
 22
27.619948938379359
 32
0.0
 13
152.32505959223769
 23
27.619948938379359
 33
0.0
210
0.0
220
0.0
230
1.0
  0
SOLID
  5
6AD
  8
DRG
  6
CONTINUOUS
 62
     7
 10
26.241246459003619
 20
27.915841888747771
 30
0.0
 11
24.679246464695101
 21
26.372355404399901
 31
0.0
 12
27.267121908897021
 22
25.817196576320061
 32
0.0
 13
27.267121908897021
 23
25.817196576320061
 33
0.0
210
0.0
220
0.0
230
1.0
  0
SOLID
  5
6AE
  8
DRG
  6
CONTINUOUS
 62
     7
 10
26.241246459003619
 20
27.915841888747771
 30
0.0
 11
27.267121908897021
 21
25.817196576320061
 31
0.0
 12
37.639779947293839
 22
13.760967175618781
 32
0.0
 13
37.639779947293839
 23
13.760967175618781
 33
0.0
210
0.0
220
0.0
230
1.0
  0
SOLID
  5
6AF
  8
DRG
  6
CONTINUOUS
 62
     7
 10
101.2987804739044
 20
28.140797454259019
 30
0.0
 11
100.5331576485324
 21
26.449998363542679
 31
0.0
 12
111.2523129779601
 22
23.54201089202471
 32
0.0
 13
111.2523129779601
 23
23.54201089202471
 33
0.0
210
0.0
220
0.0
230
1.0
  0
SOLID
  5
6B0
  8
DRG
  6
CONTINUOUS
 62
     7
 10
17.73941253697517
 20
28.534520552734239
 30
0.0
 11
7.6055113962037586
 21
27.351081907662518
 31
0.0
 12
18.936680407078839
 22
26.87964701788286
 32
0.0
 13
18.936680407078839
 23
26.87964701788286
 33
0.0
210
0.0
220
0.0
230
1.0
  0
SOLID
  5
6B1
  8
DRG
  6
CONTINUOUS
 62
     7
 10
160.04745823702251
 20
29.300230626583549
 30
0.0
 11
160.04745823702251
 21
27.619948938379359
 31
0.0
 12
171.0922846938046
 22
27.861637324670479
 32
0.0
 13
171.0922846938046
 23
27.861637324670479
 33
0.0
210
0.0
220
0.0
230
1.0
  0
SOLID
  5
6B2
  8
DRG
  6
CONTINUOUS
 62
     7
 10
27.181817847379151
 20
29.900160404751109
 30
0.0
 11
26.241246459003619
 21
27.915841888747771
 31
0.0
 12
37.639779947293839
 22
13.760967175618781
 32
0.0
 13
37.639779947293839
 23
13.760967175618781
 33
0.0
210
0.0
220
0.0
230
1.0
  0
SOLID
  5
6B3
  8
DRG
  6
CONTINUOUS
 62
     7
 10
152.32505959223769
 20
29.959298931438969
 30
0.0
 11
141.28023066635379
 21
27.861637324670479
 31
0.0
 12
152.32505959223769
 22
27.619948938379359
 32
0.0
 13
152.32505959223769
 23
27.619948938379359
 33
0.0
210
0.0
220
0.0
230
1.0
  0
SOLID
  5
6B4
  8
DRG
  6
CONTINUOUS
 62
     7
 10
141.28023066635379
 20
29.95929893143898
 30
0.0
 11
141.28023066635379
 21
27.861637324670479
 31
0.0
 12
152.32505959223769
 22
29.959298931438969
 32
0.0
 13
152.32505959223769
 23
29.959298931438969
 33
0.0
210
0.0
220
0.0
230
1.0
  0
SOLID
  5
6B5
  8
DRG
  6
CONTINUOUS
 62
     7
 10
171.0922846938046
 20
29.95929893143904
 30
0.0
 11
160.04745823702251
 21
29.300230626583549
 31
0.0
 12
171.0922846938046
 22
27.861637324670479
 32
0.0
 13
171.0922846938046
 23
27.861637324670479
 33
0.0
210
0.0
220
0.0
230
1.0
  0
SOLID
  5
6B6
  8
DRG
  6
CONTINUOUS
 62
     7
 10
101.5095597489034
 20
29.984856014372749
 30
0.0
 11
101.2987804739044
 21
28.140797454259019
 31
0.0
 12
111.2523129779601
 22
23.54201089202471
 32
0.0
 13
111.2523129779601
 23
23.54201089202471
 33
0.0
210
0.0
220
0.0
230
1.0
  0
SOLID
  5
6B7
  8
DRG
  6
CONTINUOUS
 62
     7
 10
7.0565934473582743
 20
30.23514359210488
 30
0.0
 11
7.6055113962037586
 21
27.351081907662518
 31
0.0
 12
17.73941253697517
 22
28.534520552734239
 32
0.0
 13
17.73941253697517
 23
28.534520552734239
 33
0.0
210
0.0
220
0.0
230
1.0
  0
SOLID
  5
6B8
  8
DRG
  6
CONTINUOUS
 62
     7
 10
17.256300807526252
 20
30.5191262631974
 30
0.0
 11
7.0565934473582743
 21
30.23514359210488
 31
0.0
 12
17.73941253697517
 22
28.534520552734239
 32
0.0
 13
17.73941253697517
 23
28.534520552734239
 33
0.0
210
0.0
220
0.0
230
1.0
  0
SOLID
  5
6B9
  8
DRG
  6
CONTINUOUS
 62
     7
 10
63.235709964757
 20
30.81688778835381
 30
0.0
 11
63.235709964757007
 21
27.61994893837937
 31
0.0
 12
74.280536421539182
 22
27.861637324670479
 32
0.0
 13
74.280536421539182
 23
27.861637324670479
 33
0.0
210
0.0
220
0.0
230
1.0
  0
SOLID
  5
6BA
  8
DRG
  6
CONTINUOUS
 62
     7
 10
74.280536421539196
 20
30.816887788353831
 30
0.0
 11
63.235709964757
 21
30.81688778835381
 31
0.0
 12
74.280536421539182
 22
27.861637324670479
 32
0.0
 13
74.280536421539182
 23
27.861637324670479
 33
0.0
210
0.0
220
0.0
230
1.0
  0
SOLID
  5
6BB
  8
DRG
  6
CONTINUOUS
 62
     7
 10
159.01581968400799
 20
30.996563617445211
 30
0.0
 11
160.04745823702251
 21
29.300230626583549
 31
0.0
 12
171.0922846938046
 22
29.95929893143904
 32
0.0
 13
171.0922846938046
 23
29.95929893143904
 33
0.0
210
0.0
220
0.0
230
1.0
  0
SOLID
  5
6BC
  8
DRG
  6
CONTINUOUS
 62
     7
 10
27.387732575171409
 20
32.086434320449378
 30
0.0
 11
27.181817847379151
 21
29.900160404751109
 31
0.0
 12
37.639779947293839
 22
13.760967175618781
 32
0.0
 13
37.639779947293839
 23
13.760967175618781
 33
0.0
210
0.0
220
0.0
230
1.0
  0
SOLID
  5
6BD
  8
DRG
  6
CONTINUOUS
 62
     7
 10
157.53297815821909
 20
32.316792661720299
 30
0.0
 11
159.01581968400799
 21
30.996563617445211
 31
0.0
 12
171.0922846938046
 22
29.95929893143904
 32
0.0
 13
171.0922846938046
 23
29.95929893143904
 33
0.0
210
0.0
220
0.0
230
1.0
  0
SOLID
  5
6BE
  8
DRG
  6
CONTINUOUS
 62
     7
 10
81.440258950509346
 20
32.349374231810209
 30
0.0
 11
81.440258950509346
 21
27.861637324670479
 31
0.0
 12
92.002287191588479
 22
27.619948938379359
 32
0.0
 13
92.002287191588479
 23
27.619948938379359
 33
0.0
210
0.0
220
0.0
230
1.0
  0
SOLID
  5
6BF
  8
DRG
  6
CONTINUOUS
 62
     7
 10
170.29570619663201
 20
32.817404039288149
 30
0.0
 11
157.53297815821909
 21
32.316792661720299
 31
0.0
 12
171.0922846938046
 22
29.95929893143904
 32
0.0
 13
171.0922846938046
 23
29.95929893143904
 33
0.0
210
0.0
220
0.0
230
1.0
  0
SOLID
  5
6C0
  8
DRG
  6
CONTINUOUS
 62
     7
 10
92.002287191588479
 20
33.041326503689838
 30
0.0
 11
81.440258950509346
 21
32.349374231810209
 31
0.0
 12
92.002287191588479
 22
27.619948938379359
 32
0.0
 13
92.002287191588479
 23
27.619948938379359
 33
0.0
210
0.0
220
0.0
230
1.0
  0
SOLID
  5
6C1
  8
DRG
  6
CONTINUOUS
 62
     7
 10
155.72873071743231
 20
33.145354604103439
 30
0.0
 11
157.53297815821909
 21
32.316792661720299
 31
0.0
 12
170.29570619663201
 22
32.817404039288149
 32
0.0
 13
170.29570619663201
 23
32.817404039288149
 33
0.0
210
0.0
220
0.0
230
1.0
  0
SOLID
  5
6C2
  8
DRG
  6
CONTINUOUS
 62
     7
 10
151.66291215627899
 20
34.523696118493461
 30
0.0
 11
155.72873071743231
 21
33.145354604103439
 31
0.0
 12
170.29570619663201
 22
32.817404039288149
 32
0.0
 13
170.29570619663201
 23
32.817404039288149
 33
0.0
210
0.0
220
0.0
230
1.0
  0
SOLID
  5
6C3
  8
DRG
  6
CONTINUOUS
 62
     7
 10
92.821309573647781
 20
34.855023452224977
 30
0.0
 11
81.440258950509346
 21
32.349374231810209
 31
0.0
 12
92.002287191588479
 22
33.041326503689838
 32
0.0
 13
92.002287191588479
 23
33.041326503689838
 33
0.0
210
0.0
220
0.0
230
1.0
  0
SOLID
  5
6C4
  8
DRG
  6
CONTINUOUS
 62
     7
 10
82.124565023344857
 20
35.167915353955507
 30
0.0
 11
81.440258950509346
 21
32.349374231810209
 31
0.0
 12
92.821309573647781
 22
34.855023452224977
 32
0.0
 13
92.821309573647781
 23
34.855023452224977
 33
0.0
210
0.0
220
0.0
230
1.0
  0
SOLID
  5
6C5
  8
DRG
  6
CONTINUOUS
 62
     7
 10
168.82222272033971
 20
35.39269985817279
 30
0.0
 11
151.66291215627899
 21
34.523696118493461
 31
0.0
 12
170.29570619663201
 22
32.817404039288149
 32
0.0
 13
170.29570619663201
 23
32.817404039288149
 33
0.0
210
0.0
220
0.0
230
1.0
  0
SOLID
  5
6C6
  8
DRG
  6
CONTINUOUS
 62
     7
 10
55.513311319972232
 20
35.629722934820848
 30
0.0
 11
44.468482394088362
 21
27.861637324670291
 31
0.0
 12
55.513311319972217
 22
27.61994893837937
 32
0.0
 13
55.513311319972217
 23
27.61994893837937
 33
0.0
210
0.0
220
0.0
230
1.0
  0
SOLID
  5
6C7
  8
DRG
  6
CONTINUOUS
 62
     7
 10
94.205364320613299
 20
36.284948884141627
 30
0.0
 11
82.124565023344857
 21
35.167915353955507
 31
0.0
 12
92.821309573647781
 22
34.855023452224977
 32
0.0
 13
92.821309573647781
 23
34.855023452224977
 33
0.0
210
0.0
220
0.0
230
1.0
  0
SOLID
  5
6C8
  8
DRG
  6
CONTINUOUS
 62
     7
 10
44.169020821240288
 20
36.461122307958632
 30
0.0
 11
55.513311319972232
 21
35.629722934820848
 31
0.0
 12
74.280536421539182
 22
35.629722934820848
 32
0.0
 13
74.280536421539182
 23
35.629722934820848
 33
0.0
210
0.0
220
0.0
230
1.0
  0
SOLID
  5
6C9
  8
DRG
  6
CONTINUOUS
 62
     7
 10
44.169020821240288
 20
36.461122307958632
 30
0.0
 11
44.468482394088362
 21
27.861637324670291
 31
0.0
 12
55.513311319972232
 22
35.629722934820848
 32
0.0
 13
55.513311319972232
 23
35.629722934820848
 33
0.0
210
0.0
220
0.0
230
1.0
  0
SOLID
  5
6CA
  8
DRG
  6
CONTINUOUS
 62
     7
 10
147.96999619585119
 20
36.713005966762211
 30
0.0
 11
151.66291215627899
 21
34.523696118493461
 31
0.0
 12
168.82222272033971
 22
35.39269985817279
 32
0.0
 13
168.82222272033971
 23
35.39269985817279
 33
0.0
210
0.0
220
0.0
230
1.0
  0
SOLID
  5
6CB
  8
DRG
  6
CONTINUOUS
 62
     7
 10
95.991402974049976
 20
37.162650548643818
 30
0.0
 11
82.124565023344857
 21
35.167915353955507
 31
0.0
 12
94.205364320613299
 22
36.284948884141627
 32
0.0
 13
94.205364320613299
 23
36.284948884141627
 33
0.0
210
0.0
220
0.0
230
1.0
  0
SOLID
  5
6CC
  8
DRG
  6
CONTINUOUS
 62
     7
 10
101.5095597489034
 20
37.384730871555568
 30
0.0
 11
101.5095597489034
 21
29.984856014372749
 31
0.0
 12
111.2523129779601
 22
23.54201089202471
 32
0.0
 13
111.2523129779601
 23
23.54201089202471
 33
0.0
210
0.0
220
0.0
230
1.0
  0
SOLID
  5
6CD
  8
DRG
  6
CONTINUOUS
 62
     7
 10
166.76191426628489
 20
37.5277481442359
 30
0.0
 11
147.96999619585119
 21
36.713005966762211
 31
0.0
 12
168.82222272033971
 22
35.39269985817279
 32
0.0
 13
168.82222272033971
 23
35.39269985817279
 33
0.0
210
0.0
220
0.0
230
1.0
  0
SOLID
  5
6CE
  8
DRG
  6
CONTINUOUS
 62
     7
 10
83.465136107217845
 20
37.739941408961009
 30
0.0
 11
95.991402974049976
 21
37.162650548643818
 31
0.0
 12
97.969021393668683
 22
37.384730871555568
 32
0.0
 13
97.969021393668683
 23
37.384730871555568
 33
0.0
210
0.0
220
0.0
230
1.0
  0
SOLID
  5
6CF
  8
DRG
  6
CONTINUOUS
 62
     7
 10
83.465136107217845
 20
37.739941408961009
 30
0.0
 11
82.124565023344857
 21
35.167915353955507
 31
0.0
 12
95.991402974049976
 22
37.162650548643818
 32
0.0
 13
95.991402974049976
 23
37.162650548643818
 33
0.0
210
0.0
220
0.0
230
1.0
  0
SOLID
  5
6D0
  8
DRG
  6
CONTINUOUS
 62
     7
 10
6.7865631049779154
 20
38.202265524009427
 30
0.0
 11
7.0565934473582743
 21
30.23514359210488
 31
0.0
 12
17.256300807526252
 22
30.5191262631974
 32
0.0
 13
17.256300807526252
 23
30.5191262631974
 33
0.0
210
0.0
220
0.0
230
1.0
  0
SOLID
  5
6D1
  8
DRG
  6
CONTINUOUS
 62
     7
 10
164.2407358189129
 20
39.092024764970908
 30
0.0
 11
147.96999619585119
 21
36.713005966762211
 31
0.0
 12
166.76191426628489
 22
37.5277481442359
 32
0.0
 13
166.76191426628489
 23
37.5277481442359
 33
0.0
210
0.0
220
0.0
230
1.0
  0
SOLID
  5
6D2
  8
DRG
  6
CONTINUOUS
 62
     7
 10
144.80962089523379
 20
39.618644254945529
 30
0.0
 11
147.96999619585119
 21
36.713005966762211
 31
0.0
 12
164.2407358189129
 22
39.092024764970908
 32
0.0
 13
164.2407358189129
 23
39.092024764970908
 33
0.0
210
0.0
220
0.0
230
1.0
  0
SOLID
  5
6D3
  8
DRG
  6
CONTINUOUS
 62
     7
 10
85.383656329320502
 20
39.915195190919967
 30
0.0
 11
83.465136107217845
 21
37.739941408961009
 31
0.0
 12
97.969021393668683
 22
37.384730871555568
 32
0.0
 13
97.969021393668683
 23
37.384730871555568
 33
0.0
210
0.0
220
0.0
230
1.0
  0
SOLID
  5
6D4
  8
DRG
  6
CONTINUOUS
 62
     7
 10
85.383656329320502
 20
39.915195190919967
 30
0.0
 11
97.969021393668683
 21
37.384730871555568
 31
0.0
 12
101.5095597489034
 22
37.384730871555568
 32
0.0
 13
101.5095597489034
 23
37.384730871555568
 33
0.0
210
0.0
220
0.0
230
1.0
  0
SOLID
  5
6D5
  8
DRG
  6
CONTINUOUS
 62
     7
 10
161.4128172083947
 20
39.98989916707626
 30
0.0
 11
144.80962089523379
 21
39.618644254945529
 31
0.0
 12
164.2407358189129
 22
39.092024764970908
 32
0.0
 13
164.2407358189129
 23
39.092024764970908
 33
0.0
  0
SOLID
  5
6D6
  8
DRG
  6
CONTINUOUS
 62
     7
 10
127.2345352189994
 20
40.740104065808097
 30
0.0
 11
116.19314081319391
 21
17.28637227261407
 31
0.0
 12
127.2345352189994
 22
17.28637227261407
 32
0.0
 13
127.2345352189994
 23
17.28637227261407
 33
0.0
210
0.0
220
0.0
230
1.0
  0
SOLID
  5
6D7
  8
DRG
  6
CONTINUOUS
 62
     7
 10
158.4712923481795
 20
40.965125441240623
 30
0.0
 11
144.80962089523379
 21
39.618644254945529
 31
0.0
 12
161.4128172083947
 22
39.98989916707626
 32
0.0
 13
161.4128172083947
 23
39.98989916707626
 33
0.0
210
0.0
220
0.0
230
1.0
  0
SOLID
  5
6D8
  8
DRG
  6
CONTINUOUS
 62
     7
 10
87.768046153177011
 20
41.566598844310953
 30
0.0
 11
85.383656329320502
 21
39.915195190919967
 31
0.0
 12
101.5095597489034
 22
37.384730871555568
 32
0.0
 13
101.5095597489034
 23
37.384730871555568
 33
0.0
210
0.0
220
0.0
230
1.0
  0
SOLID
  5
6D9
  8
DRG
  6
CONTINUOUS
 62
     7
 10
55.51331131997221
 20
41.923431282527638
 30
0.0
 11
44.169020821240288
 21
36.461122307958632
 31
0.0
 12
74.280536421539182
 22
35.629722934820848
 32
0.0
 13
74.280536421539182
 23
35.629722934820848
 33
0.0
210
0.0
220
0.0
230
1.0
  0
SOLID
  5
6DA
  8
DRG
  6
CONTINUOUS
 62
     7
 10
63.235709964756971
 20
41.923431282527652
 30
0.0
 11
55.51331131997221
 21
41.923431282527638
 31
0.0
 12
74.280536421539182
 22
35.629722934820848
 32
0.0
 13
74.280536421539182
 23
35.629722934820848
 33
0.0
210
0.0
220
0.0
230
1.0
  0
SOLID
  5
6DB
  8
DRG
  6
CONTINUOUS
 62
     7
 10
155.7899070018324
 20
42.518768712226482
 30
0.0
 11
144.80962089523379
 21
39.618644254945529
 31
0.0
 12
158.4712923481795
 22
40.965125441240623
 32
0.0
 13
158.4712923481795
 23
40.965125441240623
 33
0.0
210
0.0
220
0.0
230
1.0
  0
SOLID
  5
6DC
  8
DRG
  6
CONTINUOUS
 62
     7
 10
90.479010040926084
 20
42.597677724835599
 30
0.0
 11
87.768046153177011
 21
41.566598844310953
 31
0.0
 12
101.5095597489034
 22
37.384730871555568
 32
0.0
 13
101.5095597489034
 23
37.384730871555568
 33
0.0
210
0.0
220
0.0
230
1.0
  0
SOLID
  5
6DD
  8
DRG
  6
CONTINUOUS
 62
     7
 10
93.358174068518778
 20
42.948196427274922
 30
0.0
 11
90.479010040926084
 21
42.597677724835599
 31
0.0
 12
101.5095597489034
 22
37.384730871555568
 32
0.0
 13
101.5095597489034
 23
37.384730871555568
 33
0.0
210
0.0
220
0.0
230
1.0
  0
SOLID
  5
6DE
  8
DRG
  6
CONTINUOUS
 62
     7
 10
101.5095597489034
 20
37.384730871555568
 30
0.0
 11
100.207486521178
 21
42.948196427274922
 31
0.0
 12
93.358174068518778
 22
42.948196427274922
 32
0.0
 13
93.358174068518778
 23
42.948196427274922
 33
0.0
  0
SOLID
  5
6DF
  8
DRG
  6
CONTINUOUS
 62
     7
 10
100.207486521178
 20
42.948196427274922
 30
0.0
 11
101.5095597489034
 21
37.384730871555568
 31
0.0
 12
111.2523129779601
 22
23.54201089202471
 32
0.0
 13
111.2523129779601
 23
23.54201089202471
 33
0.0
  0
SOLID
  5
6E0
  8
DRG
  6
CONTINUOUS
 62
     7
 10
142.3184035466634
 20
43.11500550983493
 30
0.0
 11
144.80962089523379
 21
39.618644254945529
 31
0.0
 12
155.7899070018324
 22
42.518768712226482
 32
0.0
 13
155.7899070018324
 23
42.518768712226482
 33
0.0
210
0.0
220
0.0
230
1.0
  0
SOLID
  5
6E1
  8
DRG
  6
CONTINUOUS
 62
     7
 10
127.6260830886382
 20
43.212240020807677
 30
0.0
 11
116.19314081319391
 21
17.28637227261407
 31
0.0
 12
127.2345352189994
 22
40.740104065808097
 32
0.0
 13
127.2345352189994
 23
40.740104065808097
 33
0.0
210
0.0
220
0.0
230
1.0
  0
SOLID
  5
6E2
  8
DRG
  6
CONTINUOUS
 62
     7
 10
153.4809683549079
 20
44.585756161105429
 30
0.0
 11
142.3184035466634
 21
43.11500550983493
 31
0.0
 12
155.7899070018324
 22
42.518768712226482
 32
0.0
 13
155.7899070018324
 23
42.518768712226482
 33
0.0
210
0.0
220
0.0
230
1.0
  0
SOLID
  5
6E3
  8
DRG
  6
CONTINUOUS
 62
     7
 10
27.387732575171409
 20
44.745475926535612
 30
0.0
 11
27.387732575171409
 21
32.086434320449378
 31
0.0
 12
37.639779947293839
 22
13.760967175618781
 32
0.0
 13
37.639779947293839
 23
13.760967175618781
 33
0.0
210
0.0
220
0.0
230
1.0
  0
SOLID
  5
6E4
  8
DRG
  6
CONTINUOUS
 62
     7
 10
111.2523129779601
 20
45.06060729124669
 30
0.0
 11
100.207486521178
 21
42.948196427274922
 31
0.0
 12
111.2523129779601
 22
23.54201089202471
 32
0.0
 13
111.2523129779601
 23
23.54201089202471
 33
0.0
  0
SOLID
  5
6E5
  8
DRG
  6
CONTINUOUS
 62
     7
 10
74.280536421539182
 20
45.06060729124669
 30
0.0
 11
63.235709964756971
 21
41.923431282527652
 31
0.0
 12
74.280536421539182
 22
35.629722934820848
 32
0.0
 13
74.280536421539182
 23
35.629722934820848
 33
0.0
  0
SOLID
  5
6E6
  8
DRG
  6
CONTINUOUS
 62
     7
 10
44.468482394088362
 20
45.06060729124696
 30
0.0
 11
44.169020821240288
 21
36.461122307958632
 31
0.0
 12
55.51331131997221
 22
41.923431282527638
 32
0.0
 13
55.51331131997221
 23
41.923431282527638
 33
0.0
210
0.0
220
0.0
230
1.0
  0
SOLID
  5
6E7
  8
DRG
  6
CONTINUOUS
 62
     7
 10
141.54546826268481
 20
45.937122787892669
 30
0.0
 11
142.3184035466634
 21
43.11500550983493
 31
0.0
 12
153.4809683549079
 22
44.585756161105429
 32
0.0
 13
153.4809683549079
 23
44.585756161105429
 33
0.0
210
0.0
220
0.0
230
1.0
  0
SOLID
  5
6E8
  8
DRG
  6
CONTINUOUS
 62
     7
 10
152.54834175226111
 20
45.975031235545693
 30
0.0
 11
141.54546826268481
 21
45.937122787892669
 31
0.0
 12
153.4809683549079
 22
44.585756161105429
 32
0.0
 13
153.4809683549079
 23
44.585756161105429
 33
0.0
210
0.0
220
0.0
230
1.0
  0
SOLID
  5
6E9
  8
DRG
  6
CONTINUOUS
 62
     7
 10
7.0305774038875759
 20
46.17022669896302
 30
0.0
 11
6.7865631049779154
 21
38.202265524009427
 31
0.0
 12
17.256300807526252
 22
30.5191262631974
 32
0.0
 13
17.256300807526252
 23
30.5191262631974
 33
0.0
  0
SOLID
  5
6EA
  8
DRG
  6
CONTINUOUS
 62
     7
 10
17.256300807526252
 20
46.312783983787632
 30
0.0
 11
7.0305774038875759
 21
46.17022669896302
 31
0.0
 12
17.256300807526252
 22
30.5191262631974
 32
0.0
 13
17.256300807526252
 23
30.5191262631974
 33
0.0
210
0.0
220
0.0
230
1.0
  0
SOLID
  5
6EB
  8
DRG
  6
CONTINUOUS
 62
     7
 10
160.04745823702251
 20
46.421288526219293
 30
0.0
 11
160.04745823702251
 21
45.21828747592599
 31
0.0
 12
171.0912486890569
 22
45.21828747592599
 32
0.0
 13
171.0912486890569
 23
45.21828747592599
 33
0.0
210
0.0
220
0.0
230
1.0
  0
SOLID
  5
6EC
  8
DRG
  6
CONTINUOUS
 62
     7
 10
63.235709964757007
 20
46.690614073903127
 30
0.0
 11
63.235709964756971
 21
41.923431282527652
 31
0.0
 12
74.280536421539182
 22
45.06060729124669
 32
0.0
 13
74.280536421539182
 23
45.06060729124669
 33
0.0
210
0.0
220
0.0
230
1.0
  0
SOLID
  5
6ED
  8
DRG
  6
CONTINUOUS
 62
     7
 10
55.513311319972217
 20
46.690614073903141
 30
0.0
 11
44.468482394088362
 21
45.06060729124696
 31
0.0
 12
55.51331131997221
 22
41.923431282527638
 32
0.0
 13
55.51331131997221
 23
41.923431282527638
 33
0.0
210
0.0
220
0.0
230
1.0
  0
SOLID
  5
6EE
  8
DRG
  6
CONTINUOUS
 62
     7
 10
27.181817847379161
 20
46.931749842233849
 30
0.0
 11
27.387732575171409
 21
44.745475926535612
 31
0.0
 12
37.639779947293839
 22
13.760967175618781
 32
0.0
 13
37.639779947293839
 23
13.760967175618781
 33
0.0
210
0.0
220
0.0
230
1.0
  0
SOLID
  5
6EF
  8
DRG
  6
CONTINUOUS
 62
     7
 10
92.485087876393209
 20
47.313129977668268
 30
0.0
 11
81.470405744524527
 21
45.910674481046733
 31
0.0
 12
92.485087876393209
 22
45.910674481046733
 32
0.0
 13
92.485087876393209
 23
45.910674481046733
 33
0.0
210
0.0
220
0.0
230
1.0
  0
SOLID
  5
6F0
  8
DRG
  6
CONTINUOUS
 62
     7
 10
100.2074865211779
 20
47.313129977668268
 30
0.0
 11
100.207486521178
 21
42.948196427274922
 31
0.0
 12
111.2523129779601
 22
45.06060729124669
 32
0.0
 13
111.2523129779601
 23
45.06060729124669
 33
0.0
210
0.0
220
0.0
230
1.0
  0
SOLID
  5
6F1
  8
DRG
  6
CONTINUOUS
 62
     7
 10
152.52515784094209
 20
47.648154099737518
 30
0.0
 11
141.54546826268481
 21
45.937122787892669
 31
0.0
 12
152.54834175226111
 22
45.975031235545693
 32
0.0
 13
152.54834175226111
 23
45.975031235545693
 33
0.0
210
0.0
220
0.0
230
1.0
  0
SOLID
  5
6F2
  8
DRG
  6
CONTINUOUS
 62
     7
 10
159.7387277495244
 20
47.934174967545289
 30
0.0
 11
160.04745823702251
 21
46.421288526219293
 31
0.0
 12
171.0912486890569
 22
45.21828747592599
 32
0.0
 13
171.0912486890569
 23
45.21828747592599
 33
0.0
210
0.0
220
0.0
230
1.0
  0
SOLID
  5
6F3
  8
DRG
  6
CONTINUOUS
 62
     7
 10
73.871646337008002
 20
48.166435832476949
 30
0.0
 11
63.235709964757007
 21
46.690614073903127
 31
0.0
 12
74.280536421539182
 22
45.06060729124669
 32
0.0
 13
74.280536421539182
 23
45.06060729124669
 33
0.0
210
0.0
220
0.0
230
1.0
  0
SOLID
  5
6F4
  8
DRG
  6
CONTINUOUS
 62
     7
 10
110.84342289342889
 20
48.166435832476949
 30
0.0
 11
100.2074865211779
 21
47.313129977668268
 31
0.0
 12
111.2523129779601
 22
45.06060729124669
 32
0.0
 13
111.2523129779601
 23
45.06060729124669
 33
0.0
210
0.0
220
0.0
230
1.0
  0
SOLID
  5
6F5
  8
DRG
  6
CONTINUOUS
 62
     7
 10
44.877372478619598
 20
48.166435832477148
 30
0.0
 11
44.468482394088362
 21
45.06060729124696
 31
0.0
 12
55.513311319972217
 22
46.690614073903141
 32
0.0
 13
55.513311319972217
 23
46.690614073903141
 33
0.0
  0
SOLID
  5
6F6
  8
DRG
  6
CONTINUOUS
 62
     7
 10
62.941793667269401
 20
48.168231083642013
 30
0.0
 11
63.235709964757007
 21
46.690614073903127
 31
0.0
 12
73.871646337008002
 22
48.166435832476949
 32
0.0
 13
73.871646337008002
 23
48.166435832476949
 33
0.0
210
0.0
220
0.0
230
1.0
  0
SOLID
  5
6F7
  8
DRG
  6
CONTINUOUS
 62
     7
 10
55.80722761745983
 20
48.16823108364202
 30
0.0
 11
44.877372478619598
 21
48.166435832477148
 31
0.0
 12
55.513311319972217
 22
46.690614073903141
 32
0.0
 13
55.513311319972217
 23
46.690614073903141
 33
0.0
210
0.0
220
0.0
230
1.0
  0
SOLID
  5
6F8
  8
DRG
  6
CONTINUOUS
 62
     7
 10
170.64869051164831
 20
48.2931735432064
 30
0.0
 11
159.7387277495244
 21
47.934174967545289
 31
0.0
 12
171.0912486890569
 22
45.21828747592599
 32
0.0
 13
171.0912486890569
 23
45.21828747592599
 33
0.0
210
0.0
220
0.0
230
1.0
  0
SOLID
  5
6F9
  8
DRG
  6
CONTINUOUS
 62
     7
 10
17.739412536975191
 20
48.297389694250811
 30
0.0
 11
7.0305774038875759
 21
46.17022669896302
 31
0.0
 12
17.256300807526252
 22
46.312783983787632
 32
0.0
 13
17.256300807526252
 23
46.312783983787632
 33
0.0
210
0.0
220
0.0
230
1.0
  0
SOLID
  5
6FA
  8
DRG
  6
CONTINUOUS
 62
     7
 10
92.779004173880821
 20
48.790746987407147
 30
0.0
 11
81.470405744524527
 21
45.910674481046733
 31
0.0
 12
92.485087876393209
 22
47.313129977668268
 32
0.0
 13
92.485087876393209
 23
47.313129977668268
 33
0.0
210
0.0
220
0.0
230
1.0
  0
SOLID
  5
6FB
  8
DRG
  6
CONTINUOUS
 62
     7
 10
99.913570223690385
 20
48.790746987407147
 30
0.0
 11
100.2074865211779
 21
47.313129977668268
 31
0.0
 12
110.84342289342889
 22
48.166435832476949
 32
0.0
 13
110.84342289342889
 23
48.166435832476949
 33
0.0
210
0.0
220
0.0
230
1.0
  0
SOLID
  5
6FC
  8
DRG
  6
CONTINUOUS
 62
     7
 10
141.8917942032017
 20
48.84260609145101
 30
0.0
 11
141.54546826268481
 21
45.937122787892669
 31
0.0
 12
152.52515784094209
 22
47.648154099737518
 32
0.0
 13
152.52515784094209
 23
47.648154099737518
 33
0.0
210
0.0
220
0.0
230
1.0
  0
SOLID
  5
6FD
  8
DRG
  6
CONTINUOUS
 62
     7
 10
82.052765146120478
 20
48.845443464055869
 30
0.0
 11
81.470405744524527
 21
45.910674481046733
 31
0.0
 12
92.779004173880821
 22
48.790746987407147
 32
0.0
 13
92.779004173880821
 23
48.790746987407147
 33
0.0
210
0.0
220
0.0
230
1.0
  0
SOLID
  5
6FE
  8
DRG
  6
CONTINUOUS
 62
     7
 10
153.29859675497221
 20
48.984541822115588
 30
0.0
 11
141.8917942032017
 21
48.84260609145101
 31
0.0
 12
152.52515784094209
 22
47.648154099737518
 32
0.0
 13
152.52515784094209
 23
47.648154099737518
 33
0.0
210
0.0
220
0.0
230
1.0
  0
SOLID
  5
6FF
  8
DRG
  6
CONTINUOUS
 62
     7
 10
7.4480896310338727
 20
49.187837726674921
 30
0.0
 11
7.0305774038875759
 21
46.17022669896302
 31
0.0
 12
17.739412536975191
 22
48.297389694250811
 32
0.0
 13
17.739412536975191
 23
48.297389694250811
 33
0.0
210
0.0
220
0.0
230
1.0
  0
SOLID
  5
700
  8
DRG
  6
CONTINUOUS
 62
     7
 10
158.8619067058832
 20
49.205129237252457
 30
0.0
 11
159.7387277495244
 21
47.934174967545289
 31
0.0
 12
170.64869051164831
 22
48.2931735432064
 32
0.0
 13
170.64869051164831
 23
48.2931735432064
 33
0.0
  0
SOLID
  5
701
  8
DRG
  6
CONTINUOUS
 62
     7
 10
62.104790866741169
 20
49.420894298279691
 30
0.0
 11
62.941793667269401
 21
48.168231083642013
 31
0.0
 12
73.871646337008002
 22
48.166435832476949
 32
0.0
 13
73.871646337008002
 23
48.166435832476949
 33
0.0
210
0.0
220
0.0
230
1.0
  0
SOLID
  5
702
  8
DRG
  6
CONTINUOUS
 62
     7
 10
56.644230417988048
 20
49.420894298279698
 30
0.0
 11
44.877372478619598
 21
48.166435832477148
 31
0.0
 12
55.80722761745983
 22
48.16823108364202
 32
0.0
 13
55.80722761745983
 23
48.16823108364202
 33
0.0
210
0.0
220
0.0
230
1.0
  0
SOLID
  5
703
  8
DRG
  6
CONTINUOUS
 62
     7
 10
154.5338141330721
 20
49.911028695794251
 30
0.0
 11
141.8917942032017
 21
48.84260609145101
 31
0.0
 12
153.29859675497221
 22
48.984541822115588
 32
0.0
 13
153.29859675497221
 23
48.984541822115588
 33
0.0
210
0.0
220
0.0
230
1.0
  0
SOLID
  5
704
  8
DRG
  6
CONTINUOUS
 62
     7
 10
18.93668040707891
 20
49.952263229102194
 30
0.0
 11
7.4480896310338727
 21
49.187837726674921
 31
0.0
 12
17.739412536975191
 22
48.297389694250811
 32
0.0
 13
17.739412536975191
 23
48.297389694250811
 33
0.0
210
0.0
220
0.0
230
1.0
  0
SOLID
  5
705
  8
DRG
  6
CONTINUOUS
 62
     7
 10
157.5572113268374
 20
50.030907576854183
 30
0.0
 11
158.8619067058832
 21
49.205129237252457
 31
0.0
 12
170.64869051164831
 22
48.2931735432064
 32
0.0
 13
170.64869051164831
 23
48.2931735432064
 33
0.0
  0
SOLID
  5
706
  8
DRG
  6
CONTINUOUS
 62
     7
 10
93.616006974409046
 20
50.043410202044832
 30
0.0
 11
82.052765146120478
 21
48.845443464055869
 31
0.0
 12
92.779004173880821
 22
48.790746987407147
 32
0.0
 13
92.779004173880821
 23
48.790746987407147
 33
0.0
  0
SOLID
  5
707
  8
DRG
  6
CONTINUOUS
 62
     7
 10
99.07656742316216
 20
50.043410202044832
 30
0.0
 11
99.913570223690385
 21
48.790746987407147
 31
0.0
 12
110.84342289342889
 22
48.166435832476949
 32
0.0
 13
110.84342289342889
 23
48.166435832476949
 33
0.0
210
0.0
220
0.0
230
1.0
  0
SOLID
  5
708
  8
DRG
  6
CONTINUOUS
 62
     7
 10
57.896893632625734
 20
50.257897098807909
 30
0.0
 11
44.877372478619598
 21
48.166435832477148
 31
0.0
 12
56.644230417988048
 22
49.420894298279698
 32
0.0
 13
56.644230417988048
 23
49.420894298279698
 33
0.0
  0
SOLID
  5
709
  8
DRG
  6
CONTINUOUS
 62
     7
 10
60.852127652103498
 20
50.257897098807909
 30
0.0
 11
62.104790866741169
 21
49.420894298279691
 31
0.0
 12
73.871646337008002
 22
48.166435832476949
 32
0.0
 13
73.871646337008002
 23
48.166435832476949
 33
0.0
210
0.0
220
0.0
230
1.0
  0
SOLID
  5
70A
  8
DRG
  6
CONTINUOUS
 62
     7
 10
156.0332810566515
 20
50.279456223742521
 30
0.0
 11
141.8917942032017
 21
48.84260609145101
 31
0.0
 12
154.5338141330721
 22
49.911028695794251
 32
0.0
 13
154.5338141330721
 23
49.911028695794251
 33
0.0
210
0.0
220
0.0
230
1.0
  0
SOLID
  5
70B
  8
DRG
  6
CONTINUOUS
 62
     7
 10
156.0332810566515
 20
50.279456223742521
 30
0.0
 11
157.5572113268374
 21
50.030907576854183
 31
0.0
 12
170.64869051164831
 22
48.2931735432064
 32
0.0
 13
170.64869051164831
 23
48.2931735432064
 33
0.0
210
0.0
220
0.0
230
1.0
  0
SOLID
  5
70C
  8
DRG
  6
CONTINUOUS
 62
     7
 10
59.374510642364612
 20
50.551813396295529
 30
0.0
 11
44.877372478619598
 21
48.166435832477148
 31
0.0
 12
57.896893632625734
 22
50.257897098807909
 32
0.0
 13
57.896893632625734
 23
50.257897098807909
 33
0.0
210
0.0
220
0.0
230
1.0
  0
SOLID
  5
70D
  8
DRG
  6
CONTINUOUS
 62
     7
 10
59.374510642364612
 20
50.551813396295529
 30
0.0
 11
60.852127652103498
 21
50.257897098807909
 31
0.0
 12
73.871646337008002
 22
48.166435832476949
 32
0.0
 13
73.871646337008002
 23
48.166435832476949
 33
0.0
210
0.0
220
0.0
230
1.0
  0
SOLID
  5
70E
  8
DRG
  6
CONTINUOUS
 62
     7
 10
94.868670189046725
 20
50.88041300257305
 30
0.0
 11
82.052765146120478
 21
48.845443464055869
 31
0.0
 12
93.616006974409046
 22
50.043410202044832
 32
0.0
 13
93.616006974409046
 23
50.043410202044832
 33
0.0
210
0.0
220
0.0
230
1.0
  0
SOLID
  5
70F
  8
DRG
  6
CONTINUOUS
 62
     7
 10
97.823904208524496
 20
50.88041300257305
 30
0.0
 11
99.07656742316216
 21
50.043410202044832
 31
0.0
 12
110.84342289342889
 22
48.166435832476949
 32
0.0
 13
110.84342289342889
 23
48.166435832476949
 33
0.0
  0
SOLID
  5
710
  8
DRG
  6
CONTINUOUS
 62
     7
 10
20.6705420504735
 20
51.031976418194162
 30
0.0
 11
7.4480896310338727
 21
49.187837726674921
 31
0.0
 12
18.93668040707891
 22
49.952263229102194
 32
0.0
 13
18.93668040707891
 23
49.952263229102194
 33
0.0
210
0.0
220
0.0
230
1.0
  0
SOLID
  5
711
  8
DRG
  6
CONTINUOUS
 62
     7
 10
109.64461782337339
 20
51.060607291246697
 30
0.0
 11
97.823904208524496
 21
50.88041300257305
 31
0.0
 12
110.84342289342889
 22
48.166435832476949
 32
0.0
 13
110.84342289342889
 23
48.166435832476949
 33
0.0
210
0.0
220
0.0
230
1.0
  0
SOLID
  5
712
  8
DRG
  6
CONTINUOUS
 62
     7
 10
72.672841266952446
 20
51.060607291246697
 30
0.0
 11
59.374510642364612
 21
50.551813396295529
 31
0.0
 12
73.871646337008002
 22
48.166435832476949
 32
0.0
 13
73.871646337008002
 23
48.166435832476949
 33
0.0
210
0.0
220
0.0
230
1.0
  0
SOLID
  5
713
  8
DRG
  6
CONTINUOUS
 62
     7
 10
46.07617754867519
 20
51.060607291246839
 30
0.0
 11
59.374510642364612
 21
50.551813396295529
 31
0.0
 12
72.672841266952446
 22
51.060607291246697
 32
0.0
 13
72.672841266952446
 23
51.060607291246697
 33
0.0
210
0.0
220
0.0
230
1.0
  0
SOLID
  5
714
  8
DRG
  6
CONTINUOUS
 62
     7
 10
46.07617754867519
 20
51.060607291246839
 30
0.0
 11
44.877372478619598
 21
48.166435832477148
 31
0.0
 12
59.374510642364612
 22
50.551813396295529
 32
0.0
 13
59.374510642364612
 23
50.551813396295529
 33
0.0
  0
SOLID
  5
715
  8
DRG
  6
CONTINUOUS
 62
     7
 10
169.4316298757154
 20
51.151415218714057
 30
0.0
 11
156.0332810566515
 21
50.279456223742521
 31
0.0
 12
170.64869051164831
 22
48.2931735432064
 32
0.0
 13
170.64869051164831
 23
48.2931735432064
 33
0.0
210
0.0
220
0.0
230
1.0
  0
SOLID
  5
716
  8
DRG
  6
CONTINUOUS
 62
     7
 10
96.346287198785603
 20
51.174329300060663
 30
0.0
 11
82.052765146120478
 21
48.845443464055869
 31
0.0
 12
94.868670189046725
 22
50.88041300257305
 32
0.0
 13
94.868670189046725
 23
50.88041300257305
 33
0.0
210
0.0
220
0.0
230
1.0
  0
SOLID
  5
717
  8
DRG
  6
CONTINUOUS
 62
     7
 10
96.346287198785603
 20
51.174329300060663
 30
0.0
 11
97.823904208524496
 21
50.88041300257305
 31
0.0
 12
109.64461782337339
 22
51.060607291246697
 32
0.0
 13
109.64461782337339
 23
51.060607291246697
 33
0.0
210
0.0
220
0.0
230
1.0
  0
SOLID
  5
718
  8
DRG
  6
CONTINUOUS
 62
     7
 10
27.267121908897021
 20
51.255838552818979
 30
0.0
 11
24.679246464695179
 21
50.459554842585071
 31
0.0
 12
26.241246459003669
 22
48.91606835823719
 32
0.0
 13
26.241246459003669
 23
48.91606835823719
 33
0.0
210
0.0
220
0.0
230
1.0
  0
SOLID
  5
719
  8
DRG
  6
CONTINUOUS
 62
     7
 10
27.267121908897021
 20
51.255838552818979
 30
0.0
 11
26.241246459003669
 21
48.91606835823719
 31
0.0
 12
27.181817847379161
 22
46.931749842233849
 32
0.0
 13
27.181817847379161
 23
46.931749842233849
 33
0.0
210
0.0
220
0.0
230
1.0
  0
SOLID
  5
71A
  8
DRG
  6
CONTINUOUS
 62
     7
 10
27.267121908897021
 20
51.255838552818979
 30
0.0
 11
27.181817847379161
 21
46.931749842233849
 31
0.0
 12
37.639779947293839
 22
13.760967175618781
 32
0.0
 13
37.639779947293839
 23
13.760967175618781
 33
0.0
210
0.0
220
0.0
230
1.0
  0
SOLID
  5
71B
  8
DRG
  6
CONTINUOUS
 62
     7
 10
22.683854862926282
 20
51.376400993896397
 30
0.0
 11
7.4480896310338727
 21
49.187837726674921
 31
0.0
 12
20.6705420504735
 22
51.031976418194162
 32
0.0
 13
20.6705420504735
 23
51.031976418194162
 33
0.0
210
0.0
220
0.0
230
1.0
  0
SOLID
  5
71C
  8
DRG
  6
CONTINUOUS
 62
     7
 10
22.683854862926282
 20
51.376400993896397
 30
0.0
 11
24.679246464695179
 21
50.459554842585071
 31
0.0
 12
27.267121908897021
 22
51.255838552818979
 32
0.0
 13
27.267121908897021
 23
51.255838552818979
 33
0.0
210
0.0
220
0.0
230
1.0
  0
SOLID
  5
71D
  8
DRG
  6
CONTINUOUS
 62
     7
 10
143.1817274202871
 20
51.542908748999231
 30
0.0
 11
156.0332810566515
 21
50.279456223742521
 31
0.0
 12
169.4316298757154
 22
51.151415218714057
 32
0.0
 13
169.4316298757154
 23
51.151415218714057
 33
0.0
210
0.0
220
0.0
230
1.0
  0
SOLID
  5
71E
  8
DRG
  6
CONTINUOUS
 62
     7
 10
143.1817274202871
 20
51.542908748999231
 30
0.0
 11
141.8917942032017
 21
48.84260609145101
 31
0.0
 12
156.0332810566515
 22
50.279456223742521
 32
0.0
 13
156.0332810566515
 23
50.279456223742521
 33
0.0
  0
SOLID
  5
71F
  8
DRG
  6
CONTINUOUS
 62
     7
 10
83.343047985181542
 20
51.544921497210481
 30
0.0
 11
82.052765146120478
 21
48.845443464055869
 31
0.0
 12
96.346287198785603
 22
51.174329300060663
 32
0.0
 13
96.346287198785603
 23
51.174329300060663
 33
0.0
210
0.0
220
0.0
230
1.0
  0
SOLID
  5
720
  8
DRG
  6
CONTINUOUS
 62
     7
 10
8.6055953189183114
 20
52.005722280183178
 30
0.0
 11
7.4480896310338727
 21
49.187837726674921
 31
0.0
 12
22.683854862926282
 22
51.376400993896397
 32
0.0
 13
22.683854862926282
 23
51.376400993896397
 33
0.0
210
0.0
220
0.0
230
1.0
  0
SOLID
  5
721
  8
DRG
  6
CONTINUOUS
 62
     7
 10
127.2345352189994
 20
53.086533694841222
 30
0.0
 11
135.23453521899941
 21
48.740104065808111
 31
0.0
 12
136.6041529029215
 22
48.740104065808111
 32
0.0
 13
136.6041529029215
 23
48.740104065808111
 33
0.0
210
0.0
220
0.0
230
1.0
  0
SOLID
  5
722
  8
DRG
  6
CONTINUOUS
 62
     7
 10
127.2345352189994
 20
53.086533694841222
 30
0.0
 11
132.76239926399981
 21
48.348556196169341
 31
0.0
 12
135.23453521899941
 22
48.740104065808111
 32
0.0
 13
135.23453521899941
 23
48.740104065808111
 33
0.0
210
0.0
220
0.0
230
1.0
  0
SOLID
  5
723
  8
DRG
  6
CONTINUOUS
 62
     7
 10
127.2345352189994
 20
53.086533694841222
 30
0.0
 11
130.5322532006596
 21
47.212240020807691
 31
0.0
 12
132.76239926399981
 22
48.348556196169341
 32
0.0
 13
132.76239926399981
 23
48.348556196169341
 33
0.0
  0
SOLID
  5
724
  8
DRG
  6
CONTINUOUS
 62
     7
 10
127.2345352189994
 20
53.086533694841222
 30
0.0
 11
128.76239926399981
 21
45.442386084147891
 31
0.0
 12
130.5322532006596
 22
47.212240020807691
 32
0.0
 13
130.5322532006596
 23
47.212240020807691
 33
0.0
210
0.0
220
0.0
230
1.0
  0
SOLID
  5
725
  8
DRG
  6
CONTINUOUS
 62
     7
 10
127.2345352189994
 20
53.086533694841222
 30
0.0
 11
127.6260830886382
 21
43.212240020807677
 31
0.0
 12
128.76239926399981
 22
45.442386084147891
 32
0.0
 13
128.76239926399981
 23
45.442386084147891
 33
0.0
  0
SOLID
  5
726
  8
DRG
  6
CONTINUOUS
 62
     7
 10
127.2345352189994
 20
53.086533694841222
 30
0.0
 11
116.19314081319391
 21
17.28637227261407
 31
0.0
 12
127.6260830886382
 22
43.212240020807677
 32
0.0
 13
127.6260830886382
 23
43.212240020807677
 33
0.0
210
0.0
220
0.0
230
1.0
  0
SOLID
  5
727
  8
DRG
  6
CONTINUOUS
 62
     7
 10
26.390819376565261
 20
53.462496928867189
 30
0.0
 11
8.6055953189183114
 21
52.005722280183178
 31
0.0
 12
22.683854862926282
 22
51.376400993896397
 32
0.0
 13
22.683854862926282
 23
51.376400993896397
 33
0.0
210
0.0
220
0.0
230
1.0
  0
SOLID
  5
728
  8
DRG
  6
CONTINUOUS
 62
     7
 10
26.390819376565261
 20
53.462496928867189
 30
0.0
 11
22.683854862926282
 21
51.376400993896397
 31
0.0
 12
27.267121908897021
 22
51.255838552818979
 32
0.0
 13
27.267121908897021
 23
51.255838552818979
 33
0.0
210
0.0
220
0.0
230
1.0
  0
SOLID
  5
729
  8
DRG
  6
CONTINUOUS
 62
     7
 10
107.7375943521987
 20
53.545888665485258
 30
0.0
 11
83.343047985181542
 21
51.544921497210481
 31
0.0
 12
96.346287198785603
 22
51.174329300060663
 32
0.0
 13
96.346287198785603
 23
51.174329300060663
 33
0.0
210
0.0
220
0.0
230
1.0
  0
SOLID
  5
72A
  8
DRG
  6
CONTINUOUS
 62
     7
 10
107.7375943521987
 20
53.545888665485258
 30
0.0
 11
96.346287198785603
 21
51.174329300060663
 31
0.0
 12
109.64461782337339
 22
51.060607291246697
 32
0.0
 13
109.64461782337339
 23
51.060607291246697
 33
0.0
210
0.0
220
0.0
230
1.0
  0
SOLID
  5
72B
  8
DRG
  6
CONTINUOUS
 62
     7
 10
70.76581779577775
 20
53.545888665485258
 30
0.0
 11
46.07617754867519
 21
51.060607291246839
 31
0.0
 12
72.672841266952446
 22
51.060607291246697
 32
0.0
 13
72.672841266952446
 23
51.060607291246697
 33
0.0
210
0.0
220
0.0
230
1.0
  0
SOLID
  5
72C
  8
DRG
  6
CONTINUOUS
 62
     7
 10
47.983201019849879
 20
53.54588866548535
 30
0.0
 11
46.07617754867519
 21
51.060607291246839
 31
0.0
 12
70.76581779577775
 22
53.545888665485258
 32
0.0
 13
70.76581779577775
 23
53.545888665485258
 33
0.0
210
0.0
220
0.0
230
1.0
  0
SOLID
  5
72D
  8
DRG
  6
CONTINUOUS
 62
     7
 10
167.52163335736839
 20
53.601455089215932
 30
0.0
 11
143.1817274202871
 21
51.542908748999231
 31
0.0
 12
169.4316298757154
 22
51.151415218714057
 32
0.0
 13
169.4316298757154
 23
51.151415218714057
 33
0.0
210
0.0
220
0.0
230
1.0
  0
SOLID
  5
72E
  8
DRG
  6
CONTINUOUS
 62
     7
 10
145.0997007305034
 20
53.84006797904842
 30
0.0
 11
143.1817274202871
 21
51.542908748999231
 31
0.0
 12
167.52163335736839
 22
53.601455089215932
 32
0.0
 13
167.52163335736839
 23
53.601455089215932
 33
0.0
210
0.0
220
0.0
230
1.0
  0
SOLID
  5
72F
  8
DRG
  6
CONTINUOUS
 62
     7
 10
85.261041575894609
 20
53.84129081468609
 30
0.0
 11
83.343047985181542
 21
51.544921497210481
 31
0.0
 12
107.7375943521987
 22
53.545888665485258
 32
0.0
 13
107.7375943521987
 23
53.545888665485258
 33
0.0
  0
SOLID
  5
730
  8
DRG
  6
CONTINUOUS
 62
     7
 10
10.42981956125807
 20
54.445496591066302
 30
0.0
 11
8.6055953189183114
 21
52.005722280183178
 31
0.0
 12
26.390819376565261
 22
53.462496928867189
 32
0.0
 13
26.390819376565261
 23
53.462496928867189
 33
0.0
210
0.0
220
0.0
230
1.0
  0
SOLID
  5
731
  8
DRG
  6
CONTINUOUS
 62
     7
 10
129.0836962561232
 20
55.014863471122233
 30
0.0
 11
127.2345352189994
 21
53.086533694841222
 31
0.0
 12
136.6041529029215
 22
48.740104065808111
 32
0.0
 13
136.6041529029215
 23
48.740104065808111
 33
0.0
210
0.0
220
0.0
230
1.0
  0
SOLID
  5
732
  8
DRG
  6
CONTINUOUS
 62
     7
 10
24.97349704072932
 20
55.367344616504027
 30
0.0
 11
10.42981956125807
 21
54.445496591066302
 31
0.0
 12
26.390819376565261
 22
53.462496928867189
 32
0.0
 13
26.390819376565261
 23
53.462496928867189
 33
0.0
210
0.0
220
0.0
230
1.0
  0
SOLID
  5
733
  8
DRG
  6
CONTINUOUS
 62
     7
 10
68.280536421539182
 20
55.452912136659961
 30
0.0
 11
47.983201019849879
 21
53.54588866548535
 31
0.0
 12
70.76581779577775
 22
53.545888665485258
 32
0.0
 13
70.76581779577775
 23
53.545888665485258
 33
0.0
210
0.0
220
0.0
230
1.0
  0
SOLID
  5
734
  8
DRG
  6
CONTINUOUS
 62
     7
 10
105.2523129779601
 20
55.452912136659961
 30
0.0
 11
85.261041575894609
 21
53.84129081468609
 31
0.0
 12
107.7375943521987
 22
53.545888665485258
 32
0.0
 13
107.7375943521987
 23
53.545888665485258
 33
0.0
210
0.0
220
0.0
230
1.0
  0
SOLID
  5
735
  8
DRG
  6
CONTINUOUS
 62
     7
 10
50.46848239408844
 20
55.452912136660011
 30
0.0
 11
47.983201019849879
 21
53.54588866548535
 31
0.0
 12
68.280536421539182
 22
55.452912136659961
 32
0.0
 13
68.280536421539182
 23
55.452912136659961
 33
0.0
210
0.0
220
0.0
230
1.0
  0
SOLID
  5
736
  8
DRG
  6
CONTINUOUS
 62
     7
 10
165.0467076242989
 20
55.479093148836768
 30
0.0
 11
145.0997007305034
 21
53.84006797904842
 31
0.0
 12
167.52163335736839
 22
53.601455089215932
 32
0.0
 13
167.52163335736839
 23
53.601455089215932
 33
0.0
210
0.0
220
0.0
230
1.0
  0
SOLID
  5
737
  8
DRG
  6
CONTINUOUS
 62
     7
 10
147.52643268124129
 20
55.591220224334457
 30
0.0
 11
145.0997007305034
 21
53.84006797904842
 31
0.0
 12
165.0467076242989
 22
55.479093148836768
 32
0.0
 13
165.0467076242989
 23
55.479093148836768
 33
0.0
210
0.0
220
0.0
230
1.0
  0
SOLID
  5
738
  8
DRG
  6
CONTINUOUS
 62
     7
 10
87.687510497446496
 20
55.591793607886558
 30
0.0
 11
85.261041575894609
 21
53.84129081468609
 31
0.0
 12
105.2523129779601
 22
55.452912136659961
 32
0.0
 13
105.2523129779601
 23
55.452912136659961
 33
0.0
  0
SOLID
  5
739
  8
DRG
  6
CONTINUOUS
 62
     7
 10
12.805281404658791
 20
56.352712835998311
 30
0.0
 11
10.42981956125807
 21
54.445496591066302
 31
0.0
 12
24.97349704072932
 22
55.367344616504027
 32
0.0
 13
24.97349704072932
 23
55.367344616504027
 33
0.0
210
0.0
220
0.0
230
1.0
  0
SOLID
  5
73A
  8
DRG
  6
CONTINUOUS
 62
     7
 10
131.36827517159969
 20
56.399981316747272
 30
0.0
 11
129.0836962561232
 21
55.014863471122233
 31
0.0
 12
136.6041529029215
 22
48.740104065808111
 32
0.0
 13
136.6041529029215
 23
48.740104065808111
 33
0.0
  0
SOLID
  5
73B
  8
DRG
  6
CONTINUOUS
 62
     7
 10
65.386364962769434
 20
56.65171720671551
 30
0.0
 11
50.46848239408844
 21
55.452912136660011
 31
0.0
 12
68.280536421539182
 22
55.452912136659961
 32
0.0
 13
68.280536421539182
 23
55.452912136659961
 33
0.0
210
0.0
220
0.0
230
1.0
  0
SOLID
  5
73C
  8
DRG
  6
CONTINUOUS
 62
     7
 10
102.3581415191904
 20
56.65171720671551
 30
0.0
 11
87.687510497446496
 21
55.591793607886558
 31
0.0
 12
105.2523129779601
 22
55.452912136659961
 32
0.0
 13
105.2523129779601
 23
55.452912136659961
 33
0.0
  0
SOLID
  5
73D
  8
DRG
  6
CONTINUOUS
 62
     7
 10
53.362653852858159
 20
56.651717206715531
 30
0.0
 11
50.46848239408844
 21
55.452912136660011
 31
0.0
 12
65.386364962769434
 22
56.65171720671551
 32
0.0
 13
65.386364962769434
 23
56.65171720671551
 33
0.0
210
0.0
220
0.0
230
1.0
  0
SOLID
  5
73E
  8
DRG
  6
CONTINUOUS
 62
     7
 10
162.1727205159668
 20
56.658491371782269
 30
0.0
 11
147.52643268124129
 21
55.591220224334457
 31
0.0
 12
165.0467076242989
 22
55.479093148836768
 32
0.0
 13
165.0467076242989
 23
55.479093148836768
 33
0.0
210
0.0
220
0.0
230
1.0
  0
SOLID
  5
73F
  8
DRG
  6
CONTINUOUS
 62
     7
 10
150.311001405843
 20
56.687458868459103
 30
0.0
 11
147.52643268124129
 21
55.591220224334457
 31
0.0
 12
162.1727205159668
 22
56.658491371782269
 32
0.0
 13
162.1727205159668
 23
56.658491371782269
 33
0.0
210
0.0
220
0.0
230
1.0
  0
SOLID
  5
740
  8
DRG
  6
CONTINUOUS
 62
     7
 10
90.47160907217058
 20
56.687606813902534
 30
0.0
 11
87.687510497446496
 21
55.591793607886558
 31
0.0
 12
102.3581415191904
 22
56.65171720671551
 32
0.0
 13
102.3581415191904
 23
56.65171720671551
 33
0.0
210
0.0
220
0.0
230
1.0
  0
SOLID
  5
741
  8
DRG
  6
CONTINUOUS
 62
     7
 10
23.111648298363178
 20
56.840696773085902
 30
0.0
 11
12.805281404658791
 21
56.352712835998311
 31
0.0
 12
24.97349704072932
 22
55.367344616504027
 32
0.0
 13
24.97349704072932
 23
55.367344616504027
 33
0.0
210
0.0
220
0.0
230
1.0
  0
SOLID
  5
742
  8
DRG
  6
CONTINUOUS
 62
     7
 10
90.47160907217058
 20
56.687606813902534
 30
0.0
 11
99.252312977960173
 21
57.06060729124669
 31
0.0
 12
93.440258950509346
 22
57.06060729124669
 32
0.0
 13
93.440258950509346
 23
57.06060729124669
 33
0.0
210
0.0
220
0.0
230
1.0
  0
SOLID
  5
743
  8
DRG
  6
CONTINUOUS
 62
     7
 10
99.252312977960173
 20
57.06060729124669
 30
0.0
 11
90.47160907217058
 21
56.687606813902534
 31
0.0
 12
102.3581415191904
 22
56.65171720671551
 32
0.0
 13
102.3581415191904
 23
56.65171720671551
 33
0.0
210
0.0
220
0.0
230
1.0
  0
SOLID
  5
744
  8
DRG
  6
CONTINUOUS
 62
     7
 10
27.267121908897021
 20
51.255838552818979
 30
0.0
 11
37.639779947293832
 21
57.06060729124669
 31
0.0
 12
27.267121908897028
 22
57.06060729124669
 32
0.0
 13
27.267121908897028
 23
57.06060729124669
 33
0.0
210
0.0
220
0.0
230
1.0
  0
SOLID
  5
745
  8
DRG
  6
CONTINUOUS
 62
     7
 10
37.639779947293832
 20
57.06060729124669
 30
0.0
 11
27.267121908897021
 21
51.255838552818979
 31
0.0
 12
37.639779947293839
 22
13.760967175618781
 32
0.0
 13
37.639779947293839
 23
13.760967175618781
 33
0.0
  0
SOLID
  5
746
  8
DRG
  6
CONTINUOUS
 62
     7
 10
150.311001405843
 20
56.687458868459103
 30
0.0
 11
159.0922846938046
 21
57.06060729124669
 31
0.0
 12
153.28023066635379
 22
57.06060729124669
 32
0.0
 13
153.28023066635379
 23
57.06060729124669
 33
0.0
210
0.0
220
0.0
230
1.0
  0
SOLID
  5
747
  8
DRG
  6
CONTINUOUS
 62
     7
 10
159.0922846938046
 20
57.06060729124669
 30
0.0
 11
150.311001405843
 21
56.687458868459103
 31
0.0
 12
162.1727205159668
 22
56.658491371782269
 32
0.0
 13
162.1727205159668
 23
56.658491371782269
 33
0.0
210
0.0
220
0.0
230
1.0
  0
SOLID
  5
748
  8
DRG
  6
CONTINUOUS
 62
     7
 10
53.362653852858159
 20
56.651717206715531
 30
0.0
 11
62.280536421539182
 21
57.06060729124669
 31
0.0
 12
56.468482394088369
 22
57.06060729124669
 32
0.0
 13
56.468482394088369
 23
57.06060729124669
 33
0.0
210
0.0
220
0.0
230
1.0
  0
SOLID
  5
749
  8
DRG
  6
CONTINUOUS
 62
     7
 10
62.280536421539182
 20
57.06060729124669
 30
0.0
 11
53.362653852858159
 21
56.651717206715531
 31
0.0
 12
65.386364962769434
 22
56.65171720671551
 32
0.0
 13
65.386364962769434
 23
56.65171720671551
 33
0.0
210
0.0
220
0.0
230
1.0
  0
SOLID
  5
74A
  8
DRG
  6
CONTINUOUS
 62
     7
 10
133.93314657289841
 20
57.147836223870669
 30
0.0
 11
131.36827517159969
 21
56.399981316747272
 31
0.0
 12
136.6041529029215
 22
48.740104065808111
 32
0.0
 13
136.6041529029215
 23
48.740104065808111
 33
0.0
210
0.0
220
0.0
230
1.0
  0
SOLID
  5
74B
  8
DRG
  6
CONTINUOUS
 62
     7
 10
127.2345352189994
 20
53.086533694841222
 30
0.0
 11
127.2345352189994
 21
57.207648031108022
 31
0.0
 12
116.19314081319391
 22
57.207648031108022
 32
0.0
 13
116.19314081319391
 23
57.207648031108022
 33
0.0
210
0.0
220
0.0
230
1.0
  0
SOLID
  5
74C
  8
DRG
  6
CONTINUOUS
 62
     7
 10
116.19314081319391
 20
57.207648031108022
 30
0.0
 11
116.19314081319391
 21
17.28637227261407
 31
0.0
 12
127.2345352189994
 22
53.086533694841222
 32
0.0
 13
127.2345352189994
 23
53.086533694841222
 33
0.0
210
0.0
220
0.0
230
1.0
  0
SOLID
  5
74D
  8
DRG
  6
CONTINUOUS
 62
     7
 10
136.6041529029215
 20
57.207648031108022
 30
0.0
 11
133.93314657289841
 21
57.147836223870669
 31
0.0
 12
136.6041529029215
 22
48.740104065808111
 32
0.0
 13
136.6041529029215
 23
48.740104065808111
 33
0.0
210
0.0
220
0.0
230
1.0
  0
SOLID
  5
74E
  8
DRG
  6
CONTINUOUS
 62
     7
 10
15.581604271471219
 20
57.606636323935128
 30
0.0
 11
12.805281404658791
 21
56.352712835998311
 31
0.0
 12
23.111648298363178
 22
56.840696773085902
 32
0.0
 13
23.111648298363178
 23
56.840696773085902
 33
0.0
210
0.0
220
0.0
230
1.0
  0
SOLID
  5
74F
  8
DRG
  6
CONTINUOUS
 62
     7
 10
20.932030560438331
 20
57.78224540872732
 30
0.0
 11
15.581604271471219
 21
57.606636323935128
 31
0.0
 12
23.111648298363178
 22
56.840696773085902
 32
0.0
 13
23.111648298363178
 23
56.840696773085902
 33
0.0
210
0.0
220
0.0
230
1.0
  0
SOLID
  5
750
  8
DRG
  6
CONTINUOUS
 62
     7
 10
18.58303542025671
 20
58.127888502333931
 30
0.0
 11
15.581604271471219
 21
57.606636323935128
 31
0.0
 12
20.932030560438331
 22
57.78224540872732
 32
0.0
 13
20.932030560438331
 23
57.78224540872732
 33
0.0
210
0.0
220
0.0
230
1.0
  0
SOLID
  5
751
  8
DRG
  6
CONTINUOUS
 62
     7
 10
82.673677075028507
 20
61.207576574819242
 30
0.0
 11
75.331191210151701
 21
60.89733173546756
 31
0.0
 12
80.675802928262684
 22
60.89733173546756
 32
0.0
 13
80.675802928262684
 23
60.89733173546756
 33
0.0
210
0.0
220
0.0
230
1.0
  0
SOLID
  5
752
  8
DRG
  6
CONTINUOUS
 62
     7
 10
72.859055255152114
 20
61.288879605106331
 30
0.0
 11
75.331191210151701
 21
60.89733173546756
 31
0.0
 12
82.673677075028507
 22
61.207576574819242
 32
0.0
 13
82.673677075028507
 23
61.207576574819242
 33
0.0
210
0.0
220
0.0
230
1.0
  0
SOLID
  5
753
  8
DRG
  6
CONTINUOUS
 62
     7
 10
106.7676596048646
 20
61.306220292551458
 30
0.0
 11
97.849782736700035
 21
60.89733173546756
 31
0.0
 12
103.66183676415081
 22
60.89733173546756
 32
0.0
 13
103.66183676415081
 23
60.89733173546756
 33
0.0
210
0.0
220
0.0
230
1.0
  0
SOLID
  5
754
  8
DRG
  6
CONTINUOUS
 62
     7
 10
50.75601976783048
 20
61.306220292551458
 30
0.0
 11
41.838142899665847
 21
60.89733173546756
 31
0.0
 12
47.650196927116667
 22
60.89733173546756
 32
0.0
 13
47.650196927116667
 23
60.89733173546756
 33
0.0
210
0.0
220
0.0
230
1.0
  0
SOLID
  5
755
  8
DRG
  6
CONTINUOUS
 62
     7
 10
38.732314358435659
 20
61.306221819998719
 30
0.0
 11
41.838142899665847
 21
60.89733173546756
 31
0.0
 12
50.75601976783048
 22
61.306220292551458
 32
0.0
 13
50.75601976783048
 23
61.306220292551458
 33
0.0
  0
SOLID
  5
756
  8
DRG
  6
CONTINUOUS
 62
     7
 10
94.743954195469783
 20
61.306221819998733
 30
0.0
 11
97.849782736700035
 21
60.89733173546756
 31
0.0
 12
106.7676596048646
 22
61.306220292551458
 32
0.0
 13
106.7676596048646
 23
61.306220292551458
 33
0.0
210
0.0
220
0.0
230
1.0
  0
SOLID
  5
757
  8
DRG
  6
CONTINUOUS
 62
     7
 10
84.501142256151084
 20
62.072518178885289
 30
0.0
 11
72.859055255152114
 21
61.288879605106331
 31
0.0
 12
82.673677075028507
 22
61.207576574819242
 32
0.0
 13
82.673677075028507
 23
61.207576574819242
 33
0.0
210
0.0
220
0.0
230
1.0
  0
SOLID
  5
758
  8
DRG
  6
CONTINUOUS
 62
     7
 10
70.628909191811914
 20
62.42519578046798
 30
0.0
 11
72.859055255152114
 21
61.288879605106331
 31
0.0
 12
84.501142256151084
 22
62.072518178885289
 32
0.0
 13
84.501142256151084
 23
62.072518178885289
 33
0.0
210
0.0
220
0.0
230
1.0
  0
SOLID
  5
759
  8
DRG
  6
CONTINUOUS
 62
     7
 10
109.66182654226211
 20
62.505020988450823
 30
0.0
 11
94.743954195469783
 21
61.306221819998733
 31
0.0
 12
106.7676596048646
 22
61.306220292551458
 32
0.0
 13
106.7676596048646
 23
61.306220292551458
 33
0.0
210
0.0
220
0.0
230
1.0
  0
SOLID
  5
75A
  8
DRG
  6
CONTINUOUS
 62
     7
 10
53.650186705228002
 20
62.505020988450823
 30
0.0
 11
38.732314358435659
 21
61.306221819998719
 31
0.0
 12
50.75601976783048
 22
61.306220292551458
 32
0.0
 13
50.75601976783048
 23
61.306220292551458
 33
0.0
210
0.0
220
0.0
230
1.0
  0
SOLID
  5
75B
  8
DRG
  6
CONTINUOUS
 62
     7
 10
35.838142899665947
 20
62.505026890054232
 30
0.0
 11
38.732314358435659
 21
61.306221819998719
 31
0.0
 12
53.650186705228002
 22
62.505020988450823
 32
0.0
 13
53.650186705228002
 23
62.505020988450823
 33
0.0
  0
SOLID
  5
75C
  8
DRG
  6
CONTINUOUS
 62
     7
 10
91.849782736700064
 20
62.505026890054282
 30
0.0
 11
94.743954195469783
 21
61.306221819998733
 31
0.0
 12
109.66182654226211
 22
62.505020988450823
 32
0.0
 13
109.66182654226211
 23
62.505020988450823
 33
0.0
210
0.0
220
0.0
230
1.0
  0
SOLID
  5
75D
  8
DRG
  6
CONTINUOUS
 62
     7
 10
68.859055255152114
 20
64.195049717127773
 30
0.0
 11
70.628909191811914
 21
62.42519578046798
 31
0.0
 12
84.501142256151084
 22
62.072518178885289
 32
0.0
 13
84.501142256151084
 23
62.072518178885289
 33
0.0
210
0.0
220
0.0
230
1.0
  0
SOLID
  5
75E
  8
DRG
  6
CONTINUOUS
 62
     7
 10
56.135465782143839
 20
64.412037842036057
 30
0.0
 11
35.838142899665947
 21
62.505026890054232
 31
0.0
 12
53.650186705228002
 22
62.505020988450823
 32
0.0
 13
53.650186705228002
 23
62.505020988450823
 33
0.0
210
0.0
220
0.0
230
1.0
  0
SOLID
  5
75F
  8
DRG
  6
CONTINUOUS
 62
     7
 10
112.14710561917801
 20
64.412037842036057
 30
0.0
 11
91.849782736700064
 21
62.505026890054282
 31
0.0
 12
109.66182654226211
 22
62.505020988450823
 32
0.0
 13
109.66182654226211
 23
62.505020988450823
 33
0.0
210
0.0
220
0.0
230
1.0
  0
SOLID
  5
760
  8
DRG
  6
CONTINUOUS
 62
     7
 10
33.352861525427407
 20
64.412050361228864
 30
0.0
 11
35.838142899665947
 21
62.505026890054232
 31
0.0
 12
56.135465782143839
 22
64.412037842036057
 32
0.0
 13
56.135465782143839
 23
64.412037842036057
 33
0.0
210
0.0
220
0.0
230
1.0
  0
SOLID
  5
761
  8
DRG
  6
CONTINUOUS
 62
     7
 10
89.364501362461496
 20
64.412050361228964
 30
0.0
 11
91.849782736700064
 21
62.505026890054282
 31
0.0
 12
112.14710561917801
 22
64.412037842036057
 32
0.0
 13
112.14710561917801
 23
64.412037842036057
 33
0.0
210
0.0
220
0.0
230
1.0
  0
SOLID
  5
762
  8
DRG
  6
CONTINUOUS
 62
     7
 10
67.722739079790472
 20
66.425195780467973
 30
0.0
 11
68.859055255152114
 21
64.195049717127773
 31
0.0
 12
84.501142256151084
 22
62.072518178885289
 32
0.0
 13
84.501142256151084
 23
62.072518178885289
 33
0.0
210
0.0
220
0.0
230
1.0
  0
SOLID
  5
763
  8
DRG
  6
CONTINUOUS
 62
     7
 10
114.054129806327
 20
66.897311291707624
 30
0.0
 11
89.364501362461496
 21
64.412050361228964
 31
0.0
 12
112.14710561917801
 22
64.412037842036057
 32
0.0
 13
112.14710561917801
 23
64.412037842036057
 33
0.0
  0
SOLID
  5
764
  8
DRG
  6
CONTINUOUS
 62
     7
 10
58.042489969292831
 20
66.897311291707624
 30
0.0
 11
33.352861525427407
 21
64.412050361228864
 31
0.0
 12
56.135465782143839
 22
64.412037842036057
 32
0.0
 13
56.135465782143839
 23
64.412037842036057
 33
0.0
210
0.0
220
0.0
230
1.0
  0
SOLID
  5
765
  8
DRG
  6
CONTINUOUS
 62
     7
 10
31.445838054252711
 20
66.897331735467347
 30
0.0
 11
33.352861525427407
 21
64.412050361228864
 31
0.0
 12
58.042489969292831
 22
66.897311291707624
 32
0.0
 13
58.042489969292831
 23
66.897311291707624
 33
0.0
210
0.0
220
0.0
230
1.0
  0
SOLID
  5
766
  8
DRG
  6
CONTINUOUS
 62
     7
 10
87.4574778912868
 20
66.897331735467517
 30
0.0
 11
89.364501362461496
 21
64.412050361228964
 31
0.0
 12
114.054129806327
 22
66.897311291707624
 32
0.0
 13
114.054129806327
 23
66.897311291707624
 33
0.0
210
0.0
220
0.0
230
1.0
  0
SOLID
  5
767
  8
DRG
  6
CONTINUOUS
 62
     7
 10
44.744171147941039
 20
68.794444026784149
 30
0.0
 11
31.445838054252711
 21
66.897331735467347
 31
0.0
 12
58.042489969292831
 22
66.897311291707624
 32
0.0
 13
58.042489969292831
 23
66.897311291707624
 33
0.0
210
0.0
220
0.0
230
1.0
  0
SOLID
  5
768
  8
DRG
  6
CONTINUOUS
 62
     7
 10
100.7558109849752
 20
68.794444026784163
 30
0.0
 11
87.4574778912868
 21
66.897331735467517
 31
0.0
 12
114.054129806327
 22
66.897311291707624
 32
0.0
 13
114.054129806327
 23
66.897311291707624
 33
0.0
210
0.0
220
0.0
230
1.0
  0
SOLID
  5
769
  8
DRG
  6
CONTINUOUS
 62
     7
 10
67.331191210151701
 20
68.89733173546756
 30
0.0
 11
67.722739079790472
 21
66.425195780467973
 31
0.0
 12
84.501142256151084
 22
62.072518178885289
 32
0.0
 13
84.501142256151084
 23
62.072518178885289
 33
0.0
210
0.0
220
0.0
230
1.0
  0
SOLID
  5
76A
  8
DRG
  6
CONTINUOUS
 62
     7
 10
46.221788157680002
 20
69.088360324271363
 30
0.0
 11
44.744171147941039
 21
68.794444026784149
 31
0.0
 12
58.042489969292831
 22
66.897311291707624
 32
0.0
 13
58.042489969292831
 23
66.897311291707624
 33
0.0
210
0.0
220
0.0
230
1.0
  0
SOLID
  5
76B
  8
DRG
  6
CONTINUOUS
 62
     7
 10
102.23342799471411
 20
69.088360324271378
 30
0.0
 11
100.7558109849752
 21
68.794444026784163
 31
0.0
 12
114.054129806327
 22
66.897311291707624
 32
0.0
 13
114.054129806327
 23
66.897311291707624
 33
0.0
210
0.0
220
0.0
230
1.0
  0
SOLID
  5
76C
  8
DRG
  6
CONTINUOUS
 62
     7
 10
43.266554138202238
 20
69.088360324272159
 30
0.0
 11
31.445838054252711
 21
66.897331735467347
 31
0.0
 12
44.744171147941039
 22
68.794444026784149
 32
0.0
 13
44.744171147941039
 23
68.794444026784149
 33
0.0
210
0.0
220
0.0
230
1.0
  0
SOLID
  5
76D
  8
DRG
  6
CONTINUOUS
 62
     7
 10
99.278193975236434
 20
69.088360324272173
 30
0.0
 11
87.4574778912868
 21
66.897331735467517
 31
0.0
 12
100.7558109849752
 22
68.794444026784163
 32
0.0
 13
100.7558109849752
 23
68.794444026784163
 33
0.0
210
0.0
220
0.0
230
1.0
  0
SOLID
  5
76E
  8
DRG
  6
CONTINUOUS
 62
     7
 10
115.2529390423412
 20
69.79147469166638
 30
0.0
 11
102.23342799471411
 21
69.088360324271378
 31
0.0
 12
114.054129806327
 22
66.897311291707624
 32
0.0
 13
114.054129806327
 23
66.897311291707624
 33
0.0
210
0.0
220
0.0
230
1.0
  0
SOLID
  5
76F
  8
DRG
  6
CONTINUOUS
 62
     7
 10
59.241299205307058
 20
69.79147469166638
 30
0.0
 11
46.221788157680002
 21
69.088360324271363
 31
0.0
 12
58.042489969292831
 22
66.897311291707624
 32
0.0
 13
58.042489969292831
 23
66.897311291707624
 33
0.0
210
0.0
220
0.0
230
1.0
  0
SOLID
  5
770
  8
DRG
  6
CONTINUOUS
 62
     7
 10
30.247032984197109
 20
69.791503194237023
 30
0.0
 11
31.445838054252711
 21
66.897331735467347
 31
0.0
 12
43.266554138202238
 22
69.088360324272159
 32
0.0
 13
43.266554138202238
 23
69.088360324272159
 33
0.0
210
0.0
220
0.0
230
1.0
  0
SOLID
  5
771
  8
DRG
  6
CONTINUOUS
 62
     7
 10
86.258672821231215
 20
69.791503194237237
 30
0.0
 11
87.4574778912868
 21
66.897331735467517
 31
0.0
 12
99.278193975236434
 22
69.088360324272173
 32
0.0
 13
99.278193975236434
 23
69.088360324272173
 33
0.0
210
0.0
220
0.0
230
1.0
  0
SOLID
  5
772
  8
DRG
  6
CONTINUOUS
 62
     7
 10
80.482556033578916
 20
69.876055965300111
 30
0.0
 11
67.331191210151701
 21
68.89733173546756
 31
0.0
 12
84.501142256151084
 22
62.072518178885289
 32
0.0
 13
84.501142256151084
 23
62.072518178885289
 33
0.0
210
0.0
220
0.0
230
1.0
  0
SOLID
  5
773
  8
DRG
  6
CONTINUOUS
 62
     7
 10
84.501142256151084
 20
62.072518178885289
 30
0.0
 11
83.501142256151255
 21
69.876055965300111
 31
0.0
 12
80.482556033578916
 22
69.876055965300111
 32
0.0
 13
80.482556033578916
 23
69.876055965300111
 33
0.0
210
0.0
220
0.0
230
1.0
  0
SOLID
  5
774
  8
DRG
  6
CONTINUOUS
 62
     7
 10
47.474451372317922
 20
69.925363124799233
 30
0.0
 11
46.221788157680002
 21
69.088360324271363
 31
0.0
 12
59.241299205307058
 22
69.79147469166638
 32
0.0
 13
59.241299205307058
 23
69.79147469166638
 33
0.0
210
0.0
220
0.0
230
1.0
  0
SOLID
  5
775
  8
DRG
  6
CONTINUOUS
 62
     7
 10
103.4860912093521
 20
69.925363124799233
 30
0.0
 11
102.23342799471411
 21
69.088360324271378
 31
0.0
 12
115.2529390423412
 22
69.79147469166638
 32
0.0
 13
115.2529390423412
 23
69.79147469166638
 33
0.0
210
0.0
220
0.0
230
1.0
  0
SOLID
  5
776
  8
DRG
  6
CONTINUOUS
 62
     7
 10
42.01389092356478
 20
69.925363124800725
 30
0.0
 11
30.247032984197109
 21
69.791503194237023
 31
0.0
 12
43.266554138202238
 22
69.088360324272159
 32
0.0
 13
43.266554138202238
 23
69.088360324272159
 33
0.0
210
0.0
220
0.0
230
1.0
  0
SOLID
  5
777
  8
DRG
  6
CONTINUOUS
 62
     7
 10
98.025530760598997
 20
69.925363124800725
 30
0.0
 11
86.258672821231215
 21
69.791503194237237
 31
0.0
 12
99.278193975236434
 22
69.088360324272173
 32
0.0
 13
99.278193975236434
 23
69.088360324272173
 33
0.0
210
0.0
220
0.0
230
1.0
  0
SOLID
  5
778
  8
DRG
  6
CONTINUOUS
 62
     7
 10
84.015250681967487
 20
70.00375669518948
 30
0.0
 11
83.501142256151255
 21
69.876055965300111
 31
0.0
 12
84.501142256151084
 22
62.072518178885289
 32
0.0
 13
84.501142256151084
 23
62.072518178885289
 33
0.0
  0
SOLID
  5
779
  8
DRG
  6
CONTINUOUS
 62
     7
 10
84.501142256151084
 20
70.214764581409185
 30
0.0
 11
84.015250681967487
 21
70.00375669518948
 31
0.0
 12
84.501142256151084
 22
62.072518178885289
 32
0.0
 13
84.501142256151084
 23
62.072518178885289
 33
0.0
210
0.0
220
0.0
230
1.0
  0
SOLID
  5
77A
  8
DRG
  6
CONTINUOUS
 62
     7
 10
78.982556033578931
 20
70.277979753946795
 30
0.0
 11
67.331191210151701
 21
68.89733173546756
 31
0.0
 12
80.482556033578916
 22
69.876055965300111
 32
0.0
 13
80.482556033578916
 23
69.876055965300111
 33
0.0
210
0.0
220
0.0
230
1.0
  0
SOLID
  5
77B
  8
DRG
  6
CONTINUOUS
 62
     7
 10
48.311454172846467
 20
71.178026339436684
 30
0.0
 11
47.474451372317922
 21
69.925363124799233
 31
0.0
 12
59.241299205307058
 22
69.79147469166638
 32
0.0
 13
59.241299205307058
 23
69.79147469166638
 33
0.0
210
0.0
220
0.0
230
1.0
  0
SOLID
  5
77C
  8
DRG
  6
CONTINUOUS
 62
     7
 10
104.32309400988061
 20
71.178026339436713
 30
0.0
 11
103.4860912093521
 21
69.925363124799233
 31
0.0
 12
115.2529390423412
 22
69.79147469166638
 32
0.0
 13
115.2529390423412
 23
69.79147469166638
 33
0.0
210
0.0
220
0.0
230
1.0
  0
SOLID
  5
77D
  8
DRG
  6
CONTINUOUS
 62
     7
 10
41.17688812303691
 20
71.178026339438631
 30
0.0
 11
30.247032984197109
 21
69.791503194237023
 31
0.0
 12
42.01389092356478
 22
69.925363124800725
 32
0.0
 13
42.01389092356478
 23
69.925363124800725
 33
0.0
210
0.0
220
0.0
230
1.0
  0
SOLID
  5
77E
  8
DRG
  6
CONTINUOUS
 62
     7
 10
97.188527960071099
 20
71.178026339438631
 30
0.0
 11
86.258672821231215
 21
69.791503194237237
 31
0.0
 12
98.025530760598997
 22
69.925363124800725
 32
0.0
 13
98.025530760598997
 23
69.925363124800725
 33
0.0
  0
SOLID
  5
77F
  8
DRG
  6
CONTINUOUS
 62
     7
 10
77.884479822225614
 20
71.376055965300111
 30
0.0
 11
67.331191210151701
 21
68.89733173546756
 31
0.0
 12
78.982556033578931
 22
70.277979753946795
 32
0.0
 13
78.982556033578931
 23
70.277979753946795
 33
0.0
210
0.0
220
0.0
230
1.0
  0
SOLID
  5
780
  8
DRG
  6
CONTINUOUS
 62
     7
 10
48.605370470334492
 20
72.655643349175492
 30
0.0
 11
48.311454172846467
 21
71.178026339436684
 31
0.0
 12
59.241299205307058
 22
69.79147469166638
 32
0.0
 13
59.241299205307058
 23
69.79147469166638
 33
0.0
210
0.0
220
0.0
230
1.0
  0
SOLID
  5
781
  8
DRG
  6
CONTINUOUS
 62
     7
 10
104.6170103073686
 20
72.655643349175506
 30
0.0
 11
104.32309400988061
 21
71.178026339436713
 31
0.0
 12
115.2529390423412
 22
69.79147469166638
 32
0.0
 13
115.2529390423412
 23
69.79147469166638
 33
0.0
  0
SOLID
  5
782
  8
DRG
  6
CONTINUOUS
 62
     7
 10
40.882971825549703
 20
72.655643349177566
 30
0.0
 11
30.247032984197109
 21
69.791503194237023
 31
0.0
 12
41.17688812303691
 22
71.178026339438631
 32
0.0
 13
41.17688812303691
 23
71.178026339438631
 33
0.0
210
0.0
220
0.0
230
1.0
  0
SOLID
  5
783
  8
DRG
  6
CONTINUOUS
 62
     7
 10
96.894611662583884
 20
72.655643349177595
 30
0.0
 11
86.258672821231215
 21
69.791503194237237
 31
0.0
 12
97.188527960071099
 22
71.178026339438631
 32
0.0
 13
97.188527960071099
 23
71.178026339438631
 33
0.0
210
0.0
220
0.0
230
1.0
  0
SOLID
  5
784
  8
DRG
  6
CONTINUOUS
 62
     7
 10
77.482556033578931
 20
72.876055965300111
 30
0.0
 11
67.331191210151701
 21
68.89733173546756
 31
0.0
 12
77.884479822225614
 22
71.376055965300111
 32
0.0
 13
77.884479822225614
 23
71.376055965300111
 33
0.0
210
0.0
220
0.0
230
1.0
  0
SOLID
  5
785
  8
DRG
  6
CONTINUOUS
 62
     7
 10
115.6618367640986
 20
72.897296325816527
 30
0.0
 11
104.6170103073686
 21
72.655643349175506
 31
0.0
 12
115.2529390423412
 22
69.79147469166638
 32
0.0
 13
115.2529390423412
 23
69.79147469166638
 33
0.0
210
0.0
220
0.0
230
1.0
  0
SOLID
  5
786
  8
DRG
  6
CONTINUOUS
 62
     7
 10
59.650196927064421
 20
72.897296325816555
 30
0.0
 11
48.605370470334492
 21
72.655643349175492
 31
0.0
 12
59.241299205307058
 22
69.79147469166638
 32
0.0
 13
59.241299205307058
 23
69.79147469166638
 33
0.0
210
0.0
220
0.0
230
1.0
  0
SOLID
  5
787
  8
DRG
  6
CONTINUOUS
 62
     7
 10
29.838142899665851
 20
72.897331735467191
 30
0.0
 11
30.247032984197109
 21
69.791503194237023
 31
0.0
 12
40.882971825549703
 22
72.655643349177566
 32
0.0
 13
40.882971825549703
 23
72.655643349177566
 33
0.0
210
0.0
220
0.0
230
1.0
  0
SOLID
  5
788
  8
DRG
  6
CONTINUOUS
 62
     7
 10
85.849782736700035
 20
72.897331735467475
 30
0.0
 11
86.258672821231215
 21
69.791503194237237
 31
0.0
 12
96.894611662583884
 22
72.655643349177595
 32
0.0
 13
96.894611662583884
 23
72.655643349177595
 33
0.0
210
0.0
220
0.0
230
1.0
  0
SOLID
  5
789
  8
DRG
  6
CONTINUOUS
 62
     7
 10
165.4162645291251
 20
78.311404477182364
 30
0.0
 11
161.3332883364622
 21
62.115696081838678
 31
0.0
 12
171.78072804963571
 22
62.115696081838678
 32
0.0
 13
171.78072804963571
 23
62.115696081838678
 33
0.0
210
0.0
220
0.0
230
1.0
  0
SOLID
  5
78A
  8
DRG
  6
CONTINUOUS
 62
     7
 10
104.83699487280531
 20
81.496816718755184
 30
0.0
 11
104.6170103073686
 21
72.655643349175506
 31
0.0
 12
115.6618367640986
 22
72.897296325816527
 32
0.0
 13
115.6618367640986
 23
72.897296325816527
 33
0.0
210
0.0
220
0.0
230
1.0
  0
SOLID
  5
78B
  8
DRG
  6
CONTINUOUS
 62
     7
 10
48.825355035771203
 20
81.496816718755184
 30
0.0
 11
48.605370470334492
 21
72.655643349175492
 31
0.0
 12
59.650196927064421
 22
72.897296325816555
 32
0.0
 13
59.650196927064421
 23
72.897296325816555
 33
0.0
210
0.0
220
0.0
230
1.0
  0
SOLID
  5
78C
  8
DRG
  6
CONTINUOUS
 62
     7
 10
115.9613008061006
 20
81.496816718755412
 30
0.0
 11
104.83699487280531
 21
81.496816718755184
 31
0.0
 12
115.6618367640986
 22
72.897296325816527
 32
0.0
 13
115.6618367640986
 23
72.897296325816527
 33
0.0
210
0.0
220
0.0
230
1.0
  0
SOLID
  5
78D
  8
DRG
  6
CONTINUOUS
 62
     7
 10
59.9496609690664
 20
81.49681671875544
 30
0.0
 11
48.825355035771203
 21
81.496816718755184
 31
0.0
 12
59.650196927064421
 22
72.897296325816555
 32
0.0
 13
59.650196927064421
 23
72.897296325816555
 33
0.0
210
0.0
220
0.0
230
1.0
  0
SOLID
  5
78E
  8
DRG
  6
CONTINUOUS
 62
     7
 10
29.538681326817759
 20
81.496816718755596
 30
0.0
 11
29.838142899665851
 21
72.897331735467191
 31
0.0
 12
40.882971825549703
 22
72.655643349177566
 32
0.0
 13
40.882971825549703
 23
72.655643349177566
 33
0.0
  0
SOLID
  5
78F
  8
DRG
  6
CONTINUOUS
 62
     7
 10
85.550321163851976
 20
81.496816718755767
 30
0.0
 11
85.849782736700035
 21
72.897331735467475
 31
0.0
 12
96.894611662583884
 22
72.655643349177595
 32
0.0
 13
96.894611662583884
 23
72.655643349177595
 33
0.0
210
0.0
220
0.0
230
1.0
  0
SOLID
  5
790
  8
DRG
  6
CONTINUOUS
 62
     7
 10
40.662987260112992
 20
81.496816718755866
 30
0.0
 11
29.538681326817759
 21
81.496816718755596
 31
0.0
 12
40.882971825549703
 22
72.655643349177566
 32
0.0
 13
40.882971825549703
 23
72.655643349177566
 33
0.0
210
0.0
220
0.0
230
1.0
  0
SOLID
  5
791
  8
DRG
  6
CONTINUOUS
 62
     7
 10
96.674627097147194
 20
81.496816718756293
 30
0.0
 11
85.550321163851976
 21
81.496816718755767
 31
0.0
 12
96.894611662583884
 22
72.655643349177595
 32
0.0
 13
96.894611662583884
 23
72.655643349177595
 33
0.0
210
0.0
220
0.0
230
1.0
  0
SOLID
  5
792
  8
DRG
  6
CONTINUOUS
 62
     7
 10
153.2899770207527
 20
82.583583780839575
 30
0.0
 11
161.3332883364622
 21
62.115696081838678
 31
0.0
 12
165.4162645291251
 22
78.311404477182364
 32
0.0
 13
165.4162645291251
 23
78.311404477182364
 33
0.0
210
0.0
220
0.0
230
1.0
  0
SOLID
  5
793
  8
DRG
  6
CONTINUOUS
 62
     7
 10
18.821661727211438
 20
85.569427875032716
 30
0.0
 11
7.7802673214059723
 21
62.115696081838671
 31
0.0
 12
18.821661727211438
 22
62.115696081838678
 32
0.0
 13
18.821661727211438
 23
62.115696081838678
 33
0.0
  0
SOLID
  5
794
  8
DRG
  6
CONTINUOUS
 62
     7
 10
130.05101171535759
 20
85.569427875032716
 30
0.0
 11
119.0096173095521
 21
62.115696081838678
 31
0.0
 12
130.05101171535759
 22
62.115696081838671
 32
0.0
 13
130.05101171535759
 23
62.115696081838671
 33
0.0
210
0.0
220
0.0
230
1.0
  0
SOLID
  5
795
  8
DRG
  6
CONTINUOUS
 62
     7
 10
176.9709164189357
 20
86.855763084496857
 30
0.0
 11
153.2899770207527
 21
82.583583780839575
 31
0.0
 12
165.4162645291251
 22
78.311404477182364
 32
0.0
 13
165.4162645291251
 23
78.311404477182364
 33
0.0
210
0.0
220
0.0
230
1.0
  0
SOLID
  5
796
  8
DRG
  6
CONTINUOUS
 62
     7
 10
176.9709164189357
 20
86.855763084496857
 30
0.0
 11
165.4162645291251
 21
78.311404477182364
 31
0.0
 12
176.9709164189357
 22
78.31140447718235
 32
0.0
 13
176.9709164189357
 23
78.31140447718235
 33
0.0
210
0.0
220
0.0
230
1.0
  0
SOLID
  5
797
  8
DRG
  6
CONTINUOUS
 62
     7
 10
165.4162645291251
 20
86.855763084496886
 30
0.0
 11
153.2899770207527
 21
82.583583780839575
 31
0.0
 12
176.9709164189357
 22
86.855763084496857
 32
0.0
 13
176.9709164189357
 23
86.855763084496857
 33
0.0
210
0.0
220
0.0
230
1.0
  0
SOLID
  5
798
  8
DRG
  6
CONTINUOUS
 62
     7
 10
19.213209596850209
 20
88.041563830032288
 30
0.0
 11
7.7802673214059723
 21
62.115696081838671
 31
0.0
 12
18.821661727211438
 22
85.569427875032716
 32
0.0
 13
18.821661727211438
 23
85.569427875032716
 33
0.0
210
0.0
220
0.0
230
1.0
  0
SOLID
  5
799
  8
DRG
  6
CONTINUOUS
 62
     7
 10
130.4425595849963
 20
88.041563830032288
 30
0.0
 11
119.0096173095521
 21
62.115696081838678
 31
0.0
 12
130.05101171535759
 22
85.569427875032716
 32
0.0
 13
130.05101171535759
 23
85.569427875032716
 33
0.0
  0
SOLID
  5
79A
  8
DRG
  6
CONTINUOUS
 62
     7
 10
29.83814289966584
 20
90.096301702044016
 30
0.0
 11
29.538681326817759
 21
81.496816718755596
 31
0.0
 12
40.662987260112992
 22
81.496816718755866
 32
0.0
 13
40.662987260112992
 23
81.496816718755866
 33
0.0
210
0.0
220
0.0
230
1.0
  0
SOLID
  5
79B
  8
DRG
  6
CONTINUOUS
 62
     7
 10
85.849782736700035
 20
90.096301702044045
 30
0.0
 11
85.550321163851976
 21
81.496816718755767
 31
0.0
 12
96.674627097147194
 22
81.496816718756293
 32
0.0
 13
96.674627097147194
 23
81.496816718756293
 33
0.0
210
0.0
220
0.0
230
1.0
  0
SOLID
  5
79C
  8
DRG
  6
CONTINUOUS
 62
     7
 10
115.6618367640986
 20
90.096337111694325
 30
0.0
 11
104.83699487280531
 21
81.496816718755184
 31
0.0
 12
115.9613008061006
 22
81.496816718755412
 32
0.0
 13
115.9613008061006
 23
81.496816718755412
 33
0.0
210
0.0
220
0.0
230
1.0
  0
SOLID
  5
79D
  8
DRG
  6
CONTINUOUS
 62
     7
 10
59.650196927064421
 20
90.096337111694368
 30
0.0
 11
48.825355035771203
 21
81.496816718755184
 31
0.0
 12
59.9496609690664
 22
81.49681671875544
 32
0.0
 13
59.9496609690664
 23
81.49681671875544
 33
0.0
210
0.0
220
0.0
230
1.0
  0
SOLID
  5
79E
  8
DRG
  6
CONTINUOUS
 62
     7
 10
40.882971825549703
 20
90.337990088334166
 30
0.0
 11
29.83814289966584
 21
90.096301702044016
 31
0.0
 12
40.662987260112992
 22
81.496816718755866
 32
0.0
 13
40.662987260112992
 23
81.496816718755866
 33
0.0
  0
SOLID
  5
79F
  8
DRG
  6
CONTINUOUS
 62
     7
 10
48.605370470334456
 20
90.337990088334735
 30
0.0
 11
48.825355035771203
 21
81.496816718755184
 31
0.0
 12
59.650196927064421
 22
90.096337111694368
 32
0.0
 13
59.650196927064421
 23
90.096337111694368
 33
0.0
210
0.0
220
0.0
230
1.0
  0
SOLID
  5
7A0
  8
DRG
  6
CONTINUOUS
 62
     7
 10
104.6170103073686
 20
90.337990088334735
 30
0.0
 11
104.83699487280531
 21
81.496816718755184
 31
0.0
 12
115.6618367640986
 22
90.096337111694325
 32
0.0
 13
115.6618367640986
 23
90.096337111694325
 33
0.0
210
0.0
220
0.0
230
1.0
  0
SOLID
  5
7A1
  8
DRG
  6
CONTINUOUS
 62
     7
 10
96.894611662583884
 20
90.337990088335033
 30
0.0
 11
85.849782736700035
 21
90.096301702044045
 31
0.0
 12
96.674627097147194
 22
81.496816718756293
 32
0.0
 13
96.674627097147194
 23
81.496816718756293
 33
0.0
210
0.0
220
0.0
230
1.0
  0
SOLID
  5
7A2
  8
DRG
  6
CONTINUOUS
 62
     7
 10
41.176888123037209
 20
91.815607098073087
 30
0.0
 11
29.83814289966584
 21
90.096301702044016
 31
0.0
 12
40.882971825549703
 22
90.337990088334166
 32
0.0
 13
40.882971825549703
 23
90.337990088334166
 33
0.0
210
0.0
220
0.0
230
1.0
  0
SOLID
  5
7A3
  8
DRG
  6
CONTINUOUS
 62
     7
 10
48.311454172846773
 20
91.815607098073613
 30
0.0
 11
48.605370470334456
 21
90.337990088334735
 31
0.0
 12
59.650196927064421
 22
90.096337111694368
 32
0.0
 13
59.650196927064421
 23
90.096337111694368
 33
0.0
210
0.0
220
0.0
230
1.0
  0
SOLID
  5
7A4
  8
DRG
  6
CONTINUOUS
 62
     7
 10
104.3230940098811
 20
91.815607098073656
 30
0.0
 11
104.6170103073686
 21
90.337990088334735
 31
0.0
 12
115.6618367640986
 22
90.096337111694325
 32
0.0
 13
115.6618367640986
 23
90.096337111694325
 33
0.0
210
0.0
220
0.0
230
1.0
  0
SOLID
  5
7A5
  8
DRG
  6
CONTINUOUS
 62
     7
 10
97.188527960071553
 20
91.815607098073897
 30
0.0
 11
85.849782736700035
 21
90.096301702044045
 31
0.0
 12
96.894611662583884
 22
90.337990088335033
 32
0.0
 13
96.894611662583884
 23
90.337990088335033
 33
0.0
210
0.0
220
0.0
230
1.0
  0
SOLID
  5
7A6
  8
DRG
  6
CONTINUOUS
 62
     7
 10
42.013890923565327
 20
93.068270312710808
 30
0.0
 11
29.83814289966584
 21
90.096301702044016
 31
0.0
 12
41.176888123037209
 22
91.815607098073087
 32
0.0
 13
41.176888123037209
 23
91.815607098073087
 33
0.0
210
0.0
220
0.0
230
1.0
  0
SOLID
  5
7A7
  8
DRG
  6
CONTINUOUS
 62
     7
 10
47.474451372318462
 20
93.068270312711235
 30
0.0
 11
48.311454172846773
 21
91.815607098073613
 31
0.0
 12
59.650196927064421
 22
90.096337111694368
 32
0.0
 13
59.650196927064421
 23
90.096337111694368
 33
0.0
210
0.0
220
0.0
230
1.0
  0
SOLID
  5
7A8
  8
DRG
  6
CONTINUOUS
 62
     7
 10
103.48609120935291
 20
93.068270312711363
 30
0.0
 11
104.3230940098811
 21
91.815607098073656
 31
0.0
 12
115.6618367640986
 22
90.096337111694325
 32
0.0
 13
115.6618367640986
 23
90.096337111694325
 33
0.0
210
0.0
220
0.0
230
1.0
  0
SOLID
  5
7A9
  8
DRG
  6
CONTINUOUS
 62
     7
 10
98.025530760599821
 20
93.068270312711576
 30
0.0
 11
85.849782736700035
 21
90.096301702044045
 31
0.0
 12
97.188527960071553
 22
91.815607098073897
 32
0.0
 13
97.188527960071553
 23
91.815607098073897
 33
0.0
  0
SOLID
  5
7AA
  8
DRG
  6
CONTINUOUS
 62
     7
 10
30.24703298419708
 20
93.202130243274198
 30
0.0
 11
29.83814289966584
 21
90.096301702044016
 31
0.0
 12
42.013890923565327
 22
93.068270312710808
 32
0.0
 13
42.013890923565327
 23
93.068270312710808
 33
0.0
210
0.0
220
0.0
230
1.0
  0
SOLID
  5
7AB
  8
DRG
  6
CONTINUOUS
 62
     7
 10
86.258672821231272
 20
93.202130243274198
 30
0.0
 11
85.849782736700035
 21
90.096301702044045
 31
0.0
 12
98.025530760599821
 22
93.068270312711576
 32
0.0
 13
98.025530760599821
 23
93.068270312711576
 33
0.0
210
0.0
220
0.0
230
1.0
  0
SOLID
  5
7AC
  8
DRG
  6
CONTINUOUS
 62
     7
 10
115.2529390423413
 20
93.202158745844599
 30
0.0
 11
103.48609120935291
 21
93.068270312711363
 31
0.0
 12
115.6618367640986
 22
90.096337111694325
 32
0.0
 13
115.6618367640986
 23
90.096337111694325
 33
0.0
  0
SOLID
  5
7AD
  8
DRG
  6
CONTINUOUS
 62
     7
 10
59.241299205307143
 20
93.202158745844642
 30
0.0
 11
47.474451372318462
 21
93.068270312711235
 31
0.0
 12
59.650196927064421
 22
90.096337111694368
 32
0.0
 13
59.650196927064421
 23
90.096337111694368
 33
0.0
210
0.0
220
0.0
230
1.0
  0
SOLID
  5
7AE
  8
DRG
  6
CONTINUOUS
 62
     7
 10
43.266554138202949
 20
93.905273113239119
 30
0.0
 11
30.24703298419708
 21
93.202130243274198
 31
0.0
 12
42.013890923565327
 22
93.068270312710808
 32
0.0
 13
42.013890923565327
 23
93.068270312710808
 33
0.0
210
0.0
220
0.0
230
1.0
  0
SOLID
  5
7AF
  8
DRG
  6
CONTINUOUS
 62
     7
 10
46.221788157680713
 20
93.90527311323936
 30
0.0
 11
47.474451372318462
 21
93.068270312711235
 31
0.0
 12
59.241299205307143
 22
93.202158745844642
 32
0.0
 13
59.241299205307143
 23
93.202158745844642
 33
0.0
210
0.0
220
0.0
230
1.0
  0
SOLID
  5
7B0
  8
DRG
  6
CONTINUOUS
 62
     7
 10
102.2334279947152
 20
93.905273113239616
 30
0.0
 11
103.48609120935291
 21
93.068270312711363
 31
0.0
 12
115.2529390423413
 22
93.202158745844599
 32
0.0
 13
115.2529390423413
 23
93.202158745844599
 33
0.0
210
0.0
220
0.0
230
1.0
  0
SOLID
  5
7B1
  8
DRG
  6
CONTINUOUS
 62
     7
 10
99.278193975237528
 20
93.905273113239744
 30
0.0
 11
86.258672821231272
 21
93.202130243274198
 31
0.0
 12
98.025530760599821
 22
93.068270312711576
 32
0.0
 13
98.025530760599821
 23
93.068270312711576
 33
0.0
210
0.0
220
0.0
230
1.0
  0
SOLID
  5
7B2
  8
DRG
  6
CONTINUOUS
 62
     7
 10
44.744171147941813
 20
94.199189410726845
 30
0.0
 11
30.24703298419708
 21
93.202130243274198
 31
0.0
 12
43.266554138202949
 22
93.905273113239119
 32
0.0
 13
43.266554138202949
 23
93.905273113239119
 33
0.0
210
0.0
220
0.0
230
1.0
  0
SOLID
  5
7B3
  8
DRG
  6
CONTINUOUS
 62
     7
 10
44.744171147941813
 20
94.199189410726845
 30
0.0
 11
46.221788157680713
 21
93.90527311323936
 31
0.0
 12
59.241299205307143
 22
93.202158745844642
 32
0.0
 13
59.241299205307143
 23
93.202158745844642
 33
0.0
210
0.0
220
0.0
230
1.0
  0
SOLID
  5
7B4
  8
DRG
  6
CONTINUOUS
 62
     7
 10
100.75581098497641
 20
94.199189410727286
 30
0.0
 11
86.258672821231272
 21
93.202130243274198
 31
0.0
 12
99.278193975237528
 22
93.905273113239744
 32
0.0
 13
99.278193975237528
 23
93.905273113239744
 33
0.0
210
0.0
220
0.0
230
1.0
  0
SOLID
  5
7B5
  8
DRG
  6
CONTINUOUS
 62
     7
 10
100.75581098497641
 20
94.199189410727286
 30
0.0
 11
102.2334279947152
 21
93.905273113239616
 31
0.0
 12
115.2529390423413
 22
93.202158745844599
 32
0.0
 13
115.2529390423413
 23
93.202158745844599
 33
0.0
210
0.0
220
0.0
230
1.0
  0
SOLID
  5
7B6
  8
DRG
  6
CONTINUOUS
 62
     7
 10
77.482556033578931
 20
94.593352860836134
 30
0.0
 11
67.331191210151701
 21
68.89733173546756
 31
0.0
 12
77.482556033578931
 22
72.876055965300111
 32
0.0
 13
77.482556033578931
 23
72.876055965300111
 33
0.0
210
0.0
220
0.0
230
1.0
  0
SOLID
  5
7B7
  8
DRG
  6
CONTINUOUS
 62
     7
 10
67.331191210151687
 20
94.593352860836134
 30
0.0
 11
77.482556033578931
 21
94.593352860836134
 31
0.0
 12
84.553623006881026
 22
94.593352860836134
 32
0.0
 13
84.553623006881026
 23
94.593352860836134
 33
0.0
210
0.0
220
0.0
230
1.0
  0
SOLID
  5
7B8
  8
DRG
  6
CONTINUOUS
 62
     7
 10
67.331191210151687
 20
94.593352860836134
 30
0.0
 11
67.331191210151701
 21
68.89733173546756
 31
0.0
 12
77.482556033578931
 22
94.593352860836134
 32
0.0
 13
77.482556033578931
 23
94.593352860836134
 33
0.0
210
0.0
220
0.0
230
1.0
  0
SOLID
  5
7B9
  8
DRG
  6
CONTINUOUS
 62
     7
 10
87.457477891286857
 20
96.096301702043917
 30
0.0
 11
86.258672821231272
 21
93.202130243274198
 31
0.0
 12
100.75581098497641
 22
94.199189410727286
 32
0.0
 13
100.75581098497641
 23
94.199189410727286
 33
0.0
  0
SOLID
  5
7BA
  8
DRG
  6
CONTINUOUS
 62
     7
 10
31.445838054252661
 20
96.096301702043917
 30
0.0
 11
30.24703298419708
 21
93.202130243274198
 31
0.0
 12
44.744171147941813
 22
94.199189410726845
 32
0.0
 13
44.744171147941813
 23
94.199189410726845
 33
0.0
210
0.0
220
0.0
230
1.0
  0
SOLID
  5
7BB
  8
DRG
  6
CONTINUOUS
 62
     7
 10
114.0541298063271
 20
96.096322145803441
 30
0.0
 11
87.457477891286857
 21
96.096301702043917
 31
0.0
 12
100.75581098497641
 22
94.199189410727286
 32
0.0
 13
100.75581098497641
 23
94.199189410727286
 33
0.0
210
0.0
220
0.0
230
1.0
  0
SOLID
  5
7BC
  8
DRG
  6
CONTINUOUS
 62
     7
 10
114.0541298063271
 20
96.096322145803441
 30
0.0
 11
100.75581098497641
 21
94.199189410727286
 31
0.0
 12
115.2529390423413
 22
93.202158745844599
 32
0.0
 13
115.2529390423413
 23
93.202158745844599
 33
0.0
210
0.0
220
0.0
230
1.0
  0
SOLID
  5
7BD
  8
DRG
  6
CONTINUOUS
 62
     7
 10
58.042489969292951
 20
96.09632214580347
 30
0.0
 11
31.445838054252661
 21
96.096301702043917
 31
0.0
 12
44.744171147941813
 22
94.199189410726845
 32
0.0
 13
44.744171147941813
 23
94.199189410726845
 33
0.0
210
0.0
220
0.0
230
1.0
  0
SOLID
  5
7BE
  8
DRG
  6
CONTINUOUS
 62
     7
 10
58.042489969292951
 20
96.09632214580347
 30
0.0
 11
44.744171147941813
 21
94.199189410726845
 31
0.0
 12
59.241299205307143
 22
93.202158745844642
 32
0.0
 13
59.241299205307143
 23
93.202158745844642
 33
0.0
210
0.0
220
0.0
230
1.0
  0
SOLID
  5
7BF
  8
DRG
  6
CONTINUOUS
 62
     7
 10
130.05101171535759
 20
97.915857504065855
 30
0.0
 11
138.05101171535759
 21
93.569427875032716
 31
0.0
 12
139.4206293992797
 22
93.56942787503273
 32
0.0
 13
139.4206293992797
 23
93.56942787503273
 33
0.0
210
0.0
220
0.0
230
1.0
  0
SOLID
  5
7C0
  8
DRG
  6
CONTINUOUS
 62
     7
 10
130.05101171535759
 20
97.915857504065855
 30
0.0
 11
135.57887576035799
 21
93.177880005393945
 31
0.0
 12
138.05101171535759
 22
93.569427875032716
 32
0.0
 13
138.05101171535759
 23
93.569427875032716
 33
0.0
  0
SOLID
  5
7C1
  8
DRG
  6
CONTINUOUS
 62
     7
 10
130.05101171535759
 20
97.915857504065855
 30
0.0
 11
133.3487296970178
 21
92.041563830032302
 31
0.0
 12
135.57887576035799
 22
93.177880005393945
 32
0.0
 13
135.57887576035799
 23
93.177880005393945
 33
0.0
  0
SOLID
  5
7C2
  8
DRG
  6
CONTINUOUS
 62
     7
 10
130.05101171535759
 20
97.915857504065855
 30
0.0
 11
131.57887576035799
 21
90.271709893372503
 31
0.0
 12
133.3487296970178
 22
92.041563830032302
 32
0.0
 13
133.3487296970178
 23
92.041563830032302
 33
0.0
210
0.0
220
0.0
230
1.0
  0
SOLID
  5
7C3
  8
DRG
  6
CONTINUOUS
 62
     7
 10
130.05101171535759
 20
97.915857504065855
 30
0.0
 11
130.4425595849963
 21
88.041563830032288
 31
0.0
 12
131.57887576035799
 22
90.271709893372503
 32
0.0
 13
131.57887576035799
 23
90.271709893372503
 33
0.0
  0
SOLID
  5
7C4
  8
DRG
  6
CONTINUOUS
 62
     7
 10
130.05101171535759
 20
97.915857504065855
 30
0.0
 11
119.0096173095521
 21
62.115696081838678
 31
0.0
 12
130.4425595849963
 22
88.041563830032288
 32
0.0
 13
130.4425595849963
 23
88.041563830032288
 33
0.0
210
0.0
220
0.0
230
1.0
  0
SOLID
  5
7C5
  8
DRG
  6
CONTINUOUS
 62
     7
 10
18.821661727211438
 20
97.915857504065912
 30
0.0
 11
26.821661727211438
 21
93.569427875032716
 31
0.0
 12
28.191279411133561
 22
93.56942787503273
 32
0.0
 13
28.191279411133561
 23
93.56942787503273
 33
0.0
  0
SOLID
  5
7C6
  8
DRG
  6
CONTINUOUS
 62
     7
 10
18.821661727211438
 20
97.915857504065912
 30
0.0
 11
24.349525772211869
 21
93.177880005393945
 31
0.0
 12
26.821661727211438
 22
93.569427875032716
 32
0.0
 13
26.821661727211438
 23
93.569427875032716
 33
0.0
210
0.0
220
0.0
230
1.0
  0
SOLID
  5
7C7
  8
DRG
  6
CONTINUOUS
 62
     7
 10
18.821661727211438
 20
97.915857504065912
 30
0.0
 11
22.119379708871659
 21
92.041563830032274
 31
0.0
 12
24.349525772211869
 22
93.177880005393945
 32
0.0
 13
24.349525772211869
 23
93.177880005393945
 33
0.0
210
0.0
220
0.0
230
1.0
  0
SOLID
  5
7C8
  8
DRG
  6
CONTINUOUS
 62
     7
 10
18.821661727211438
 20
97.915857504065912
 30
0.0
 11
20.349525772211859
 21
90.271709893372503
 31
0.0
 12
22.119379708871659
 22
92.041563830032274
 32
0.0
 13
22.119379708871659
 23
92.041563830032274
 33
0.0
210
0.0
220
0.0
230
1.0
  0
SOLID
  5
7C9
  8
DRG
  6
CONTINUOUS
 62
     7
 10
18.821661727211438
 20
97.915857504065912
 30
0.0
 11
19.213209596850209
 21
88.041563830032288
 31
0.0
 12
20.349525772211859
 22
90.271709893372503
 32
0.0
 13
20.349525772211859
 23
90.271709893372503
 33
0.0
210
0.0
220
0.0
230
1.0
  0
SOLID
  5
7CA
  8
DRG
  6
CONTINUOUS
 62
     7
 10
18.821661727211438
 20
97.915857504065912
 30
0.0
 11
7.7802673214059723
 21
62.115696081838671
 31
0.0
 12
19.213209596850209
 22
88.041563830032288
 32
0.0
 13
19.213209596850209
 23
88.041563830032288
 33
0.0
210
0.0
220
0.0
230
1.0
  0
SOLID
  5
7CB
  8
DRG
  6
CONTINUOUS
 62
     7
 10
89.364501362461553
 20
98.581583076282442
 30
0.0
 11
87.457477891286857
 21
96.096301702043917
 31
0.0
 12
114.0541298063271
 22
96.096322145803441
 32
0.0
 13
114.0541298063271
 23
96.096322145803441
 33
0.0
  0
SOLID
  5
7CC
  8
DRG
  6
CONTINUOUS
 62
     7
 10
33.352861525427372
 20
98.581583076282442
 30
0.0
 11
31.445838054252661
 21
96.096301702043917
 31
0.0
 12
58.042489969292951
 22
96.09632214580347
 32
0.0
 13
58.042489969292951
 23
96.09632214580347
 33
0.0
210
0.0
220
0.0
230
1.0
  0
SOLID
  5
7CD
  8
DRG
  6
CONTINUOUS
 62
     7
 10
112.14710561917811
 20
98.581595595475122
 30
0.0
 11
89.364501362461553
 21
98.581583076282442
 31
0.0
 12
114.0541298063271
 22
96.096322145803441
 32
0.0
 13
114.0541298063271
 23
96.096322145803441
 33
0.0
210
0.0
220
0.0
230
1.0
  0
SOLID
  5
7CE
  8
DRG
  6
CONTINUOUS
 62
     7
 10
56.135465782143967
 20
98.581595595475136
 30
0.0
 11
33.352861525427372
 21
98.581583076282442
 31
0.0
 12
58.042489969292951
 22
96.09632214580347
 32
0.0
 13
58.042489969292951
 23
96.09632214580347
 33
0.0
210
0.0
220
0.0
230
1.0
  0
SOLID
  5
7CF
  8
DRG
  6
CONTINUOUS
 62
     7
 10
131.90017275248141
 20
99.844187280346816
 30
0.0
 11
130.05101171535759
 21
97.915857504065855
 31
0.0
 12
139.4206293992797
 22
93.56942787503273
 32
0.0
 13
139.4206293992797
 23
93.56942787503273
 33
0.0
210
0.0
220
0.0
230
1.0
  0
SOLID
  5
7D0
  8
DRG
  6
CONTINUOUS
 62
     7
 10
20.670822764335242
 20
99.844187280346901
 30
0.0
 11
18.821661727211438
 21
97.915857504065912
 31
0.0
 12
28.191279411133561
 22
93.56942787503273
 32
0.0
 13
28.191279411133561
 23
93.56942787503273
 33
0.0
  0
SOLID
  5
7D1
  8
DRG
  6
CONTINUOUS
 62
     7
 10
35.838142899665918
 20
100.488606547457
 30
0.0
 11
33.352861525427372
 21
98.581583076282442
 31
0.0
 12
56.135465782143967
 22
98.581595595475136
 32
0.0
 13
56.135465782143967
 23
98.581595595475136
 33
0.0
210
0.0
220
0.0
230
1.0
  0
SOLID
  5
7D2
  8
DRG
  6
CONTINUOUS
 62
     7
 10
91.849782736700107
 20
100.488606547457
 30
0.0
 11
89.364501362461553
 21
98.581583076282442
 31
0.0
 12
112.14710561917811
 22
98.581595595475122
 32
0.0
 13
112.14710561917811
 23
98.581595595475122
 33
0.0
210
0.0
220
0.0
230
1.0
  0
SOLID
  5
7D3
  8
DRG
  6
CONTINUOUS
 62
     7
 10
109.6618265422623
 20
100.4886124490604
 30
0.0
 11
91.849782736700107
 21
100.488606547457
 31
0.0
 12
112.14710561917811
 22
98.581595595475122
 32
0.0
 13
112.14710561917811
 23
98.581595595475122
 33
0.0
  0
SOLID
  5
7D4
  8
DRG
  6
CONTINUOUS
 62
     7
 10
53.650186705228109
 20
100.4886124490604
 30
0.0
 11
35.838142899665918
 21
100.488606547457
 31
0.0
 12
56.135465782143967
 22
98.581595595475136
 32
0.0
 13
56.135465782143967
 23
98.581595595475136
 33
0.0
210
0.0
220
0.0
230
1.0
  0
SOLID
  5
7D5
  8
DRG
  6
CONTINUOUS
 62
     7
 10
134.18475166795781
 20
101.22930512597181
 30
0.0
 11
131.90017275248141
 21
99.844187280346816
 31
0.0
 12
139.4206293992797
 22
93.56942787503273
 32
0.0
 13
139.4206293992797
 23
93.56942787503273
 33
0.0
210
0.0
220
0.0
230
1.0
  0
SOLID
  5
7D6
  8
DRG
  6
CONTINUOUS
 62
     7
 10
22.955401679811722
 20
101.2293051259719
 30
0.0
 11
20.670822764335242
 21
99.844187280346901
 31
0.0
 12
28.191279411133561
 22
93.56942787503273
 32
0.0
 13
28.191279411133561
 23
93.56942787503273
 33
0.0
210
0.0
220
0.0
230
1.0
  0
SOLID
  5
7D7
  8
DRG
  6
CONTINUOUS
 62
     7
 10
38.732314358435637
 20
101.68741161751259
 30
0.0
 11
35.838142899665918
 21
100.488606547457
 31
0.0
 12
53.650186705228109
 22
100.4886124490604
 32
0.0
 13
53.650186705228109
 23
100.4886124490604
 33
0.0
  0
SOLID
  5
7D8
  8
DRG
  6
CONTINUOUS
 62
     7
 10
94.743954195469826
 20
101.68741161751259
 30
0.0
 11
91.849782736700107
 21
100.488606547457
 31
0.0
 12
109.6618265422623
 22
100.4886124490604
 32
0.0
 13
109.6618265422623
 23
100.4886124490604
 33
0.0
  0
SOLID
  5
7D9
  8
DRG
  6
CONTINUOUS
 62
     7
 10
50.756019767830537
 20
101.68741314495981
 30
0.0
 11
38.732314358435637
 21
101.68741161751259
 31
0.0
 12
53.650186705228109
 22
100.4886124490604
 32
0.0
 13
53.650186705228109
 23
100.4886124490604
 33
0.0
210
0.0
220
0.0
230
1.0
  0
SOLID
  5
7DA
  8
DRG
  6
CONTINUOUS
 62
     7
 10
106.7676596048647
 20
101.68741314495981
 30
0.0
 11
94.743954195469826
 21
101.68741161751259
 31
0.0
 12
109.6618265422623
 22
100.4886124490604
 32
0.0
 13
109.6618265422623
 23
100.4886124490604
 33
0.0
210
0.0
220
0.0
230
1.0
  0
SOLID
  5
7DB
  8
DRG
  6
CONTINUOUS
 62
     7
 10
136.74962306925659
 20
101.9771600330952
 30
0.0
 11
134.18475166795781
 21
101.22930512597181
 31
0.0
 12
139.4206293992797
 22
93.56942787503273
 32
0.0
 13
139.4206293992797
 23
93.56942787503273
 33
0.0
210
0.0
220
0.0
230
1.0
  0
SOLID
  5
7DC
  8
DRG
  6
CONTINUOUS
 62
     7
 10
25.520273081110439
 20
101.9771600330952
 30
0.0
 11
22.955401679811722
 21
101.2293051259719
 31
0.0
 12
28.191279411133561
 22
93.56942787503273
 32
0.0
 13
28.191279411133561
 23
93.56942787503273
 33
0.0
210
0.0
220
0.0
230
1.0
  0
SOLID
  5
7DD
  8
DRG
  6
CONTINUOUS
 62
     7
 10
77.482556033578931
 20
101.9948050433795
 30
0.0
 11
62.478989637268569
 21
94.593352860836134
 31
0.0
 12
67.331191210151687
 22
94.593352860836134
 32
0.0
 13
67.331191210151687
 23
94.593352860836134
 33
0.0
210
0.0
220
0.0
230
1.0
  0
SOLID
  5
7DE
  8
DRG
  6
CONTINUOUS
 62
     7
 10
77.482556033578931
 20
101.9948050433795
 30
0.0
 11
67.331191210151687
 21
94.593352860836134
 31
0.0
 12
84.553623006881026
 22
94.593352860836134
 32
0.0
 13
84.553623006881026
 23
94.593352860836134
 33
0.0
210
0.0
220
0.0
230
1.0
  0
SOLID
  5
7DF
  8
DRG
  6
CONTINUOUS
 62
     7
 10
62.478989637268562
 20
101.9948050433795
 30
0.0
 11
62.478989637268569
 21
94.593352860836134
 31
0.0
 12
77.482556033578931
 22
101.9948050433795
 32
0.0
 13
77.482556033578931
 23
101.9948050433795
 33
0.0
  0
SOLID
  5
7E0
  8
DRG
  6
CONTINUOUS
 62
     7
 10
84.553623006881026
 20
101.9948050433795
 30
0.0
 11
77.482556033578931
 21
101.9948050433795
 31
0.0
 12
84.553623006881026
 22
94.593352860836134
 32
0.0
 13
84.553623006881026
 23
94.593352860836134
 33
0.0
210
0.0
220
0.0
230
1.0
  0
SOLID
  5
7E1
  8
DRG
  6
CONTINUOUS
 62
     7
 10
67.331191210151701
 20
101.9948050433795
 30
0.0
 11
62.478989637268562
 21
101.9948050433795
 31
0.0
 12
77.482556033578931
 22
101.9948050433795
 32
0.0
 13
77.482556033578931
 23
101.9948050433795
 33
0.0
210
0.0
220
0.0
230
1.0
  0
SOLID
  5
7E2
  8
DRG
  6
CONTINUOUS
 62
     7
 10
139.4206293992797
 20
102.0369718403325
 30
0.0
 11
136.74962306925659
 21
101.9771600330952
 31
0.0
 12
139.4206293992797
 22
93.56942787503273
 32
0.0
 13
139.4206293992797
 23
93.56942787503273
 33
0.0
210
0.0
220
0.0
230
1.0
  0
SOLID
  5
7E3
  8
DRG
  6
CONTINUOUS
 62
     7
 10
7.7802673214059723
 20
102.0369718403326
 30
0.0
 11
7.7802673214059723
 21
62.115696081838671
 31
0.0
 12
18.821661727211438
 22
97.915857504065912
 32
0.0
 13
18.821661727211438
 23
97.915857504065912
 33
0.0
210
0.0
220
0.0
230
1.0
  0
SOLID
  5
7E4
  8
DRG
  6
CONTINUOUS
 62
     7
 10
18.821661727211438
 20
102.0369718403326
 30
0.0
 11
7.7802673214059723
 21
102.0369718403326
 31
0.0
 12
18.821661727211438
 22
97.915857504065912
 32
0.0
 13
18.821661727211438
 23
97.915857504065912
 33
0.0
  0
SOLID
  5
7E5
  8
DRG
  6
CONTINUOUS
 62
     7
 10
142.11987082690661
 20
62.115696081838678
 30
0.0
 11
153.2899770207527
 21
102.0369718403326
 31
0.0
 12
142.11987082690661
 22
102.0369718403326
 32
0.0
 13
142.11987082690661
 23
102.0369718403326
 33
0.0
  0
SOLID
  5
7E6
  8
DRG
  6
CONTINUOUS
 62
     7
 10
153.2899770207527
 20
102.0369718403326
 30
0.0
 11
142.11987082690661
 21
62.115696081838678
 31
0.0
 12
153.2899770207527
 22
62.115696081838678
 32
0.0
 13
153.2899770207527
 23
62.115696081838678
 33
0.0
210
0.0
220
0.0
230
1.0
  0
SOLID
  5
7E7
  8
DRG
  6
CONTINUOUS
 62
     7
 10
130.05101171535759
 20
102.0369718403326
 30
0.0
 11
119.0096173095521
 21
62.115696081838678
 31
0.0
 12
130.05101171535759
 22
97.915857504065855
 32
0.0
 13
130.05101171535759
 23
97.915857504065855
 33
0.0
210
0.0
220
0.0
230
1.0
  0
SOLID
  5
7E8
  8
DRG
  6
CONTINUOUS
 62
     7
 10
165.4162645291251
 20
86.855763084496886
 30
0.0
 11
171.38205787173379
 21
102.0369718403326
 31
0.0
 12
160.9346181585602
 22
102.0369718403326
 32
0.0
 13
160.9346181585602
 23
102.0369718403326
 33
0.0
210
0.0
220
0.0
230
1.0
  0
SOLID
  5
7E9
  8
DRG
  6
CONTINUOUS
 62
     7
 10
160.9346181585602
 20
102.0369718403326
 30
0.0
 11
153.2899770207527
 21
82.583583780839575
 31
0.0
 12
165.4162645291251
 22
86.855763084496886
 32
0.0
 13
165.4162645291251
 23
86.855763084496886
 33
0.0
  0
SOLID
  5
7EA
  8
DRG
  6
CONTINUOUS
 62
     7
 10
119.0096173095521
 20
102.0369718403326
 30
0.0
 11
119.0096173095521
 21
62.115696081838678
 31
0.0
 12
130.05101171535759
 22
102.0369718403326
 32
0.0
 13
130.05101171535759
 23
102.0369718403326
 33
0.0
210
0.0
220
0.0
230
1.0
  0
SOLID
  5
7EB
  8
DRG
  6
CONTINUOUS
 62
     7
 10
28.191279411133561
 20
102.0369718403326
 30
0.0
 11
25.520273081110439
 21
101.9771600330952
 31
0.0
 12
28.191279411133561
 22
93.56942787503273
 32
0.0
 13
28.191279411133561
 23
93.56942787503273
 33
0.0
  0
SOLID
  5
7EC
  8
DRG
  6
CONTINUOUS
 62
     7
 10
50.756019767830537
 20
101.68741314495981
 30
0.0
 11
47.650196927116667
 21
102.0963017020437
 31
0.0
 12
41.838142899665847
 22
102.0963017020437
 32
0.0
 13
41.838142899665847
 23
102.0963017020437
 33
0.0
210
0.0
220
0.0
230
1.0
  0
SOLID
  5
7ED
  8
DRG
  6
CONTINUOUS
 62
     7
 10
41.838142899665847
 20
102.0963017020437
 30
0.0
 11
38.732314358435637
 21
101.68741161751259
 31
0.0
 12
50.756019767830537
 22
101.68741314495981
 32
0.0
 13
50.756019767830537
 23
101.68741314495981
 33
0.0
210
0.0
220
0.0
230
1.0
  0
SOLID
  5
7EE
  8
DRG
  6
CONTINUOUS
 62
     7
 10
106.7676596048647
 20
101.68741314495981
 30
0.0
 11
103.66183676415081
 21
102.0963017020437
 31
0.0
 12
97.849782736700035
 22
102.0963017020437
 32
0.0
 13
97.849782736700035
 23
102.0963017020437
 33
0.0
210
0.0
220
0.0
230
1.0
  0
SOLID
  5
7EF
  8
DRG
  6
CONTINUOUS
 62
     7
 10
97.849782736700035
 20
102.0963017020437
 30
0.0
 11
94.743954195469826
 21
101.68741161751259
 31
0.0
 12
106.7676596048647
 22
101.68741314495981
 32
0.0
 13
106.7676596048647
 23
101.68741314495981
 33
0.0
210
0.0
220
0.0
230
1.0
  0
SOLID
  5
7F0
  8
DRG
  6
CONTINUOUS
 62
     7
 10
77.482556033578931
 20
107.1280725498991
 30
0.0
 11
67.331191210151701
 21
101.9948050433795
 31
0.0
 12
77.482556033578931
 22
101.9948050433795
 32
0.0
 13
77.482556033578931
 23
101.9948050433795
 33
0.0
  0
SOLID
  5
7F1
  8
DRG
  6
CONTINUOUS
 62
     7
 10
67.331191210151701
 20
107.1280725498991
 30
0.0
 11
67.331191210151701
 21
101.9948050433795
 31
0.0
 12
77.482556033578931
 22
107.1280725498991
 32
0.0
 13
77.482556033578931
 23
107.1280725498991
 33
0.0
210
0.0
220
0.0
230
1.0
  0
ENDBLK
  5
7F3
  8
0
  0
ENDSEC
  0
SECTION
  2
ENTITIES
  0
LINE
  5
31
  8
BORT
 39
4.3200000000000003
 10
1740.1811895006169
 20
547.49231904529415
 30
0.0
 11
314.58118950061748
 21
547.49231904529461
 31
0.0
  0
LINE
  5
32
  8
BORT
 39
4.3200000000000003
 10
1740.1811895006169
 20
475.4923190452941
 30
0.0
 11
-59.818810499382607
 21
475.49231904529461
 31
0.0
  0
LINE
  5
35
  8
BORT
 39
4.3200000000000003
 10
314.58118950061748
 20
710.6923190452942
 30
0.0
 11
-59.818810499382607
 21
710.69231904529443
 31
0.0
  0
LINE
  5
36
  8
BORT
 39
4.3200000000000003
 10
314.58118950061748
 20
744.29231904529433
 30
0.0
 11
-59.818810499382607
 21
744.29231904529445
 31
0.0
  0
LINE
  5
37
  8
BORT
 39
4.3200000000000003
 10
314.58118950061748
 20
677.09231904529418
 30
0.0
 11
-59.818810499382607
 21
677.09231904529452
 31
0.0
  0
LINE
  5
38
  8
BORT
 39
4.3200000000000003
 10
314.58118950061748
 20
677.09231904529418
 30
0.0
 11
-59.818810499382607
 21
677.09231904529452
 31
0.0
  0
TEXT
  5
39
  8
BORT
 10
-49.933096213668421
 20
687.8923190452947
 30
0.0
 40
12.0
  1
ISSUE
 72
     4
 11
-26.218810499382698
 21
693.89231904529458
 31
0.0
  0
LINE
  5
3F
  8
BORT
 39
4.3200000000000003
 10
-59.818810499382607
 20
475.49231904529461
 30
0.0
 11
-59.818810499382607
 21
845.09231904529452
 31
0.0
  0
TEXT
  5
40
  8
BORT
 10
-30.790239070811261
 20
721.49231904529461
 30
0.0
 40
12.0
  1
A
 72
     4
 11
-26.218810499382698
 21
727.49231904529461
 31
0.0
  0
LINE
  5
41
  8
BORT
 39
4.3200000000000003
 10
7.3811895006172099
 20
677.09231904529452
 30
0.0
 11
7.3811895006174382
 21
845.09231904529452
 31
0.0
  0
TEXT
  5
42
  8
BORT
 10
91.552618072046144
 20
721.49231904529461
 30
0.0
 40
12.0
  1
ORIGINAL ISSUE
 72
     4
 11
160.98118950061749
 21
727.49231904529461
 31
0.0
  0
TEXT
  5
43
  8
BORT
 10
102.9811895006175
 20
687.8923190452947
 30
0.0
 40
12.0
  1
ALTERATIONS
 72
     4
 11
160.98118950061749
 21
693.89231904529458
 31
0.0
  0
LINE
  5
44
  8
BORT
 39
4.3200000000000003
 10
314.58118950061748
 20
677.09231904529418
 30
0.0
 11
314.58118950061731
 21
475.49231904529461
 31
0.0
  0
LINE
  5
45
  8
BORT
 39
4.3200000000000003
 10
314.58118950061748
 20
845.09231904529429
 30
0.0
 11
314.58118950061748
 21
677.09231904529418
 31
0.0
  0
TEXT
  5
46
  8
BORT
 10
817.88323255918158
 20
516.74216394027155
 30
0.0
 40
24.0
  1
OUTLINE DETAILS OF IS18
 72
     4
 11
1051.026089702038
 21
528.74216394027155
 31
0.0
  0
TEXT
  5
47
  8
BORT
 10
391.00205501113322
 20
504.93659646056989
 30
0.0
 40
14.39999999999999
  1
EXEECO LTD   C   1996
  0
CIRCLE
  5
48
  8
BORT
 10
569.35246702358938
 20
511.95140674208488
 30
0.0
 40
13.57151939153113
  0
LINE
  5
49
  8
BORT
 39
4.3200000000000003
 10
780.18118950061728
 20
547.49231904529461
 30
0.0
 11
780.18118950061728
 21
475.49231904529461
 31
0.0
  0
LINE
  5
4A
  8
BORT
 39
4.3200000000000003
 10
1740.1811895006169
 20
585.89231904529368
 30
0.0
 11
1322.581189500617
 21
585.89231904529368
 31
0.0
  0
LINE
  5
4B
  8
BORT
 39
4.3200000000000003
 10
1322.581189500617
 20
624.29231904529377
 30
0.0
 11
1740.1811895006169
 21
624.29231904529377
 31
0.0
  0
TEXT
  5
4C
  8
BORT
 10
1376.1811895006169
 20
497.0923190452944
 30
0.0
 40
33.600000000000001
  1
PUB\IS18CD
 72
     4
 11
1524.1811895006169
 21
511.49231904529438
 31
0.0
  0
TEXT
  5
4D
  8
BORT
 10
1330.1829607240479
 20
560.27091820991757
 30
0.0
 40
12.0
  1
CHECKED:-
  0
TEXT
  5
4E
  8
BORT
 10
1330.8765188306929
 20
597.89231904529436
 30
0.0
 40
12.0
  1
DRAWN:-
  0
TEXT
  5
4F
  8
BORT
 10
847.0260897020388
 20
486.22321116217898
 30
0.0
 40
24.0
  1
ISO & USA STANDARD
 72
     4
 11
1051.026089702038
 21
498.22321116217898
 31
0.0
  0
LINE
  5
50
  8
BORT
 39
4.3200000000000003
 10
1322.581189500617
 20
624.29231904529377
 30
0.0
 11
1322.581189500617
 21
547.49231904529415
 31
0.0
  0
LINE
  5
51
  8
BORT
 39
4.3200000000000003
 10
1308.1811895006169
 20
547.49231904529415
 30
0.0
 11
1308.1811895006169
 21
475.4923190452941
 31
0.0
  0
TEXT
  5
52
  8
BORT
 10
1466.155889382306
 20
599.09231904529418
 30
0.0
 40
12.0
  1
S.W.   10.9.96
 72
     4
 11
1531.8701750965911
 21
605.09231904529429
 31
0.0
  0
LINE
  5
53
  8
BORT
 39
4.3200000000000003
 10
1740.1811895006169
 20
624.29231904529377
 30
0.0
 11
1740.1811895006169
 21
475.4923190452941
 31
0.0
  0
LINE
  5
54
  8
BORT
 39
4.3200000000000003
 10
1634.581189500617
 20
624.29231904529377
 30
0.0
 11
1634.581189500617
 21
547.49231904529415
 31
0.0
  0
TEXT
  5
55
  8
BORT
 10
1670.561618662151
 20
559.49231904529415
 30
0.0
 40
12.0
  1
1:2.4
  0
TEXT
  5
56
  8
BORT
 10
1658.0682478100871
 20
597.89231904529436
 30
0.0
 40
12.0
  1
SCALE
  0
LINE
  5
57
  8
DRG
 10
1431.6796119012431
 20
1801.5094988181741
 30
0.0
 11
1376.4821750415031
 21
1600.799892599028
 31
0.0
  0
ARC
  5
58
  8
DRG
 10
1641.8757729958079
 20
1743.7031508872781
 30
0.0
 40
128.0
 50
89.999999999999986
 51
180.0
  0
ARC
  5
59
  8
DRG
 10
1641.8757729958079
 20
1743.7031508872781
 30
0.0
 40
45.0
 50
89.999999999999986
 51
180.0
  0
LINE
  5
5A
  8
DRG
 10
1581.8757729958079
 20
1846.6982964039489
 30
0.0
 11
1581.8757729958079
 21
1729.3808124249831
 31
0.0
  0
LINE
  5
5B
  8
CRS
 10
1641.8757729958079
 20
2116.5263295827372
 30
0.0
 11
1641.8757729958079
 21
1713.583426630656
 31
0.0
  0
ARC
  5
5C
  8
DRG2
 10
1641.8757729958079
 20
1368.803150887278
 30
0.0
 40
350.0
 50
89.999999999999915
 51
270.0
  0
LINE
  5
5D
  8
CRS
 10
1662.736054918387
 20
1368.8031508872771
 30
0.0
 11
1338.5895099745719
 21
1368.803150887278
 31
0.0
  0
LINE
  5
5E
  8
DRG
 10
1502.408678635142
 20
1689.815502036877
 30
0.0
 11
1543.6400660833449
 21
1590.2778968422631
 31
0.0
  0
LINE
  5
5F
  8
CRS
 10
1666.900251097358
 20
1743.7031508872781
 30
0.0
 11
1505.9192326796251
 21
1743.7031508872781
 31
0.0
  0
ARC
  5
60
  8
DRG
 10
1641.8757729958079
 20
1368.803150887278
 30
0.0
 40
352.49999999999989
 50
99.528370682469642
 51
270.0
  0
LINE
  5
61
  8
CRS
 10
1295.401743467206
 20
1368.803150887278
 30
0.0
 11
1268.746851250753
 21
1368.803150887278
 31
0.0
  0
LINE
  5
62
  8
CRS
 10
1316.8757729958079
 20
1365.803150887278
 30
0.0
 11
1316.8757729958079
 21
1371.803150887278
 31
0.0
  0
POLYLINE
  5
63
  8
DRG2
 66
     1
 10
0.0
 20
0.0
 30
0.0
 70
     1
  0
VERTEX
  5
610
  8
DRG2
 10
1312.83432111148
 20
1375.803150887278
 30
0.0
  0
VERTEX
  5
611
  8
DRG2
 10
1308.792869227153
 20
1368.803150887278
 30
0.0
  0
VERTEX
  5
612
  8
DRG2
 10
1312.83432111148
 20
1361.803150887278
 30
0.0
  0
VERTEX
  5
613
  8
DRG2
 10
1320.9172248801351
 20
1361.803150887278
 30
0.0
  0
VERTEX
  5
614
  8
DRG2
 10
1324.9586767644621
 20
1368.803150887278
 30
0.0
  0
VERTEX
  5
615
  8
DRG2
 10
1320.9172248801351
 20
1375.803150887278
 30
0.0
  0
SEQEND
  5
616
  8
DRG2
  0
CIRCLE
  5
6B
  8
DRG2
 10
1316.8757729958079
 20
1368.803150887278
 30
0.0
 40
11.164999999999999
  0
CIRCLE
  5
6C
  8
DRG2
 10
1316.8757729958079
 20
1368.803150887278
 30
0.0
 40
12.16499999999999
  0
LINE
  5
6D
  8
CRS
 10
1316.8757729958079
 20
1362.803150887278
 30
0.0
 11
1316.8757729958079
 21
1355.3748433588401
 31
0.0
  0
LINE
  5
6E
  8
CRS
 10
1313.8757729958079
 20
1368.803150887278
 30
0.0
 11
1319.8757729958079
 21
1368.803150887278
 31
0.0
  0
LINE
  5
6F
  8
CRS
 10
1310.8757729958079
 20
1368.803150887278
 30
0.0
 11
1303.44746546737
 21
1368.803150887278
 31
0.0
  0
LINE
  5
70
  8
CRS
 10
1316.8757729958079
 20
1374.803150887278
 30
0.0
 11
1316.8757729958079
 21
1382.231458415715
 31
0.0
  0
LINE
  5
71
  8
CRS
 10
1322.8757729958079
 20
1368.803150887278
 30
0.0
 11
1330.3040805242449
 21
1368.803150887278
 31
0.0
  0
CIRCLE
  5
72
  8
DRG2
 10
1412.0660691101809
 20
1138.9934470016501
 30
0.0
 40
11.164999999999999
  0
CIRCLE
  5
73
  8
DRG2
 10
1412.0660691101809
 20
1138.9934470016501
 30
0.0
 40
12.16499999999999
  0
LINE
  5
74
  8
CRS
 10
1418.0660691101809
 20
1138.993447001649
 30
0.0
 11
1425.494376638618
 21
1138.993447001649
 31
0.0
  0
LINE
  5
75
  8
CRS
 10
1412.0660691101809
 20
1144.9934470016501
 30
0.0
 11
1412.0660691101809
 21
1152.4217545300869
 31
0.0
  0
LINE
  5
76
  8
CRS
 10
1406.0660691101809
 20
1138.993447001649
 30
0.0
 11
1398.637761581743
 21
1138.993447001649
 31
0.0
  0
POLYLINE
  5
77
  8
DRG2
 66
     1
 10
0.0
 20
0.0
 30
0.0
 70
     1
  0
VERTEX
  5
617
  8
DRG2
 10
1408.024617225853
 20
1145.993447001649
 30
0.0
  0
VERTEX
  5
618
  8
DRG2
 10
1403.983165341526
 20
1138.993447001649
 30
0.0
  0
VERTEX
  5
619
  8
DRG2
 10
1408.024617225853
 20
1131.993447001649
 30
0.0
  0
VERTEX
  5
61A
  8
DRG2
 10
1416.1075209945079
 20
1131.993447001649
 30
0.0
  0
VERTEX
  5
61B
  8
DRG2
 10
1420.1489728788349
 20
1138.993447001649
 30
0.0
  0
VERTEX
  5
61C
  8
DRG2
 10
1416.1075209945079
 20
1145.993447001649
 30
0.0
  0
SEQEND
  5
61D
  8
DRG2
  0
LINE
  5
7F
  8
CRS
 10
1412.0660691101809
 20
1135.993447001649
 30
0.0
 11
1412.0660691101809
 21
1141.993447001649
 31
0.0
  0
LINE
  5
80
  8
CRS
 10
1412.0660691101809
 20
1132.993447001649
 30
0.0
 11
1412.0660691101809
 21
1125.565139473212
 31
0.0
  0
LINE
  5
81
  8
CRS
 10
1409.0660691101809
 20
1138.993447001649
 30
0.0
 11
1415.0660691101809
 21
1138.993447001649
 31
0.0
  0
CIRCLE
  5
82
  8
DRG2
 10
1412.06606911018
 20
1598.6128547729049
 30
0.0
 40
11.164999999999999
  0
CIRCLE
  5
83
  8
DRG2
 10
1412.06606911018
 20
1598.6128547729049
 30
0.0
 40
12.16499999999999
  0
LINE
  5
84
  8
CRS
 10
1418.06606911018
 20
1598.6128547729049
 30
0.0
 11
1425.494376638618
 21
1598.6128547729049
 31
0.0
  0
LINE
  5
85
  8
CRS
 10
1406.06606911018
 20
1598.6128547729049
 30
0.0
 11
1398.6377615817421
 21
1598.6128547729049
 31
0.0
  0
POLYLINE
  5
86
  8
DRG2
 66
     1
 10
0.0
 20
0.0
 30
0.0
 70
     1
  0
VERTEX
  5
61E
  8
DRG2
 10
1408.0246172258519
 20
1605.6128547729049
 30
0.0
  0
VERTEX
  5
61F
  8
DRG2
 10
1403.983165341526
 20
1598.6128547729049
 30
0.0
  0
VERTEX
  5
620
  8
DRG2
 10
1408.0246172258519
 20
1591.6128547729049
 30
0.0
  0
VERTEX
  5
621
  8
DRG2
 10
1416.1075209945079
 20
1591.6128547729049
 30
0.0
  0
VERTEX
  5
622
  8
DRG2
 10
1420.1489728788349
 20
1598.6128547729049
 30
0.0
  0
VERTEX
  5
623
  8
DRG2
 10
1416.1075209945079
 20
1605.6128547729049
 30
0.0
  0
SEQEND
  5
624
  8
DRG2
  0
LINE
  5
8E
  8
CRS
 10
1412.06606911018
 20
1604.6128547729049
 30
0.0
 11
1412.06606911018
 21
1612.0411623013431
 31
0.0
  0
LINE
  5
8F
  8
CRS
 10
1412.06606911018
 20
1595.6128547729049
 30
0.0
 11
1412.06606911018
 21
1601.6128547729049
 31
0.0
  0
LINE
  5
90
  8
CRS
 10
1412.06606911018
 20
1592.6128547729049
 30
0.0
 11
1412.06606911018
 21
1585.1845472444679
 31
0.0
  0
LINE
  5
91
  8
CRS
 10
1409.06606911018
 20
1598.6128547729049
 30
0.0
 11
1415.06606911018
 21
1598.6128547729049
 31
0.0
  0
LINE
  5
92
  8
CRS
 10
1641.8757729958079
 20
1666.3054378388199
 30
0.0
 11
1641.8757729958079
 21
1061.324498043861
 31
0.0
  0
LINE
  5
93
  8
CRS
 10
1635.8757729958079
 20
1043.803150887278
 30
0.0
 11
1628.44746546737
 21
1043.803150887278
 31
0.0
  0
LINE
  5
94
  8
CRS
 10
1641.8757729958079
 20
1024.361517709262
 30
0.0
 11
1641.8757729958079
 21
999.53637172922242
 31
0.0
  0
LINE
  5
95
  8
CRS
 10
1638.8757729958079
 20
1043.803150887278
 30
0.0
 11
1644.8757729958079
 21
1043.803150887278
 31
0.0
  0
POLYLINE
  5
96
  8
DRG2
 66
     1
 10
0.0
 20
0.0
 30
0.0
  0
VERTEX
  5
625
  8
DRG2
 10
1641.8757729958079
 20
1050.803150887278
 30
0.0
  0
VERTEX
  5
626
  8
DRG2
 10
1637.83432111148
 20
1050.803150887278
 30
0.0
  0
SEQEND
  5
627
  8
DRG2
  0
POLYLINE
  5
9A
  8
DRG2
 66
     1
 10
0.0
 20
0.0
 30
0.0
  0
VERTEX
  5
628
  8
DRG2
 10
1637.83432111148
 20
1050.803150887278
 30
0.0
  0
VERTEX
  5
629
  8
DRG2
 10
1633.792869227153
 20
1043.803150887278
 30
0.0
  0
VERTEX
  5
62A
  8
DRG2
 10
1637.83432111148
 20
1036.803150887278
 30
0.0
  0
VERTEX
  5
62B
  8
DRG2
 10
1641.8757729958079
 20
1036.803150887278
 30
0.0
  0
SEQEND
  5
62C
  8
DRG2
  0
LINE
  5
A0
  8
CRS
 10
1641.8757729958079
 20
1049.803150887278
 30
0.0
 11
1641.8757729958079
 21
1057.231458415715
 31
0.0
  0
LINE
  5
A1
  8
CRS
 10
1641.8757729958079
 20
1040.803150887278
 30
0.0
 11
1641.8757729958079
 21
1046.803150887278
 31
0.0
  0
LINE
  5
A2
  8
CRS
 10
1641.8757729958079
 20
1037.803150887278
 30
0.0
 11
1641.8757729958079
 21
1030.3748433588401
 31
0.0
  0
ARC
  5
A3
  8
DRG2
 10
1641.8757729958079
 20
1043.803150887278
 30
0.0
 40
11.164999999999999
 50
89.999999999999986
 51
270.0
  0
ARC
  5
A4
  8
DRG2
 10
1641.8757729958079
 20
1043.803150887278
 30
0.0
 40
12.16499999999999
 50
89.999999999999986
 51
270.0
  0
LINE
  5
A5
  8
CRS
 10
1635.8757729958079
 20
1693.803150887278
 30
0.0
 11
1628.44746546737
 21
1693.803150887278
 31
0.0
  0
ARC
  5
A6
  8
DRG
 10
1641.8757729958079
 20
1743.7031508872781
 30
0.0
 40
30.0
 50
89.999999999999986
 51
237.39946001174411
  0
LINE
  5
A7
  8
DRG
 10
1513.4951715378811
 20
1694.407851666153
 30
0.0
 11
1554.7268413013501
 21
1594.869564928006
 31
0.0
  0
ARC
  5
A8
  8
DRG
 10
1565.8757729958079
 20
1729.3808124249831
 30
0.0
 40
16.0
 50
281.90218608636002
 51
0.0
  0
LINE
  5
A9
  8
DRG
 10
1513.8757729958079
 20
1743.7031508872781
 30
0.0
 11
1513.8757729958079
 21
1697.2422624437429
 31
0.0
  0
ARC
  5
AA
  8
DRG
 10
1580.8757729958079
 20
1732.2192347360799
 30
0.0
 40
16.0
 50
279.52837068246998
 51
0.0
  0
LINE
  5
AB
  8
DRG
 10
1596.8757729958079
 20
1743.7031508872781
 30
0.0
 11
1596.8757729958079
 21
1732.219234736081
 31
0.0
  0
LINE
  5
AC
  8
CRS
 10
1638.8757729958079
 20
1693.803150887278
 30
0.0
 11
1644.8757729958079
 21
1693.803150887278
 31
0.0
  0
POLYLINE
  5
AD
  8
DRG2
 66
     1
 10
0.0
 20
0.0
 30
0.0
  0
VERTEX
  5
62D
  8
DRG2
 10
1641.8757729958079
 20
1700.803150887278
 30
0.0
  0
VERTEX
  5
62E
  8
DRG2
 10
1637.83432111148
 20
1700.803150887278
 30
0.0
  0
SEQEND
  5
62F
  8
DRG2
  0
POLYLINE
  5
B1
  8
DRG2
 66
     1
 10
0.0
 20
0.0
 30
0.0
  0
VERTEX
  5
630
  8
DRG2
 10
1637.83432111148
 20
1700.803150887278
 30
0.0
  0
VERTEX
  5
631
  8
DRG2
 10
1633.792869227153
 20
1693.803150887278
 30
0.0
  0
VERTEX
  5
632
  8
DRG2
 10
1637.83432111148
 20
1686.803150887278
 30
0.0
  0
VERTEX
  5
633
  8
DRG2
 10
1641.8757729958079
 20
1686.803150887278
 30
0.0
  0
SEQEND
  5
634
  8
DRG2
  0
LINE
  5
B7
  8
CRS
 10
1641.8757729958079
 20
1687.803150887278
 30
0.0
 11
1641.8757729958079
 21
1680.3748433588401
 31
0.0
  0
LINE
  5
B8
  8
CRS
 10
1641.8757729958079
 20
1690.803150887278
 30
0.0
 11
1641.8757729958079
 21
1696.803150887278
 31
0.0
  0
LINE
  5
B9
  8
CRS
 10
1641.8757729958079
 20
1699.803150887278
 30
0.0
 11
1641.8757729958079
 21
1707.2314584157159
 31
0.0
  0
ARC
  5
BA
  8
DRG2
 10
1641.8757729958079
 20
1693.8031508872771
 30
0.0
 40
11.164999999999999
 50
89.999999999999986
 51
270.0
  0
ARC
  5
BB
  8
DRG2
 10
1641.8757729958079
 20
1693.8031508872771
 30
0.0
 40
12.16499999999999
 50
89.999999999999986
 51
270.0
  0
LINE
  5
BC
  8
DRG
 10
1560.9017890737509
 20
2028.584273336257
 30
0.0
 11
1456.0617888378249
 21
1857.708252928094
 31
0.0
  0
ARC
  5
BD
  8
DRG
 10
1641.8757729958079
 20
1743.7031508872781
 30
0.0
 40
218.0
 50
148.469042165102
 51
164.6231396305684
  0
ARC
  5
BE
  8
DRG
 10
1641.8757729958079
 20
1978.9031508872779
 30
0.0
 40
40.0
 50
89.999999999999986
 51
270.0
  0
LINE
  5
BF
  8
DRG
 10
1586.8757729958079
 20
1918.9031508872779
 30
0.0
 11
1629.8757729958079
 21
1918.9031508872779
 31
0.0
  0
LINE
  5
C0
  8
DRG
 10
1586.8757729958079
 20
2038.903150887277
 30
0.0
 11
1641.8757729958079
 21
2038.903150887277
 31
0.0
  0
ARC
  5
C1
  8
DRG
 10
1641.8757729958079
 20
1978.9031508872779
 30
0.0
 40
95.0
 50
89.999999999999986
 51
148.46904216510211
  0
LINE
  5
C2
  8
CRS
 10
1667.309561405659
 20
1978.9031508872779
 30
0.0
 11
1549.4082151614659
 21
1978.9031508872779
 31
0.0
  0
LINE
  5
C3
  8
DRG
 10
1641.8757729958079
 20
2051.4031508872781
 30
0.0
 11
1587.3757729958079
 21
2051.4031508872781
 31
0.0
  0
LINE
  5
C4
  8
DRG
 10
1629.8757729958079
 20
1906.4031508872779
 30
0.0
 11
1587.3757729958079
 21
1906.4031508872779
 31
0.0
  0
LINE
  5
C5
  8
DRG
 10
1581.8757729958079
 20
2033.903150887277
 30
0.0
 11
1581.8757729958079
 21
1923.9031508872779
 31
0.0
  0
LINE
  5
C6
  8
DRG
 10
1569.3757729958079
 20
2033.4031508872779
 30
0.0
 11
1569.3757729958079
 21
1924.4031508872779
 31
0.0
  0
ARC
  5
C7
  8
DRG
 10
1587.3757729958079
 20
1924.4031508872779
 30
0.0
 40
18.0
 50
180.0
 51
270.0
  0
ARC
  5
C8
  8
DRG
 10
1597.8757729958079
 20
1846.6982964039489
 30
0.0
 40
16.0
 50
113.1323963992976
 51
180.0
  0
CIRCLE
  5
C9
  8
DRG2
 10
1592.3782983127501
 20
1929.4056762042201
 30
0.0
 40
9.1349999999999998
  0
CIRCLE
  5
CA
  8
DRG2
 10
1592.3782983127501
 20
1929.4056762042201
 30
0.0
 40
8.1349999999999998
  0
LINE
  5
CB
  8
CRS
  6
BYBLOCK
 10
1598.3782983127489
 20
1929.4056762042189
 30
0.0
 11
1605.6282983127489
 21
1929.4056762042189
 31
0.0
  0
POLYLINE
  5
CC
  8
DRG2
 66
     1
 10
0.0
 20
0.0
 30
0.0
 70
     1
  0
VERTEX
  5
635
  8
DRG2
 10
1589.491546966801
 20
1924.4056762042201
 30
0.0
  0
VERTEX
  5
636
  8
DRG2
 10
1586.6047956208531
 20
1929.4056762042189
 30
0.0
  0
VERTEX
  5
637
  8
DRG2
 10
1589.491546966801
 20
1934.4056762042201
 30
0.0
  0
VERTEX
  5
638
  8
DRG2
 10
1595.2650496586971
 20
1934.4056762042201
 30
0.0
  0
VERTEX
  5
639
  8
DRG2
 10
1598.1518010046459
 20
1929.4056762042189
 30
0.0
  0
VERTEX
  5
63A
  8
DRG2
 10
1595.2650496586971
 20
1924.4056762042201
 30
0.0
  0
SEQEND
  5
63B
  8
DRG2
  0
ARC
  5
D4
  8
DRG
 10
1586.8757729958079
 20
1923.9031508872779
 30
0.0
 40
5.0
 50
180.0
 51
270.0
  0
LINE
  5
D5
  8
CRS
  6
BYBLOCK
 10
1592.3782983127489
 20
1923.4056762042201
 30
0.0
 11
1592.3782983127489
 21
1916.1556762042189
 31
0.0
  0
LINE
  5
D6
  8
CRS
  6
BYBLOCK
 10
1586.3782983127489
 20
1929.4056762042189
 30
0.0
 11
1579.1282983127489
 21
1929.4056762042189
 31
0.0
  0
LINE
  5
D7
  8
CRS
  6
BYBLOCK
 10
1592.3782983127489
 20
1932.4056762042201
 30
0.0
 11
1592.3782983127489
 21
1926.4056762042201
 31
0.0
  0
LINE
  5
D8
  8
CRS
  6
BYBLOCK
 10
1589.3782983127501
 20
1929.4056762042189
 30
0.0
 11
1595.3782983127489
 21
1929.4056762042189
 31
0.0
  0
LINE
  5
D9
  8
CRS
  6
BYBLOCK
 10
1592.3782983127489
 20
1935.6056762042199
 30
0.0
 11
1592.3782983127489
 21
1942.855676204219
 31
0.0
  0
ARC
  5
DA
  8
DRG
 10
1587.3757729958079
 20
2033.4031508872779
 30
0.0
 40
18.0
 50
89.999999999999986
 51
180.0
  0
LINE
  5
DB
  8
CRS
  6
BYBLOCK
 10
1598.3782983127489
 20
2028.400625570335
 30
0.0
 11
1605.6282983127489
 21
2028.400625570335
 31
0.0
  0
CIRCLE
  5
DC
  8
DRG2
 10
1592.3782983127501
 20
2028.4006255703359
 30
0.0
 40
8.1349999999999998
  0
CIRCLE
  5
DD
  8
DRG2
 10
1592.3782983127501
 20
2028.4006255703359
 30
0.0
 40
9.1349999999999998
  0
ARC
  5
DE
  8
DRG
 10
1586.8757729958079
 20
2033.903150887277
 30
0.0
 40
5.0
 50
89.999999999999986
 51
180.0
  0
LINE
  5
DF
  8
CRS
  6
BYBLOCK
 10
1586.3782983127489
 20
2028.400625570335
 30
0.0
 11
1579.1282983127489
 21
2028.400625570335
 31
0.0
  0
LINE
  5
E0
  8
CRS
  6
BYBLOCK
 10
1592.3782983127489
 20
2034.4006255703359
 30
0.0
 11
1592.3782983127489
 21
2041.6506255703359
 31
0.0
  0
LINE
  5
E1
  8
CRS
  6
BYBLOCK
 10
1592.3782983127489
 20
2022.4006255703359
 30
0.0
 11
1592.3782983127489
 21
2015.150625570335
 31
0.0
  0
LINE
  5
E2
  8
CRS
  6
BYBLOCK
 10
1589.3782983127501
 20
2028.400625570335
 30
0.0
 11
1595.3782983127489
 21
2028.400625570335
 31
0.0
  0
POLYLINE
  5
E3
  8
DRG2
 66
     1
 10
0.0
 20
0.0
 30
0.0
 70
     1
  0
VERTEX
  5
63C
  8
DRG2
 10
1589.491546966801
 20
2033.4006255703359
 30
0.0
  0
VERTEX
  5
63D
  8
DRG2
 10
1586.6047956208531
 20
2028.400625570335
 30
0.0
  0
VERTEX
  5
63E
  8
DRG2
 10
1589.491546966801
 20
2023.4006255703359
 30
0.0
  0
VERTEX
  5
63F
  8
DRG2
 10
1595.2650496586971
 20
2023.4006255703359
 30
0.0
  0
VERTEX
  5
640
  8
DRG2
 10
1598.1518010046459
 20
2028.400625570335
 30
0.0
  0
VERTEX
  5
641
  8
DRG2
 10
1595.2650496586971
 20
2033.4006255703359
 30
0.0
  0
SEQEND
  5
642
  8
DRG2
  0
LINE
  5
EB
  8
CRS
  6
BYBLOCK
 10
1592.3782983127489
 20
2025.4006255703359
 30
0.0
 11
1592.3782983127489
 21
2031.4006255703359
 31
0.0
  0
LINE
  5
EC
  8
DRG
 10
1635.8757729958079
 20
1900.4031508872779
 30
0.0
 11
1635.8757729958079
 21
1877.1647558529021
 31
0.0
  0
ARC
  5
ED
  8
DRG
 10
1629.8757729958079
 20
1877.1647558529021
 30
0.0
 40
6.0
 50
275.1378482490374
 51
0.0
  0
LINE
  5
EE
  8
DRG
 10
1629.8757729958079
 20
1918.9031508872779
 30
0.0
 11
1641.8757729958079
 21
1918.9031508872779
 31
0.0
  0
ARC
  5
EF
  8
DRG
 10
1629.8757729958079
 20
1900.4031508872779
 30
0.0
 40
6.0
 50
0.0
 51
89.999999999999986
  0
LINE
  5
F0
  8
DRG
 10
1641.8757729958079
 20
1906.4031508872779
 30
0.0
 11
1629.8757729958079
 21
1906.4031508872779
 31
0.0
  0
ARC
  5
F1
  8
DRG
 10
758.78485571179078
 20
1795.5094988181741
 30
0.0
 40
6.0
 50
89.999999999999986
 51
180.0
  0
LINE
  5
F2
  8
DRG
 10
786.78485571179056
 20
1855.7031508872781
 30
0.0
 11
786.78485571179056
 21
1794.7031508872781
 31
0.0
  0
LINE
  5
F3
  8
DRG
 10
595.78485571178464
 20
2057.4031508872781
 30
0.0
 11
595.78485571180067
 21
1543.612253198605
 31
0.0
  0
ARC
  5
F4
  8
DRG
 10
433.7848557117909
 20
1799.7031508872781
 30
0.0
 40
16.0
 50
270.0
 51
0.0000000000000254
  0
LINE
  5
F5
  8
DRG
 10
449.78485571178982
 20
2057.4031508872781
 30
0.0
 11
449.7848557117934
 21
1248.7626462870539
 31
0.0
  0
LINE
  5
F6
  8
DRG
 10
434.7848557117905
 20
1901.931014932278
 30
0.0
 11
434.7848557117909
 21
1789.7031508872781
 31
0.0
  0
LINE
  5
F7
  8
DRG
 10
807.78485571179056
 20
1018.803150887278
 30
0.0
 11
807.78485571179078
 21
1264.293724928928
 31
0.0
  0
LINE
  5
F8
  8
DRG
 10
792.7848557117909
 20
1264.293724928928
 30
0.0
 11
792.78485571179135
 21
1016.303150887278
 31
0.0
  0
LINE
  5
F9
  8
DRG
 10
752.78485571179078
 20
1264.293724928928
 30
0.0
 11
752.78485571179135
 21
1021.681271510973
 31
0.0
  0
LINE
  5
FA
  8
DRG
 10
579.78485571179147
 20
1531.612253198605
 30
0.0
 11
579.78485571179135
 21
1068.7781508872779
 31
0.0
  0
ARC
  5
FB
  8
DRG
 10
597.78485571179135
 20
1068.7781508872779
 30
0.0
 40
18.0
 50
180.0
 51
270.0
  0
LINE
  5
FC
  8
DRG
 10
597.78485571179135
 20
1050.7781508872779
 30
0.0
 11
722.78485571179169
 21
1050.7781508872779
 31
0.0
  0
LINE
  5
FD
  8
DRG
 10
758.75254086110408
 20
1016.303150887278
 30
0.0
 11
792.78485571179135
 21
1016.303150887278
 31
0.0
  0
ARC
  5
FE
  8
DRG
 10
722.78485571179203
 20
1020.778150887278
 30
0.0
 40
30.0
 50
2.427839363285341
 51
89.999999999999986
  0
ARC
  5
FF
  8
DRG
 10
758.75254086110431
 20
1022.303150887278
 30
0.0
 40
6.0
 50
182.42783936328539
 51
270.0
  0
LINE
  5
100
  8
DRG
 10
807.78485571179056
 20
1018.803150887278
 30
0.0
 11
792.78485571179044
 21
1018.803150887278
 31
0.0
  0
LINE
  5
101
  8
DRG
 10
792.78485571179044
 20
1024.769176291062
 30
0.0
 11
792.78485571179044
 21
1035.6031508872779
 31
0.0
  0
LINE
  5
102
  8
DRG2
 10
822.78485571179056
 20
1031.6331508872779
 30
0.0
 11
807.78485571179056
 21
1031.6331508872779
 31
0.0
  0
LINE
  5
103
  8
CRS
 10
824.89294093447359
 20
1043.803150887278
 30
0.0
 11
804.373334966926
 21
1043.803150887278
 31
0.0
  0
LINE
  5
104
  8
DRG2
 10
822.78485571179056
 20
1031.6331508872779
 30
0.0
 11
823.78485571179056
 21
1032.6331508872779
 31
0.0
  0
LINE
  5
105
  8
DRG2
 10
823.78485571179056
 20
1054.9731508872781
 30
0.0
 11
822.78485571179056
 21
1055.9731508872781
 31
0.0
  0
LINE
  5
106
  8
DRG2
 10
822.78485571179056
 20
1055.9731508872781
 30
0.0
 11
809.22762498509553
 21
1055.9731508872781
 31
0.0
  0
LINE
  5
107
  8
DRG2
 10
822.78485571179056
 20
1031.6331508872779
 30
0.0
 11
822.78485571179056
 21
1055.9731508872781
 31
0.0
  0
LINE
  5
108
  8
DRG2
 10
823.78485571179056
 20
1032.6331508872779
 30
0.0
 11
823.78485571179056
 21
1054.9731508872781
 31
0.0
  0
ARC
  5
109
  8
DRG
 10
589.78485571180045
 20
1543.6122531986059
 30
0.0
 40
6.0
 50
270.0
 51
0.0000000000020228
  0
ARC
  5
10A
  8
DRG
 10
554.78485571179135
 20
1193.803150887278
 30
0.0
 40
25.0
 50
0.0
 51
89.999999999999986
  0
LINE
  5
10B
  8
DRG
 10
434.78485571179169
 20
1524.803150887278
 30
0.0
 11
434.7848557117909
 21
1697.7031508872769
 31
0.0
  0
ARC
  5
10C
  8
DRG
 10
443.78485571179158
 20
1524.803150887278
 30
0.0
 40
6.0
 50
270.0
 51
0.0
  0
ARC
  5
10D
  8
DRG
 10
428.78485571179169
 20
1524.803150887278
 30
0.0
 40
6.0
 50
269.99999999999977
 51
0.0
  0
LINE
  5
10E
  8
DRG
 10
427.78485571179078
 20
1703.7031508872769
 30
0.0
 11
427.78485571179078
 21
1718.6931508872781
 31
0.0
  0
ARC
  5
10F
  8
DRG
 10
433.78485571179073
 20
1687.7031508872769
 30
0.0
 40
16.0
 50
359.99999999999977
 51
89.999999999999986
  0
LINE
  5
110
  8
DRG
 10
427.78485571179078
 20
1703.7031508872769
 30
0.0
 11
433.7848557117909
 21
1703.7031508872769
 31
0.0
  0
ARC
  5
111
  8
DRG
 10
428.78485571179073
 20
1697.7031508872769
 30
0.0
 40
6.0
 50
359.99999999999977
 51
89.999999999999986
  0
LINE
  5
112
  8
DRG
 10
427.78485571179078
 20
1703.7031508872769
 30
0.0
 11
428.7848557117909
 21
1703.7031508872769
 31
0.0
  0
LINE
  5
113
  8
DRG
 10
427.78485571179112
 20
1768.7131508872781
 30
0.0
 11
427.78485571179078
 21
1743.7031508872769
 31
0.0
  0
LINE
  5
114
  8
DRG
 10
427.78485571179078
 20
1718.6931508872781
 30
0.0
 11
427.78485571179078
 21
1743.7031508872769
 31
0.0
  0
LINE
  5
115
  8
DRG
 10
427.78485571179101
 20
1783.7031508872781
 30
0.0
 11
433.78485571179101
 21
1783.7031508872781
 31
0.0
  0
ARC
  5
116
  8
DRG
 10
428.7848557117909
 20
1789.7031508872781
 30
0.0
 40
6.0
 50
270.0
 51
0.0000000000000254
  0
LINE
  5
117
  8
DRG
 10
427.78485571179101
 20
1783.7031508872781
 30
0.0
 11
428.78485571179101
 21
1783.7031508872781
 31
0.0
  0
LINE
  5
118
  8
DRG
 10
427.78485571179101
 20
1783.7031508872781
 30
0.0
 11
427.78485571179078
 21
1768.7131508872781
 31
0.0
  0
ARC
  5
119
  8
DRG
 10
585.78485571179135
 20
1531.6122531986059
 30
0.0
 40
6.0
 50
90.000000000000057
 51
180.0
  0
LINE
  5
11A
  8
DRG2
 10
822.78485571179056
 20
1151.1634470016511
 30
0.0
 11
807.78485571179056
 21
1151.1634470016511
 31
0.0
  0
LINE
  5
11B
  8
DRG2
 10
822.78485571179056
 20
1126.8234470016509
 30
0.0
 11
807.78485571179056
 21
1126.8234470016509
 31
0.0
  0
LINE
  5
11C
  8
CRS
 10
824.89294093447359
 20
1138.993447001651
 30
0.0
 11
804.373334966926
 21
1138.993447001651
 31
0.0
  0
LINE
  5
11D
  8
DRG2
 10
822.78485571179056
 20
1126.8234470016509
 30
0.0
 11
823.78485571179056
 21
1127.8234470016509
 31
0.0
  0
LINE
  5
11E
  8
DRG2
 10
823.78485571179056
 20
1150.1634470016511
 30
0.0
 11
822.78485571179056
 21
1151.1634470016511
 31
0.0
  0
LINE
  5
11F
  8
DRG2
 10
823.78485571179056
 20
1127.8234470016509
 30
0.0
 11
823.78485571179056
 21
1150.1634470016511
 31
0.0
  0
LINE
  5
120
  8
DRG2
 10
822.78485571179056
 20
1126.8234470016509
 30
0.0
 11
822.78485571179056
 21
1151.1634470016511
 31
0.0
  0
LINE
  5
121
  8
DRG
 10
807.78485571179056
 20
1718.803150887278
 30
0.0
 11
807.78485571179056
 21
1467.0681636162881
 31
0.0
  0
LINE
  5
122
  8
DRG
 10
752.78485571179067
 20
1795.5094988181741
 30
0.0
 11
752.78485571179112
 21
1467.0681636162881
 31
0.0
  0
LINE
  5
123
  8
DRG
 10
792.78485571179056
 20
1774.5691762910619
 30
0.0
 11
792.7848557117909
 21
1467.0681636162881
 31
0.0
  0
LINE
  5
124
  8
CRS
 10
824.89294093447393
 20
1598.6128547729049
 30
0.0
 11
804.37333496692622
 21
1598.6128547729049
 31
0.0
  0
LINE
  5
125
  8
DRG2
 10
822.78485571179067
 20
1586.4428547729051
 30
0.0
 11
807.78485571179056
 21
1586.4428547729051
 31
0.0
  0
LINE
  5
126
  8
DRG2
 10
822.78485571179067
 20
1610.782854772905
 30
0.0
 11
807.78485571179056
 21
1610.782854772905
 31
0.0
  0
LINE
  5
127
  8
DRG2
 10
822.78485571179067
 20
1610.782854772905
 30
0.0
 11
822.78485571179067
 21
1586.4428547729051
 31
0.0
  0
LINE
  5
128
  8
DRG2
 10
823.78485571179056
 20
1587.4428547729051
 30
0.0
 11
822.78485571179067
 21
1586.4428547729051
 31
0.0
  0
LINE
  5
129
  8
DRG2
 10
822.78485571179067
 20
1610.782854772905
 30
0.0
 11
823.78485571179056
 21
1609.782854772905
 31
0.0
  0
LINE
  5
12A
  8
DRG2
 10
823.78485571179056
 20
1609.782854772905
 30
0.0
 11
823.78485571179056
 21
1587.4428547729051
 31
0.0
  0
LINE
  5
12B
  8
DRG
 10
792.78485571179056
 20
1712.837125483494
 30
0.0
 11
792.78485571179056
 21
1702.003150887278
 31
0.0
  0
LINE
  5
12C
  8
DRG2
 10
822.78485571179067
 20
1705.9731508872769
 30
0.0
 11
807.78485571179056
 21
1705.9731508872769
 31
0.0
  0
LINE
  5
12D
  8
CRS
 10
824.89294093447393
 20
1693.803150887278
 30
0.0
 11
804.37333496692622
 21
1693.803150887278
 31
0.0
  0
LINE
  5
12E
  8
DRG2
 10
822.78485571179067
 20
1681.6331508872779
 30
0.0
 11
809.22762498509587
 21
1681.6331508872779
 31
0.0
  0
LINE
  5
12F
  8
DRG2
 10
822.78485571179067
 20
1705.9731508872769
 30
0.0
 11
823.78485571179056
 21
1704.9731508872769
 31
0.0
  0
LINE
  5
130
  8
DRG2
 10
823.78485571179056
 20
1682.6331508872779
 30
0.0
 11
822.78485571179067
 21
1681.6331508872779
 31
0.0
  0
LINE
  5
131
  8
DRG2
 10
823.78485571179056
 20
1704.9731508872769
 30
0.0
 11
823.78485571179056
 21
1682.6331508872779
 31
0.0
  0
LINE
  5
132
  8
DRG2
 10
822.78485571179067
 20
1705.9731508872769
 30
0.0
 11
822.78485571179067
 21
1681.6331508872779
 31
0.0
  0
LINE
  5
133
  8
DRG
 10
807.78485571179056
 20
1718.803150887278
 30
0.0
 11
792.78485571179056
 21
1718.803150887278
 31
0.0
  0
ARC
  5
134
  8
DRG
 10
792.78485571179078
 20
1794.7031508872769
 30
0.0
 40
6.0
 50
180.0
 51
270.0
  0
LINE
  5
135
  8
DRG
 10
792.78485571179056
 20
1788.7031508872781
 30
0.0
 11
792.78485571179056
 21
1774.5691762910619
 31
0.0
  0
ARC
  5
136
  8
DRG
 10
581.78485571179033
 20
2059.9031508872781
 30
0.0
 40
14.0
 50
0.0
 51
89.999999999999986
  0
ARC
  5
137
  8
DRG
 10
611.78485571179067
 20
1887.7031508872781
 30
0.0
 40
16.0
 50
180.0
 51
270.0
  0
LINE
  5
138
  8
DRG
 10
463.7848557117901
 20
2073.9031508872781
 30
0.0
 11
581.78485571179033
 21
2073.9031508872772
 31
0.0
  0
LINE
  5
139
  8
DRG
 10
417.7848557117901
 20
2038.903150887277
 30
0.0
 11
417.7848557117901
 21
1918.903150887277
 31
0.0
  0
LINE
  5
13A
  8
DRG
 10
432.7848557117901
 20
2032.4031508872779
 30
0.0
 11
432.7848557117901
 21
1925.4031508872779
 31
0.0
  0
ARC
  5
13B
  8
DRG
 10
443.78485571179039
 20
1900.4031508872779
 30
0.0
 40
6.0
 50
0.0000000000000509
 51
89.999999999999986
  0
LINE
  5
13C
  8
DRG
 10
432.7848557117901
 20
1925.4031508872779
 30
0.0
 11
432.7848557117901
 21
1906.4031508872779
 31
0.0
  0
LINE
  5
13D
  8
DRG
 10
417.7848557117901
 20
1918.903150887277
 30
0.0
 11
432.7848557117901
 21
1918.903150887277
 31
0.0
  0
LINE
  5
13E
  8
DRG
 10
432.7848557117901
 20
1906.4031508872779
 30
0.0
 11
443.7848557117905
 21
1906.4031508872779
 31
0.0
  0
ARC
  5
13F
  8
DRG
 10
428.78485571179039
 20
1901.931014932278
 30
0.0
 40
6.0
 50
0.0000000000000509
 51
48.189685104225752
  0
ARC
  5
140
  8
DRG
 10
443.78485571179033
 20
2057.4031508872781
 30
0.0
 40
6.0
 50
270.0
 51
0.0
  0
LINE
  5
141
  8
DRG
 10
417.7848557117901
 20
2038.903150887277
 30
0.0
 11
432.7848557117901
 21
2038.903150887277
 31
0.0
  0
LINE
  5
142
  8
DRG
 10
432.7848557117901
 20
2051.4031508872781
 30
0.0
 11
443.78485571179033
 21
2051.4031508872781
 31
0.0
  0
LINE
  5
143
  8
DRG
 10
432.7848557117901
 20
2051.4031508872781
 30
0.0
 11
432.7848557117901
 21
2032.4031508872779
 31
0.0
  0
ARC
  5
144
  8
DRG
 10
463.7848557117901
 20
2059.9031508872781
 30
0.0
 40
14.0
 50
89.999999999999986
 51
180.0
  0
LINE
  5
145
  8
DRG
 10
449.78485571179033
 20
2059.9031508872781
 30
0.0
 11
449.78485571179033
 21
2057.4031508872781
 31
0.0
  0
LINE
  5
146
  8
DRG
 10
611.78485571179067
 20
1871.7031508872781
 30
0.0
 11
770.78485571179056
 21
1871.7031508872781
 31
0.0
  0
LINE
  5
147
  8
DRG
 10
633.78485571178942
 20
2018.9031508872779
 30
0.0
 11
633.78485571179124
 21
1938.903150887277
 31
0.0
  0
LINE
  5
148
  8
DRG
 10
627.78485571178896
 20
2038.9031508872779
 30
0.0
 11
627.78485571179158
 21
1918.9031508872779
 31
0.0
  0
LINE
  5
149
  8
DRG
 10
612.78485571179056
 20
2032.403150887277
 30
0.0
 11
612.78485571179033
 21
1925.4031508872779
 31
0.0
  0
LINE
  5
14A
  8
DRG
 10
610.78485571179033
 20
1901.931014932278
 30
0.0
 11
610.78485571179067
 21
1877.7031508872781
 31
0.0
  0
ARC
  5
14B
  8
DRG
 10
616.78485571179067
 20
1877.7031508872781
 30
0.0
 40
6.0
 50
180.0
 51
270.0
  0
LINE
  5
14C
  8
DRG
 10
612.78485571179192
 20
1918.9031508872779
 30
0.0
 11
627.78485571179158
 21
1918.9031508872779
 31
0.0
  0
LINE
  5
14D
  8
CRS
 10
622.73225322314727
 20
1929.405676204218
 30
0.0
 11
647.35302544597323
 21
1929.405676204218
 31
0.0
  0
LINE
  5
14E
  8
DRG
 10
612.78485571179033
 20
1925.4031508872779
 30
0.0
 11
612.78485571179033
 21
1906.4031508872779
 31
0.0
  0
LINE
  5
14F
  8
DRG
 10
601.78485571179033
 20
1906.4031508872779
 30
0.0
 11
612.78485571179033
 21
1906.4031508872779
 31
0.0
  0
ARC
  5
150
  8
DRG
 10
601.78485571179033
 20
1900.4031508872779
 30
0.0
 40
6.0
 50
89.999999999999986
 51
180.0
  0
ARC
  5
151
  8
DRG
 10
616.78485571179033
 20
1901.931014932278
 30
0.0
 40
6.0
 50
131.8103148957795
 51
180.0
  0
LINE
  5
152
  8
DRG2
 10
638.78485571178942
 20
1938.5356762042179
 30
0.0
 11
638.78485571178942
 21
1920.2756762042179
 31
0.0
  0
LINE
  5
153
  8
DRG2
 10
639.78485571178942
 20
1937.5356762042179
 30
0.0
 11
639.78485571178942
 21
1921.2756762042179
 31
0.0
  0
LINE
  5
154
  8
DRG2
 10
627.78485571178942
 20
1920.2756762042179
 30
0.0
 11
638.78485571178942
 21
1920.2756762042179
 31
0.0
  0
LINE
  5
155
  8
DRG2
 10
639.78485571178942
 20
1921.2756762042179
 30
0.0
 11
638.78485571178942
 21
1920.2756762042179
 31
0.0
  0
LINE
  5
156
  8
DRG2
 10
627.78485571178942
 20
1938.5356762042179
 30
0.0
 11
638.78485571178942
 21
1938.5356762042179
 31
0.0
  0
LINE
  5
157
  8
DRG
 10
627.78485571179124
 20
1938.903150887277
 30
0.0
 11
633.78485571179124
 21
1938.903150887277
 31
0.0
  0
LINE
  5
158
  8
DRG2
 10
638.78485571178942
 20
1938.5356762042179
 30
0.0
 11
639.78485571178942
 21
1937.5356762042179
 31
0.0
  0
ARC
  5
159
  8
DRG
 10
601.78485571179033
 20
2057.4031508872781
 30
0.0
 40
6.0
 50
180.0
 51
270.0
  0
LINE
  5
15A
  8
DRG
 10
612.78485571178919
 20
2038.9031508872779
 30
0.0
 11
627.78485571178896
 21
2038.9031508872779
 31
0.0
  0
LINE
  5
15B
  8
CRS
 10
622.73225322314727
 20
2028.400625570335
 30
0.0
 11
647.35302544597323
 21
2028.400625570335
 31
0.0
  0
LINE
  5
15C
  8
DRG
 10
601.78485571179033
 20
2051.4031508872772
 30
0.0
 11
612.78485571179033
 21
2051.4031508872772
 31
0.0
  0
LINE
  5
15D
  8
DRG
 10
612.78485571179033
 20
2051.4031508872772
 30
0.0
 11
612.78485571179033
 21
2032.403150887277
 31
0.0
  0
LINE
  5
15E
  8
DRG2
 10
627.78485571178942
 20
2037.5306255703349
 30
0.0
 11
638.78485571178942
 21
2037.5306255703349
 31
0.0
  0
LINE
  5
15F
  8
DRG2
 10
627.78485571178942
 20
2019.2706255703349
 30
0.0
 11
638.78485571178942
 21
2019.2706255703349
 31
0.0
  0
LINE
  5
160
  8
DRG
 10
627.78485571178942
 20
2018.9031508872779
 30
0.0
 11
633.78485571178942
 21
2018.9031508872779
 31
0.0
  0
LINE
  5
161
  8
DRG2
 10
638.78485571178942
 20
2037.5306255703349
 30
0.0
 11
639.78485571178942
 21
2036.5306255703349
 31
0.0
  0
LINE
  5
162
  8
DRG2
 10
639.78485571178942
 20
2020.2706255703349
 30
0.0
 11
638.78485571178942
 21
2019.2706255703349
 31
0.0
  0
LINE
  5
163
  8
DRG2
 10
639.78485571178942
 20
2036.5306255703349
 30
0.0
 11
639.78485571178942
 21
2020.2706255703349
 31
0.0
  0
LINE
  5
164
  8
DRG2
 10
638.78485571178942
 20
2037.5306255703349
 30
0.0
 11
638.78485571178942
 21
2019.2706255703349
 31
0.0
  0
LINE
  5
165
  8
DRG
 10
595.78485571179033
 20
2059.9031508872772
 30
0.0
 11
595.78485571179033
 21
2057.4031508872781
 31
0.0
  0
ARC
  5
166
  8
DRG
 10
770.78485571179067
 20
1855.7031508872781
 30
0.0
 40
16.0
 50
0.0
 51
89.999999999999986
  0
LINE
  5
167
  8
CRS
 10
401.90334583935231
 20
1368.803150887278
 30
0.0
 11
1023.995295105665
 21
1368.803150887278
 31
0.0
  0
LINE
  5
168
  8
CRS
 10
413.47638350143092
 20
1743.7031508872769
 30
0.0
 11
805.84554062994243
 21
1743.7031508872781
 31
0.0
  0
LINE
  5
169
  8
DRG
 10
412.78485571179129
 20
1479.053150887278
 30
0.0
 11
412.78485571179152
 21
1368.803150887278
 31
0.0
  0
LINE
  5
16A
  8
DRG
 10
412.78485571179129
 20
1218.8031508872771
 30
0.0
 11
554.78485571179135
 21
1218.8031508872771
 31
0.0
  0
LINE
  5
16B
  8
DRG
 10
412.78485571179129
 20
1258.5531508872771
 30
0.0
 11
412.78485571179152
 21
1368.803150887278
 31
0.0
  0
LINE
  5
16C
  8
CRS
 10
407.15730628496738
 20
1236.303150887278
 30
0.0
 11
439.3162077125159
 21
1236.303150887278
 31
0.0
  0
LINE
  5
16D
  8
HID
 10
412.78485571179129
 20
1258.4231508872781
 30
0.0
 11
437.28485571179152
 21
1258.4231508872781
 31
0.0
  0
LINE
  5
16E
  8
DRG
 10
412.78485571179129
 20
1218.8031508872771
 30
0.0
 11
412.78485571179129
 21
1258.5531508872771
 31
0.0
  0
LINE
  5
16F
  8
CRS
 10
407.15730628496738
 20
1501.303150887278
 30
0.0
 11
439.3162077125159
 21
1501.303150887278
 31
0.0
  0
LINE
  5
170
  8
DRG
 10
412.78485571179129
 20
1518.803150887278
 30
0.0
 11
443.78485571179169
 21
1518.803150887278
 31
0.0
  0
LINE
  5
171
  8
HID
 10
412.78485571179129
 20
1479.1831508872781
 30
0.0
 11
437.28485571179152
 21
1479.1831508872781
 31
0.0
  0
LINE
  5
172
  8
DRG
 10
412.78485571179129
 20
1518.803150887278
 30
0.0
 11
412.78485571179129
 21
1479.053150887278
 31
0.0
  0
LINE
  5
173
  8
DRG
 10
234.03485571178979
 20
1953.9031508872779
 30
0.0
 11
411.78485571178999
 21
1953.9031508872779
 31
0.0
  0
LINE
  5
174
  8
DRG
 10
234.03485571178939
 20
2003.9031508872779
 30
0.0
 11
411.78485571178999
 21
2003.9031508872779
 31
0.0
  0
LINE
  5
175
  8
CRS
 10
225.1974126031744
 20
1978.9031508872779
 30
0.0
 11
641.08516239470646
 21
1978.903150887277
 31
0.0
  0
LINE
  5
176
  8
DRG2
 10
234.03485571178939
 20
2003.9031508872779
 30
0.0
 11
234.03485571178979
 21
1953.9031508872779
 31
0.0
  0
LINE
  5
177
  8
DRG
 10
232.53485571178939
 20
2002.4031508872779
 30
0.0
 11
232.53485571178979
 21
1955.4031508872779
 31
0.0
  0
LINE
  5
178
  8
DRG
 10
234.03485571178939
 20
2003.9031508872779
 30
0.0
 11
232.53485571178939
 21
2002.4031508872779
 31
0.0
  0
LINE
  5
179
  8
DRG
 10
237.53485571178979
 20
2007.303150887278
 30
0.0
 11
317.53485571178982
 21
2007.303150887278
 31
0.0
  0
LINE
  5
17A
  8
DRG
 10
237.53485571178979
 20
2007.303150887278
 30
0.0
 11
237.53485571178979
 21
2003.9031508872779
 31
0.0
  0
LINE
  5
17B
  8
DRG
 10
317.53485571178982
 20
2007.303150887278
 30
0.0
 11
317.53485571178982
 21
2003.9031508872779
 31
0.0
  0
LINE
  5
17C
  8
DRG
 10
411.78485571178999
 20
2018.903150887277
 30
0.0
 11
411.78485571178999
 21
1938.903150887277
 31
0.0
  0
LINE
  5
17D
  8
DRG2
 10
417.7848557117901
 20
1938.535676204219
 30
0.0
 11
406.78485571178999
 21
1938.535676204219
 31
0.0
  0
LINE
  5
17E
  8
DRG2
 10
417.7848557117901
 20
1920.2756762042191
 30
0.0
 11
406.78485571178999
 21
1920.2756762042191
 31
0.0
  0
LINE
  5
17F
  8
DRG
 10
411.78485571178999
 20
1938.903150887277
 30
0.0
 11
417.7848557117901
 21
1938.903150887277
 31
0.0
  0
LINE
  5
180
  8
CRS
 10
422.8374582004322
 20
1929.4056762042189
 30
0.0
 11
398.21668597760629
 21
1929.4056762042189
 31
0.0
  0
LINE
  5
181
  8
DRG2
 10
406.78485571178999
 20
1920.2756762042191
 30
0.0
 11
406.78485571178999
 21
1938.535676204219
 31
0.0
  0
LINE
  5
182
  8
DRG2
 10
405.7848557117901
 20
1921.2756762042191
 30
0.0
 11
405.7848557117901
 21
1937.535676204219
 31
0.0
  0
LINE
  5
183
  8
DRG2
 10
406.78485571178999
 20
1920.2756762042191
 30
0.0
 11
405.7848557117901
 21
1921.2756762042191
 31
0.0
  0
LINE
  5
184
  8
DRG2
 10
405.7848557117901
 20
1937.535676204219
 30
0.0
 11
406.78485571178999
 21
1938.535676204219
 31
0.0
  0
LINE
  5
185
  8
DRG2
 10
417.7848557117901
 20
2037.530625570336
 30
0.0
 11
406.78485571178999
 21
2037.530625570336
 31
0.0
  0
LINE
  5
186
  8
DRG2
 10
417.7848557117901
 20
2019.2706255703361
 30
0.0
 11
406.78485571178999
 21
2019.2706255703361
 31
0.0
  0
LINE
  5
187
  8
DRG
 10
411.78485571178999
 20
2018.903150887277
 30
0.0
 11
417.7848557117901
 21
2018.9031508872779
 31
0.0
  0
LINE
  5
188
  8
CRS
 10
422.8374582004322
 20
2028.400625570335
 30
0.0
 11
398.21668597760629
 21
2028.400625570335
 31
0.0
  0
LINE
  5
189
  8
DRG2
 10
405.7848557117901
 20
2036.530625570336
 30
0.0
 11
406.78485571178999
 21
2037.530625570336
 31
0.0
  0
LINE
  5
18A
  8
DRG2
 10
406.78485571178999
 20
2019.2706255703361
 30
0.0
 11
405.7848557117901
 21
2020.2706255703361
 31
0.0
  0
LINE
  5
18B
  8
DRG2
 10
405.7848557117901
 20
2020.2706255703361
 30
0.0
 11
405.7848557117901
 21
2036.530625570336
 31
0.0
  0
LINE
  5
18C
  8
DRG2
 10
406.78485571178999
 20
2019.2706255703361
 30
0.0
 11
406.78485571178999
 21
2037.530625570336
 31
0.0
  0
LINE
  5
18D
  8
DRG
 10
1008.0848557117901
 20
1586.819784142795
 30
0.0
 11
1008.0848557117901
 21
1150.78651763176
 31
0.0
  0
ARC
  5
18E
  8
DRG
 10
1641.8757729958079
 20
1368.803150887278
 30
0.0
 40
85.0
 50
89.999999999999986
 51
270.0
  0
ARC
  5
18F
  8
DRG
 10
1564.1857729958081
 20
1181.2531508872769
 30
0.0
 40
35.0
 50
149.62021309420689
 51
345.377572377077
  0
ARC
  5
190
  8
DRG
 10
1523.639242572073
 20
1205.0224350708011
 30
0.0
 40
12.0
 50
329.62021309420652
 51
54.173738910308302
  0
ARC
  5
191
  8
DRG
 10
1641.8757729958079
 20
1368.803150887278
 30
0.0
 40
190.0
 50
260.82404656097549
 51
270.0
  0
ARC
  5
192
  8
DRG
 10
1609.663463081748
 20
1169.3880885424271
 30
0.0
 40
12.0
 50
80.824046560975333
 51
165.37757237707731
  0
ARC
  5
193
  8
DRG
 10
1641.8757729958079
 20
1368.803150887278
 30
0.0
 40
170.0
 50
89.999999999999986
 51
270.0
  0
ARC
  5
194
  8
DRG
 10
1478.0950571793319
 20
1250.5666204635429
 30
0.0
 40
12.0
 50
35.826261089691222
 51
120.3797869057931
  0
ARC
  5
195
  8
DRG
 10
1454.3257729958079
 20
1291.1131508872779
 30
0.0
 40
35.0
 50
104.6224276229227
 51
300.37978690579331
  0
ARC
  5
196
  8
DRG
 10
1442.4607106509579
 20
1336.5908409732181
 30
0.0
 40
12.0
 50
284.62242762292311
 51
9.1759534390246387
  0
ARC
  5
197
  8
DRG
 10
1641.8757729958079
 20
1368.803150887278
 30
0.0
 40
190.0
 50
215.82626108969151
 51
234.17373891030849
  0
ARC
  5
198
  8
DRG
 10
1478.0950571793319
 20
1487.0396813110119
 30
0.0
 40
12.0
 50
239.6202130942068
 51
324.17373891030871
  0
ARC
  5
199
  8
DRG
 10
1454.3257729958079
 20
1446.493150887278
 30
0.0
 40
35.0
 50
59.620213094206669
 51
255.3775723770772
  0
ARC
  5
19A
  8
DRG
 10
1442.4607106509579
 20
1401.015460801337
 30
0.0
 40
12.0
 50
350.82404656097521
 51
75.377572377076845
  0
ARC
  5
19B
  8
DRG
 10
1641.8757729958079
 20
1368.803150887278
 30
0.0
 40
190.0
 50
170.8240465609754
 51
189.17595343902451
  0
ARC
  5
19C
  8
DRG
 10
1564.1857729958081
 20
1556.353150887277
 30
0.0
 40
35.0
 50
14.62242762292264
 51
210.3797869057932
  0
ARC
  5
19D
  8
DRG
 10
1523.639242572073
 20
1532.5838667037531
 30
0.0
 40
12.0
 50
305.82626108969163
 51
30.37978690579342
  0
LINE
  5
19E
  8
CRS
 10
1543.235871549907
 20
1556.533969090121
 30
0.0
 11
1584.9858715499049
 21
1556.533969090121
 31
0.0
  0
LINE
  5
19F
  8
CRS
 10
1564.1108715499061
 20
1535.6589690901219
 30
0.0
 11
1564.1108715499061
 21
1577.4089690901201
 31
0.0
  0
ARC
  5
1A0
  8
DRG
 10
1609.663463081748
 20
1568.2182132321279
 30
0.0
 40
12.0
 50
194.6224276229226
 51
279.17595343902462
  0
ARC
  5
1A1
  8
DRG
 10
1641.8757729958079
 20
1368.803150887278
 30
0.0
 40
190.0
 50
89.999999999999986
 51
99.175953439024511
  0
ARC
  5
1A2
  8
DRG
 10
1641.8757729958079
 20
1368.803150887278
 30
0.0
 40
190.0
 50
125.8262610896915
 51
144.1737389103084
  0
ARC
  5
1A3
  8
DRG
 10
1538.0968196319759
 20
1587.9817220276241
 30
0.0
 40
6.0
 50
309.51765343016729
 51
22.500767150921732
  0
ARC
  5
1A4
  8
DRG
 10
1560.2700877527191
 20
1597.165739742645
 30
0.0
 40
6.0
 50
202.50076715092189
 51
275.48035860648901
  0
LINE
  5
1A5
  8
DRG
 10
1320.859687225141
 20
1508.2616489305301
 30
0.0
 11
1420.3990780547681
 21
1467.032644679688
 31
0.0
  0
LINE
  5
1A6
  8
DRG
 10
1316.2676344784779
 20
1497.1750330549851
 30
0.0
 11
1415.8063437570131
 21
1455.9463111011589
 31
0.0
  0
ARC
  5
1A7
  8
DRG
 10
1422.6951044280991
 20
1472.5759526174611
 30
0.0
 40
6.0
 50
247.50076715092189
 51
320.48035860648901
  0
ARC
  5
1A8
  8
DRG
 10
1413.5103173836819
 20
1450.403003163387
 30
0.0
 40
6.0
 50
354.51765343016729
 51
67.500767150921732
  0
LINE
  5
1A9
  8
DRG
 10
1316.271072216932
 20
1240.4225494293501
 30
0.0
 11
1415.809358955079
 21
1281.654219192819
 31
0.0
  0
LINE
  5
1AA
  8
DRG
 10
1320.8634218462089
 20
1229.3360565266109
 30
0.0
 11
1420.401027040823
 21
1270.567443974815
 31
0.0
  0
ARC
  5
1AB
  8
DRG
 10
1413.5131841404409
 20
1287.1974656441889
 30
0.0
 40
6.0
 50
292.50076715092177
 51
5.4803586064890624
  0
ARC
  5
1AC
  8
DRG
 10
1422.6972018554609
 20
1265.0241975234451
 30
0.0
 40
6.0
 50
39.517653430167378
 51
112.5007671509217
  0
LINE
  5
1AD
  8
DRG
 10
1502.417274952556
 20
1047.7870651166099
 30
0.0
 11
1543.6462792033969
 21
1147.326455946238
 31
0.0
  0
LINE
  5
1AE
  8
DRG
 10
1513.5038908281001
 20
1043.195012369948
 30
0.0
 11
1554.732612781926
 21
1142.733721648483
 31
0.0
  0
ARC
  5
1AF
  8
DRG
 10
1538.1029712656241
 20
1149.6224823195689
 30
0.0
 40
6.0
 50
337.50076715092177
 51
50.480358606489077
  0
ARC
  5
1B0
  8
DRG
 10
1560.2759207196971
 20
1140.437695275152
 30
0.0
 40
6.0
 50
84.517653430167385
 51
157.50076715092169
  0
LINE
  5
1B1
  8
DRG
 10
1008.0848557117901
 20
1586.819784142795
 30
0.0
 11
823.16178508168082
 21
1586.819784142795
 31
0.0
  0
LINE
  5
1B2
  8
DRG
 10
807.78485571179056
 20
1689.8155020368749
 30
0.0
 11
821.72044378124406
 21
1610.782854772905
 31
0.0
  0
ARC
  5
1B3
  8
DRG
 10
830.98037746101875
 20
1592.819784142795
 30
0.0
 40
6.0
 50
190.0
 51
270.0
  0
LINE
  5
1B4
  8
DRG
 10
823.78485571179056
 20
1599.0749929229939
 30
0.0
 11
825.0715309429454
 21
1591.777895076794
 31
0.0
  0
LINE
  5
1B5
  8
DRG
 10
1008.084855711791
 20
1529.6923603534899
 30
0.0
 11
817.78485571179056
 21
1529.6923603534899
 31
0.0
  0
ARC
  5
1B6
  8
DRG
 10
817.78485571179056
 20
1539.6923603534899
 30
0.0
 40
10.0
 50
180.0
 51
270.0
  0
LINE
  5
1B7
  8
DRG
 10
807.78485571179056
 20
1047.790799737681
 30
0.0
 11
821.72044378124372
 21
1126.82344700165
 31
0.0
  0
ARC
  5
1B8
  8
DRG
 10
830.98037746101863
 20
1144.78651763176
 30
0.0
 40
6.0
 50
89.999999999999986
 51
170.0
  0
LINE
  5
1B9
  8
DRG
 10
823.78485571179056
 20
1138.531308851562
 30
0.0
 11
825.07153094294517
 21
1145.8284066977619
 31
0.0
  0
LINE
  5
1BA
  8
DRG
 10
1008.0848557117901
 20
1150.78651763176
 30
0.0
 11
823.16178508168048
 21
1150.78651763176
 31
0.0
  0
LINE
  5
1BB
  8
DRG
 10
1008.084855711791
 20
1207.9139414210661
 30
0.0
 11
817.78485571179044
 21
1207.9139414210661
 31
0.0
  0
ARC
  5
1BC
  8
DRG
 10
817.78485571179056
 20
1197.9139414210661
 30
0.0
 40
10.0
 50
89.999999999999986
 51
179.99999999999989
  0
LINE
  5
1BD
  8
DRG
 10
1016.0848557117901
 20
1483.1031508872779
 30
0.0
 11
1016.084855711791
 21
1254.503150887278
 31
0.0
  0
LINE
  5
1BE
  8
DRG
 10
1008.0848557117901
 20
1483.1031508872779
 30
0.0
 11
1016.0848557117901
 21
1483.1031508872779
 31
0.0
  0
LINE
  5
1BF
  8
DRG
 10
1008.0848557117901
 20
1254.503150887278
 30
0.0
 11
1016.084855711791
 21
1254.503150887278
 31
0.0
  0
LINE
  5
1C0
  8
HID
 10
778.48485571179094
 20
1453.5931508872729
 30
0.0
 11
890.73485571179094
 21
1453.5931508872741
 31
0.0
  0
LINE
  5
1C1
  8
HID
 10
778.48485571179071
 20
1284.0131508872739
 30
0.0
 11
890.73485571179083
 21
1284.0131508872739
 31
0.0
  0
LINE
  5
1C2
  8
HID
 10
737.48485571179094
 20
1453.0431508872739
 30
0.0
 11
737.48485571179071
 21
1284.5631508872741
 31
0.0
  0
LINE
  5
1C3
  8
HID
 10
766.98485571179015
 20
1284.5631508872741
 30
0.0
 11
737.48485571179071
 21
1284.5631508872741
 31
0.0
  0
LINE
  5
1C4
  8
HID
 10
766.98485571179071
 20
1285.8031508872739
 30
0.0
 11
737.48485571179071
 21
1285.8031508872739
 31
0.0
  0
LINE
  5
1C5
  8
HID
 10
778.48485571179071
 20
1283.8531508872741
 30
0.0
 11
770.98485571179071
 21
1283.8531508872741
 31
0.0
  0
LINE
  5
1C6
  8
HID
 10
770.98485571179071
 20
1285.9931508872739
 30
0.0
 11
766.98485571179071
 21
1285.9931508872739
 31
0.0
  0
LINE
  5
1C7
  8
HID
 10
766.98485571179015
 20
1284.5631508872741
 30
0.0
 11
766.98485571179071
 21
1285.9931508872739
 31
0.0
  0
LINE
  5
1C8
  8
HID
 10
770.98485571179071
 20
1283.8531508872741
 30
0.0
 11
770.98485571179071
 21
1285.9931508872739
 31
0.0
  0
LINE
  5
1C9
  8
HID
 10
778.48485571179071
 20
1284.0131508872739
 30
0.0
 11
778.48485571179071
 21
1283.8531508872741
 31
0.0
  0
LINE
  5
1CA
  8
HID
 10
766.98485571179037
 20
1453.0431508872739
 30
0.0
 11
737.48485571179094
 21
1453.0431508872739
 31
0.0
  0
LINE
  5
1CB
  8
HID
 10
766.98485571179094
 20
1451.8031508872739
 30
0.0
 11
737.48485571179094
 21
1451.8031508872739
 31
0.0
  0
LINE
  5
1CC
  8
HID
 10
778.48485571179094
 20
1453.7531508872739
 30
0.0
 11
770.98485571179094
 21
1453.7531508872739
 31
0.0
  0
LINE
  5
1CD
  8
HID
 10
770.98485571179094
 20
1453.7531508872739
 30
0.0
 11
770.98485571179094
 21
1451.6131508872741
 31
0.0
  0
LINE
  5
1CE
  8
HID
 10
766.98485571179037
 20
1453.0431508872739
 30
0.0
 11
766.98485571179094
 21
1451.6131508872741
 31
0.0
  0
LINE
  5
1CF
  8
HID
 10
770.98485571179094
 20
1451.6131508872741
 30
0.0
 11
766.98485571179094
 21
1451.6131508872741
 31
0.0
  0
LINE
  5
1D0
  8
HID
 10
778.48485571179094
 20
1453.7531508872739
 30
0.0
 11
778.48485571179094
 21
1453.5931508872729
 31
0.0
  0
LINE
  5
1D1
  8
HID
 10
997.23485571178981
 20
1453.5931508872741
 30
0.0
 11
997.23485571179071
 21
1284.0131508872739
 31
0.0
  0
LINE
  5
1D2
  8
HID
 10
922.68485571179053
 20
1284.0131508872739
 30
0.0
 11
997.23485571179071
 21
1284.0131508872739
 31
0.0
  0
LINE
  5
1D3
  8
HID
 10
922.68485571179053
 20
1284.0131508872739
 30
0.0
 11
922.68485571178996
 21
1263.923150887274
 31
0.0
  0
LINE
  5
1D4
  8
HID
 10
890.73485571179083
 20
1284.0131508872739
 30
0.0
 11
890.73485571179015
 21
1263.923150887274
 31
0.0
  0
LINE
  5
1D5
  8
HID
 10
890.73485571179015
 20
1263.923150887274
 30
0.0
 11
922.68485571178996
 21
1263.923150887274
 31
0.0
  0
LINE
  5
1D6
  8
HID
 10
922.68485571179065
 20
1453.5931508872741
 30
0.0
 11
997.23485571178981
 21
1453.5931508872741
 31
0.0
  0
LINE
  5
1D7
  8
HID
 10
890.73485571179037
 20
1473.683150887274
 30
0.0
 11
922.68485571179065
 21
1473.683150887274
 31
0.0
  0
LINE
  5
1D8
  8
HID
 10
890.73485571179094
 20
1473.683150887274
 30
0.0
 11
890.73485571179094
 21
1453.5931508872741
 31
0.0
  0
LINE
  5
1D9
  8
HID
 10
922.68485571179065
 20
1473.683150887274
 30
0.0
 11
922.68485571179065
 21
1453.5931508872741
 31
0.0
  0
TEXT
  5
1DA
  8
DIM
 10
205.17162717064929
 20
1775.8419337246919
 30
0.0
 40
12.0
  1
(%%c1.969" -0.002")
 50
89.999999999999986
 72
     4
 11
200.02877002779221
 21
1858.984790867549
 31
0.0
  0
TEXT
  5
1DB
  8
DIM
 10
177.22877002779239
 20
1792.3923530534721
 30
0.0
 40
12.0
  1
%%C50.00 -0.05
 50
89.999999999999986
 72
     4
 11
171.22877002779251
 21
1854.6780673391861
 31
0.0
  0
SOLID
  5
1DC
  8
DIM
 10
183.29597002779249
 20
1967.899950887278
 30
0.0
 11
187.96157002779231
 21
1967.899950887278
 31
0.0
 12
185.6287700277924
 22
1953.9031508872779
 32
0.0
 13
185.6287700277924
 23
1953.9031508872779
 33
0.0
  0
LINE
  5
1DD
  8
DIM
 10
185.6287700277924
 20
2003.9031508872779
 30
0.0
 11
185.6287700277924
 21
1773.626276923799
 31
0.0
  0
LINE
  5
1DE
  8
DIM
 10
229.23485571178989
 20
2003.9031508872779
 30
0.0
 11
180.8287700277925
 21
2003.9031508872779
 31
0.0
  0
LINE
  5
1DF
  8
DIM
 10
229.23485571178989
 20
1953.9031508872779
 30
0.0
 11
180.8287700277925
 21
1953.9031508872779
 31
0.0
  0
SOLID
  5
1E0
  8
DIM
 10
183.29597002779249
 20
1989.906350887278
 30
0.0
 11
187.96157002779231
 21
1989.906350887278
 31
0.0
 12
185.6287700277924
 22
2003.9031508872779
 32
0.0
 13
185.6287700277924
 23
2003.9031508872779
 33
0.0
  0
TEXT
  5
1E1
  8
DIM
 10
180.6247194445003
 20
2143.3889644079218
 30
0.0
 40
12.0
  1
5
 72
     1
 11
184.6247194445003
 21
2149.3889644079218
 31
0.0
 73
     2
  0
LINE
  5
1E2
  8
DIM
 10
232.53485571178939
 20
2134.9889644079221
 30
0.0
 11
155.01494865003249
 21
2134.9889644079221
 31
0.0
  0
LINE
  5
1E3
  8
DIM
 10
237.53485571178919
 20
2010.1497220340179
 30
0.0
 11
237.53485571178919
 21
2059.2795176554569
 31
0.0
  0
SOLID
  5
1E4
  8
DIM
 10
251.53165571178931
 20
2137.3217644079218
 30
0.0
 11
251.53165571178931
 21
2132.656164407922
 31
0.0
 12
237.53485571178919
 22
2134.9889644079221
 32
0.0
 13
237.53485571178919
 23
2134.9889644079221
 33
0.0
  0
SOLID
  5
1E5
  8
DIM
 10
218.5380557117893
 20
2137.3217644079218
 30
0.0
 11
218.5380557117893
 21
2132.656164407922
 31
0.0
 12
232.53485571178911
 22
2134.9889644079221
 32
0.0
 13
232.53485571178911
 23
2134.9889644079221
 33
0.0
  0
LINE
  5
1E6
  8
DIM
 10
237.53485571178919
 20
2134.9889644079221
 30
0.0
 11
266.33485571178932
 21
2134.9889644079221
 31
0.0
  0
LINE
  5
1E7
  8
DIM
 10
232.53485571178939
 20
2007.2031508872781
 30
0.0
 11
232.53485571178939
 21
2059.9001529930829
 31
0.0
  0
LINE
  5
1E8
  8
DIM
 10
432.7848557117901
 20
2056.2031508872792
 30
0.0
 11
432.7848557117901
 21
2205.7670091922018
 31
0.0
  0
LINE
  5
1E9
  8
DIM
 10
232.53485571178959
 20
2200.9670091922021
 30
0.0
 11
432.7848557117901
 21
2200.9670091922021
 31
0.0
  0
SOLID
  5
1EA
  8
DIM
 10
246.53165571178951
 20
2203.2998091922018
 30
0.0
 11
246.53165571178951
 21
2198.634209192202
 31
0.0
 12
232.53485571178939
 22
2200.9670091922021
 32
0.0
 13
232.53485571178939
 23
2200.9670091922021
 33
0.0
  0
SOLID
  5
1EB
  8
DIM
 10
418.78805571179009
 20
2203.2998091922018
 30
0.0
 11
418.78805571179009
 21
2198.634209192202
 31
0.0
 12
432.7848557117901
 22
2200.9670091922021
 32
0.0
 13
432.7848557117901
 23
2200.9670091922021
 33
0.0
  0
TEXT
  5
1EC
  8
DIM
 10
317.2312842832182
 20
2209.3670091922022
 30
0.0
 40
12.0
  1
200
 72
     1
 11
332.65985571178959
 21
2215.3670091922022
 31
0.0
 73
     2
  0
LINE
  5
1ED
  8
DIM
 10
417.7848557117901
 20
2043.7031508872781
 30
0.0
 11
417.7848557117901
 21
2139.7889644079219
 31
0.0
  0
LINE
  5
1EE
  8
DIM
 10
417.7848557117901
 20
2134.9889644079221
 30
0.0
 11
337.72205345077379
 21
2134.9889644079221
 31
0.0
  0
LINE
  5
1EF
  8
DIM
 10
432.7848557117901
 20
2134.9889644079221
 30
0.0
 11
461.58485571179
 21
2134.9889644079221
 31
0.0
  0
SOLID
  5
1F0
  8
DIM
 10
403.78805571179021
 20
2137.3217644079218
 30
0.0
 11
403.78805571179021
 21
2132.656164407922
 31
0.0
 12
417.7848557117901
 22
2134.9889644079221
 32
0.0
 13
417.7848557117901
 23
2134.9889644079221
 33
0.0
  0
SOLID
  5
1F1
  8
DIM
 10
446.78165571179022
 20
2137.3217644079218
 30
0.0
 11
446.78165571179022
 21
2132.656164407922
 31
0.0
 12
432.7848557117901
 22
2134.9889644079221
 32
0.0
 13
432.7848557117901
 23
2134.9889644079221
 33
0.0
  0
TEXT
  5
1F2
  8
DIM
 10
359.54090374661541
 20
2143.3889644079218
 30
0.0
 40
12.0
  1
15
 72
     1
 11
368.11233231804391
 21
2149.3889644079218
 31
0.0
 73
     2
  0
LINE
  5
1F3
  8
DIM
 10
1008.0848557117901
 20
1591.619784142795
 30
0.0
 11
1008.0848557117901
 21
2205.7670091922009
 31
0.0
  0
LINE
  5
1F4
  8
DIM
 10
432.7848557117901
 20
2200.9670091922021
 30
0.0
 11
1008.0848557117901
 21
2200.9670091922021
 31
0.0
  0
SOLID
  5
1F5
  8
DIM
 10
446.78165571179022
 20
2203.2998091922018
 30
0.0
 11
446.78165571179022
 21
2198.634209192202
 31
0.0
 12
432.7848557117901
 22
2200.9670091922021
 32
0.0
 13
432.7848557117901
 23
2200.9670091922021
 33
0.0
  0
SOLID
  5
1F6
  8
DIM
 10
994.08805571179084
 20
2203.2998091922018
 30
0.0
 11
994.08805571179084
 21
2198.634209192202
 31
0.0
 12
1008.084855711791
 22
2200.9670091922021
 32
0.0
 13
1008.084855711791
 23
2200.9670091922021
 33
0.0
  0
TEXT
  5
1F7
  8
DIM
 10
705.00628428321909
 20
2209.3670091922022
 30
0.0
 40
12.0
  1
575
 72
     1
 11
720.43485571179053
 21
2215.3670091922022
 31
0.0
 73
     2
  0
LINE
  5
1F8
  8
DIM
 10
639.78485571178942
 20
2041.3306255703351
 30
0.0
 11
639.78485571178942
 21
2088.8916147174018
 31
0.0
  0
LINE
  5
1F9
  8
DIM
 10
627.78485571178896
 20
2084.0916147174021
 30
0.0
 11
598.9848557117889
 21
2084.0916147174021
 31
0.0
  0
LINE
  5
1FA
  8
DIM
 10
654.1848557117894
 20
2084.0916147174021
 30
0.0
 11
668.58485571178937
 21
2084.0916147174021
 31
0.0
  0
LINE
  5
1FB
  8
DIM
 10
668.58485571178937
 20
2084.0916147174021
 30
0.0
 11
722.81079945828083
 21
2084.0916147174021
 31
0.0
  0
SOLID
  5
1FC
  8
DIM
 10
613.78805571178896
 20
2086.4244147174022
 30
0.0
 11
613.78805571178896
 21
2081.7588147174019
 31
0.0
 12
627.78485571178896
 22
2084.0916147174021
 32
0.0
 13
627.78485571178896
 23
2084.0916147174021
 33
0.0
  0
SOLID
  5
1FD
  8
DIM
 10
653.78165571178931
 20
2086.4244147174022
 30
0.0
 11
653.78165571178931
 21
2081.7588147174019
 31
0.0
 12
639.78485571178942
 22
2084.0916147174021
 32
0.0
 13
639.78485571178942
 23
2084.0916147174021
 33
0.0
  0
TEXT
  5
1FE
  8
DIM
 10
684.06595095824014
 20
2092.4916147174022
 30
0.0
 40
12.0
  1
12
 72
     1
 11
692.63737952966869
 21
2098.4916147174022
 31
0.0
 73
     2
  0
LINE
  5
1FF
  8
DIM
 10
627.78485571178896
 20
2043.7031508872781
 30
0.0
 11
627.78485571178896
 21
2139.7889644079219
 31
0.0
  0
LINE
  5
200
  8
DIM
 10
627.78485571178896
 20
2134.9889644079221
 30
0.0
 11
1008.0848557117901
 21
2134.9889644079221
 31
0.0
  0
SOLID
  5
201
  8
DIM
 10
641.78165571178874
 20
2137.3217644079218
 30
0.0
 11
641.78165571178874
 21
2132.656164407922
 31
0.0
 12
627.78485571178896
 22
2134.9889644079221
 32
0.0
 13
627.78485571178896
 23
2134.9889644079221
 33
0.0
  0
SOLID
  5
202
  8
DIM
 10
994.08805571179084
 20
2137.3217644079218
 30
0.0
 11
994.08805571179084
 21
2132.656164407922
 31
0.0
 12
1008.084855711791
 22
2134.9889644079221
 32
0.0
 13
1008.084855711791
 23
2134.9889644079221
 33
0.0
  0
TEXT
  5
203
  8
DIM
 10
802.50628428321841
 20
2143.3889644079218
 30
0.0
 40
12.0
  1
380
 72
     1
 11
817.93485571178985
 21
2149.3889644079218
 31
0.0
 73
     2
  0
LINE
  5
204
  8
DIM
 10
823.78485571179056
 20
1709.7731508872771
 30
0.0
 11
823.78485571179056
 21
1946.806195017429
 31
0.0
  0
LINE
  5
205
  8
DIM
 10
823.78485571179056
 20
1942.006195017429
 30
0.0
 11
1008.0848557117901
 21
1942.006195017429
 31
0.0
  0
SOLID
  5
206
  8
DIM
 10
837.78165571179056
 20
1944.3389950174301
 30
0.0
 11
837.78165571179056
 21
1939.6733950174289
 31
0.0
 12
823.78485571179078
 22
1942.006195017429
 32
0.0
 13
823.78485571179078
 23
1942.006195017429
 33
0.0
  0
SOLID
  5
207
  8
DIM
 10
994.08805571179084
 20
1944.3389950174301
 30
0.0
 11
994.08805571179084
 21
1939.6733950174289
 31
0.0
 12
1008.084855711791
 22
1942.006195017429
 32
0.0
 13
1008.084855711791
 23
1942.006195017429
 33
0.0
  0
TEXT
  5
208
  8
DIM
 10
901.36342714036221
 20
1950.40619501743
 30
0.0
 40
12.0
  1
184
 72
     1
 11
915.93485571179076
 21
1956.40619501743
 31
0.0
 73
     2
  0
TEXT
  5
209
  8
DIM
 10
-26.27768770667717
 20
1568.1329091041659
 30
0.0
 40
11.995200000000001
  1
45%%d OFFSET FROM CENTRE LINE
  0
TEXT
  5
20A
  8
DIM
 10
-26.27768770667717
 20
1609.2593091041661
 30
0.0
 40
11.995200000000001
  1
4 HOLES TAPPED M10x16
  0
TEXT
  5
20B
  8
DIM
 10
-26.27768770667717
 20
1588.696109104166
 30
0.0
 40
11.995200000000001
  1
(0.63") DEEP EQUALLY SPACED
  0
LINE
  5
20C
  8
DIM
 10
321.6853797231326
 20
1219.261558420772
 30
0.0
 11
321.6853797231326
 21
1285.8031508872739
 31
0.0
  0
TEXT
  5
20D
  8
DIM
 10
327.95409569547951
 20
937.12409174214577
 30
0.0
 40
11.995200000000001
  1
MAX. PERMISSIBLE O/D OF
 50
89.999999999999986
  0
TEXT
  5
20E
  8
DIM
 10
348.5172956954795
 20
937.12409174214577
 30
0.0
 40
11.995200000000001
  1
VALVE SPINDLE LOCKNUT
 50
89.999999999999986
  0
TEXT
  5
20F
  8
DIM
 10
307.39089569547968
 20
937.12409174214588
 30
0.0
 40
11.995200000000001
  1
%%C165 (%%c6.50") ROOT OF SPLINE
 50
89.999999999999986
  0
LINE
  5
210
  8
DIM
 10
402.49851021155081
 20
1479.183150887277
 30
0.0
 11
213.956586680659
 21
1479.1831508872781
 31
0.0
  0
LINE
  5
211
  8
DIM
 10
402.49851021155081
 20
1258.4231508872781
 30
0.0
 11
328.66184273127601
 21
1258.4231508872781
 31
0.0
  0
LINE
  5
212
  8
DIM
 10
215.956586680659
 20
1479.1831508872781
 30
0.0
 11
215.956586680659
 21
1258.4231508872781
 31
0.0
  0
TEXT
  5
213
  8
DIM
 10
208.2453866806587
 20
1347.954350887278
 30
0.0
 40
11.995200000000001
  1
%%C220
 50
89.999999999999986
 72
     4
 11
202.24778668065881
 21
1368.803150887278
 31
0.0
  0
TEXT
  5
214
  8
DIM
 10
1153.6197181935579
 20
1399.712439685035
 30
0.0
 40
11.995200000000001
  1

  0
TEXT
  5
215
  8
DIM
 10
1239.687490705174
 20
1755.7979747075631
 30
0.0
 40
11.995200000000001
  1
SEE TABLE FOR
  0
TEXT
  5
216
  8
DIM
 10
1239.687490705174
 20
1735.234774707563
 30
0.0
 40
11.995200000000001
  1
HOLE DETAILS
  0
TEXT
  5
217
  8
DIM
 10
1072.501516945591
 20
1650.6283092038871
 30
0.0
 40
12.0
  1
CENTRES ON %%C650 (%%c25.59") P.C.
  0
TEXT
  5
218
  8
DIM
 10
1072.501516945591
 20
1671.199737775316
 30
0.0
 40
12.0
  1
SCREWS EQUALLY SPACED ON
  0
TEXT
  5
219
  8
DIM
 10
1072.501516945591
 20
1691.7711663467439
 30
0.0
 40
12.0
  1
8 OFF M16 BASEPLATE SECURING
  0
TEXT
  5
21A
  8
DIM
 10
1476.966341389943
 20
975.57730003052745
 30
0.0
 40
11.995200000000001
  1
%%C705
 72
     4
 11
1497.8151413899441
 21
981.57490003052737
 31
0.0
  0
LINE
  5
21B
  8
DIM
 10
1289.375772995807
 20
967.86610003052715
 30
0.0
 11
1703.2262450204471
 21
967.86610003052681
 31
0.0
  0
SOLID
  5
21C
  8
DIM
 10
1303.374972995807
 20
970.19930003052775
 30
0.0
 11
1303.374972995807
 21
965.53290003052746
 31
0.0
 12
1289.375772995807
 22
967.86610003052726
 32
0.0
 13
1289.375772995807
 23
967.86610003052726
 33
0.0
  0
SOLID
  5
21D
  8
DIM
 10
1683.2278450204481
 20
970.1993000305273
 30
0.0
 11
1683.2278450204481
 21
965.53290003052723
 31
0.0
 12
1697.227045020448
 22
967.86610003052704
 32
0.0
 13
1697.227045020448
 23
967.86610003052704
 33
0.0
  0
SOLID
  5
21E
  8
DIM
 10
1697.227045020448
 20
970.1993000305273
 30
0.0
 11
1697.227045020448
 21
965.53290003052723
 31
0.0
 12
1711.226245020448
 22
967.86610003052704
 32
0.0
 13
1711.226245020448
 23
967.86610003052704
 33
0.0
  0
LINE
  5
21F
  8
DIM
 10
1677.221313683754
 20
1332.2465657274381
 30
0.0
 11
1471.331533462871
 21
1545.1907487188721
 31
0.0
  0
SOLID
  5
220
  8
DIM
 10
1484.495798448376
 20
1528.2187895000909
 30
0.0
 11
1487.850541469566
 21
1531.4623967854709
 31
0.0
 12
1476.4423481028291
 22
1539.904822206352
 32
0.0
 13
1476.4423481028291
 23
1539.904822206352
 33
0.0
  0
SOLID
  5
221
  8
DIM
 10
1661.9767806804209
 20
1350.8907126242609
 30
0.0
 11
1659.1011223389239
 21
1348.1103189285809
 31
0.0
 12
1668.880132596714
 22
1340.87354075193
 32
0.0
 13
1668.880132596714
 23
1340.87354075193
 33
0.0
  0
SOLID
  5
222
  8
DIM
 10
1670.317961767463
 20
1342.263737599769
 30
0.0
 11
1667.442303425966
 21
1339.483343904089
 31
0.0
 12
1677.2213136837561
 22
1332.2465657274381
 32
0.0
 13
1677.2213136837561
 23
1332.2465657274381
 33
0.0
  0
TEXT
  5
223
  8
DIM
 10
70.107327853684865
 20
1742.80495193723
 30
0.0
 40
12.0
  1
4 OFF M16 SCREWS ON 
  0
TEXT
  5
224
  8
DIM
 10
70.107327853684865
 20
1722.2335233658021
 30
0.0
 40
12.0
  1
%%C154 (%%c6.06") P.C. FOR
  0
LINE
  5
225
  8
DIM
 10
307.2462246749464
 20
1727.8257913477321
 30
0.0
 11
294.96567904614079
 21
1727.8257913477321
 31
0.0
  0
SOLID
  5
226
  8
DIM
 10
397.5421017402013
 20
1917.855378673685
 30
0.0
 11
401.73369845127149
 21
1915.8063934683339
 31
0.0
 12
405.78485571178999
 22
1929.4056762042189
 32
0.0
 13
405.78485571178999
 23
1929.4056762042189
 33
0.0
  0
LINE
  5
227
  8
DIM
 10
405.7848557117905
 20
1929.4056762042189
 30
0.0
 11
307.2462246749464
 21
1727.8257913477321
 31
0.0
  0
SOLID
  5
228
  8
DIM
 10
213.6237866806589
 20
1272.419950887278
 30
0.0
 11
218.28938668065859
 21
1272.419950887278
 31
0.0
 12
215.9565866806588
 22
1258.4231508872781
 32
0.0
 13
215.9565866806588
 23
1258.4231508872781
 33
0.0
  0
SOLID
  5
229
  8
DIM
 10
213.62378668065901
 20
1465.186350887278
 30
0.0
 11
218.28938668065879
 21
1465.186350887278
 31
0.0
 12
215.95658668065889
 22
1479.1831508872781
 32
0.0
 13
215.95658668065889
 23
1479.1831508872781
 33
0.0
  0
SOLID
  5
22A
  8
DIM
 10
402.30149785108352
 20
1510.870995598016
 30
0.0
 11
399.7650810725043
 21
1506.953806848016
 31
0.0
 12
412.78485571179118
 22
1501.303150887278
 32
0.0
 13
412.78485571179118
 23
1501.303150887278
 33
0.0
  0
LINE
  5
22B
  8
DIM
 10
401.03328946179403
 20
1508.912401223015
 30
0.0
 11
285.85843707532189
 21
1583.4892078840439
 31
0.0
  0
LINE
  5
22C
  8
DIM
 10
285.85843707532189
 20
1583.4892078840439
 30
0.0
 11
272.71323968287692
 21
1583.4892078840439
 31
0.0
  0
SOLID
  5
22D
  8
DIM
 10
1401.6355058828251
 20
1622.722085789356
 30
0.0
 11
1406.06618093315
 21
1624.1873149100729
 31
0.0
 12
1408.2465307701391
 22
1610.162675198736
 32
0.0
 13
1408.2465307701391
 23
1610.162675198736
 33
0.0
  0
LINE
  5
22E
  8
DIM
 10
1408.246530770137
 20
1610.162675198743
 30
0.0
 11
1386.355575257546
 21
1676.3582681241371
 31
0.0
  0
LINE
  5
22F
  8
DIM
 10
1372.584486808287
 20
1676.3582681241371
 30
0.0
 11
1386.355575257546
 21
1676.3582681241371
 31
0.0
  0
ARC
  5
230
  8
DIM
 10
1641.8757729958079
 20
1368.803150887278
 30
0.0
 40
238.0
 50
115.61668062541089
 51
135.0167532752908
  0
LINE
  5
231
  8
DIM
 10
1024.8365709180759
 20
1483.1031508872779
 30
0.0
 11
1043.2077133459959
 21
1483.1031508872779
 31
0.0
  0
LINE
  5
232
  8
DIM
 10
1024.8365709180771
 20
1254.503150887278
 30
0.0
 11
1204.0588066270959
 21
1254.503150887278
 31
0.0
  0
LINE
  5
233
  8
DIM
 10
1202.0588066270959
 20
1469.1031508872779
 30
0.0
 11
1202.0588066270959
 21
1268.503150887278
 31
0.0
  0
SOLID
  5
234
  8
DIM
 10
1199.7254732937629
 20
1469.1031508872779
 30
0.0
 11
1204.3921399604289
 21
1469.1031508872779
 31
0.0
 12
1202.0588066270959
 22
1483.1031508872779
 32
0.0
 13
1202.0588066270959
 23
1483.1031508872779
 33
0.0
  0
SOLID
  5
235
  8
DIM
 10
1199.7254732937629
 20
1268.503150887278
 30
0.0
 11
1204.3921399604289
 21
1268.503150887278
 31
0.0
 12
1202.0588066270959
 22
1254.503150887278
 32
0.0
 13
1202.0588066270959
 23
1254.503150887278
 33
0.0
  0
TEXT
  5
236
  8
DIM
 10
1193.0588066270959
 20
1298.2317223158491
 30
0.0
 40
12.0
  1
SEE TABLE FOR
 50
89.999999999999986
 72
     4
 11
1187.0588066270959
 21
1368.803150887278
 31
0.0
  0
LINE
  5
237
  8
DIM
 10
729.98485571179094
 20
1451.8031508872739
 30
0.0
 11
319.6853797231326
 21
1451.8031508872739
 31
0.0
  0
LINE
  5
238
  8
DIM
 10
729.98485571179071
 20
1285.8031508872739
 30
0.0
 11
319.6853797231326
 21
1285.8031508872739
 31
0.0
  0
LINE
  5
239
  8
DIM
 10
321.6853797231326
 20
1437.8031508872739
 30
0.0
 11
321.6853797231326
 21
1299.8031508872739
 31
0.0
  0
SOLID
  5
23A
  8
DIM
 10
319.35204638979923
 20
1437.8031508872739
 30
0.0
 11
324.01871305646569
 21
1437.8031508872739
 31
0.0
 12
321.68537972313248
 22
1451.8031508872739
 32
0.0
 13
321.68537972313248
 23
1451.8031508872739
 33
0.0
  0
SOLID
  5
23B
  8
DIM
 10
319.35204638979911
 20
1299.8031508872739
 30
0.0
 11
324.01871305646569
 21
1299.8031508872739
 31
0.0
 12
321.68537972313243
 22
1285.8031508872739
 32
0.0
 13
321.68537972313243
 23
1285.8031508872739
 33
0.0
  0
LINE
  5
23C
  8
DIM
 10
312.22859483909218
 20
1258.4231508872781
 30
0.0
 11
213.956586680659
 21
1258.4231508872781
 31
0.0
  0
LINE
  5
23D
  8
DIM
 10
412.78485571179129
 20
1211.3031508872771
 30
0.0
 11
412.78485571179112
 21
872.2028983592478
 31
0.0
  0
LINE
  5
23E
  8
DIM
 10
1008.0848557117901
 20
1143.28651763176
 30
0.0
 11
1008.0848557117901
 21
872.2028983592478
 31
0.0
  0
LINE
  5
23F
  8
DIM
 10
426.78485571179112
 20
874.20289835924791
 30
0.0
 11
994.08485571179062
 21
874.20289835924791
 31
0.0
  0
SOLID
  5
240
  8
DIM
 10
426.78485571179112
 20
876.53623169258151
 30
0.0
 11
426.78485571179112
 21
871.86956502591465
 31
0.0
 12
412.78485571179112
 22
874.20289835924791
 32
0.0
 13
412.78485571179112
 23
874.20289835924791
 33
0.0
  0
SOLID
  5
241
  8
DIM
 10
994.0848557117904
 20
876.53623169258151
 30
0.0
 11
994.0848557117904
 21
871.86956502591443
 31
0.0
 12
1008.0848557117901
 22
874.20289835924791
 32
0.0
 13
1008.0848557117901
 23
874.20289835924791
 33
0.0
  0
TEXT
  5
242
  8
DIM
 10
695.00628428321943
 20
883.20289835924791
 30
0.0
 40
12.0
  1
595
 72
     1
 11
710.43485571179087
 21
889.20289835924802
 31
0.0
 73
     2
  0
LINE
  5
243
  8
DIM
 10
751.48485571179094
 20
1429.428346301316
 30
0.0
 11
983.23485571179026
 21
1429.4283463013151
 31
0.0
  0
SOLID
  5
244
  8
DIM
 10
751.48485571179094
 20
1431.761679634649
 30
0.0
 11
751.48485571179094
 21
1427.095012967982
 31
0.0
 12
737.48485571179094
 22
1429.428346301316
 32
0.0
 13
737.48485571179094
 23
1429.428346301316
 33
0.0
  0
SOLID
  5
245
  8
DIM
 10
983.23485571179026
 20
1431.761679634649
 30
0.0
 11
983.23485571179026
 21
1427.095012967982
 31
0.0
 12
997.23485571179015
 22
1429.428346301316
 32
0.0
 13
997.23485571179015
 23
1429.428346301316
 33
0.0
  0
TEXT
  5
246
  8
DIM
 10
851.93128428321904
 20
1438.4283463013151
 30
0.0
 40
12.0
  1
260
 72
     1
 11
867.35985571179049
 21
1444.4283463013151
 31
0.0
 73
     2
  0
LINE
  5
247
  8
DIM
 10
737.48485571179071
 20
1277.0631508872741
 30
0.0
 11
737.48485571179071
 21
965.86610003052738
 31
0.0
  0
LINE
  5
248
  8
DIM
 10
751.48485571179071
 20
967.86610003052726
 30
0.0
 11
994.08485571179062
 21
967.86610003052715
 31
0.0
  0
SOLID
  5
249
  8
DIM
 10
751.48485571179094
 20
970.19943336386075
 30
0.0
 11
751.48485571179094
 21
965.53276669719423
 31
0.0
 12
737.48485571179094
 22
967.86610003052749
 32
0.0
 13
737.48485571179094
 23
967.86610003052749
 33
0.0
  0
SOLID
  5
24A
  8
DIM
 10
994.08485571179062
 20
970.19943336386075
 30
0.0
 11
994.08485571179062
 21
965.53276669719401
 31
0.0
 12
1008.0848557117901
 22
967.86610003052726
 32
0.0
 13
1008.0848557117901
 23
967.86610003052726
 33
0.0
  0
TEXT
  5
24B
  8
DIM
 10
859.92771285464767
 20
976.86610003052749
 30
0.0
 40
12.0
  1
271
 72
     1
 11
872.78485571179067
 21
982.86610003052738
 31
0.0
 73
     2
  0
LINE
  5
24C
  8
DIM
 10
1016.084855711791
 20
1247.003150887278
 30
0.0
 11
1016.084855711791
 21
965.86610003052704
 31
0.0
  0
LINE
  5
24D
  8
DIM
 10
994.08485571179062
 20
967.86610003052715
 30
0.0
 11
980.08485571179051
 21
967.86610003052715
 31
0.0
  0
LINE
  5
24E
  8
DIM
 10
1030.0848557117911
 20
967.86610003052715
 30
0.0
 11
1059.1089985093231
 21
967.86610003052715
 31
0.0
  0
LINE
  5
24F
  8
DIM
 10
1059.1089985093231
 20
967.86610003052715
 30
0.0
 11
1093.1606474310399
 21
967.86610003052715
 31
0.0
  0
SOLID
  5
250
  8
DIM
 10
994.08485571179062
 20
970.19943336386075
 30
0.0
 11
994.08485571179062
 21
965.53276669719401
 31
0.0
 12
1008.0848557117901
 22
967.86610003052726
 32
0.0
 13
1008.0848557117901
 23
967.86610003052726
 33
0.0
  0
SOLID
  5
251
  8
DIM
 10
1030.0848557117911
 20
970.19943336386075
 30
0.0
 11
1030.0848557117911
 21
965.53276669719401
 31
0.0
 12
1016.084855711791
 22
967.86610003052726
 32
0.0
 13
1016.084855711791
 23
967.86610003052726
 33
0.0
  0
TEXT
  5
252
  8
DIM
 10
1060.6089985093231
 20
976.86610003052726
 30
0.0
 40
12.0
  1
8
 72
     1
 11
1064.6089985093231
 21
982.86610003052738
 31
0.0
 73
     2
  0
SOLID
  5
253
  8
DIM
 10
1550.062212548866
 20
1583.003651088746
 30
0.0
 11
1546.123885183104
 21
1580.5001824274941
 31
0.0
 12
1555.603454849741
 22
1569.936934660835
 32
0.0
 13
1555.603454849741
 23
1569.936934660835
 33
0.0
  0
LINE
  5
254
  8
DIM
 10
1548.0930488659851
 20
1581.7519167581199
 30
0.0
 11
1440.4908741321551
 21
1751.026090598891
 31
0.0
  0
LINE
  5
255
  8
DIM
 10
1440.4908741321551
 20
1751.026090598891
 30
0.0
 11
1391.0814056988329
 21
1751.026090598891
 31
0.0
  0
SOLID
  5
256
  8
DIM
 10
1576.5752738110741
 20
2045.52136775082
 30
0.0
 11
1573.8624361306479
 21
2041.724225470442
 31
0.0
 12
1586.6102818119959
 22
2035.484283569353
 32
0.0
 13
1586.6102818119959
 23
2035.484283569353
 33
0.0
  0
LINE
  5
257
  8
DIM
 10
1575.2188549708601
 20
2043.622796610631
 30
0.0
 11
1505.0270576407311
 21
2093.7707601562629
 31
0.0
  0
ARC
  5
258
  8
DRG
 10
443.78485571179323
 20
1248.7626462870539
 30
0.0
 40
6.0
 50
270.0
 51
0.0000000000020228
  0
TEXT
  5
259
  8
DIM
 10
1223.0588066270959
 20
1326.386529370443
 30
0.0
 40
12.0
  1
SPIGOT DIA.
 50
89.999999999999986
 72
     4
 11
1217.0588066270959
 21
1378.386529370443
 31
0.0
  0
LINE
  5
25A
  8
DIM
 10
1708.6902012710841
 20
1964.9031508872779
 30
0.0
 11
1708.6902012710841
 21
1382.8031508872771
 31
0.0
  0
SOLID
  5
25B
  8
DIM
 10
1706.3568679377511
 20
2059.9031508872781
 30
0.0
 11
1711.023534604418
 21
2059.9031508872781
 31
0.0
 12
1708.6902012710841
 22
2073.9031508872781
 32
0.0
 13
1708.6902012710841
 23
2073.9031508872781
 33
0.0
  0
LINE
  5
25C
  8
DIM
 10
1649.3757729958079
 20
2073.9031508872781
 30
0.0
 11
1710.6902012710841
 21
2073.9031508872781
 31
0.0
  0
SOLID
  5
25D
  8
DIM
 10
1706.3568679377511
 20
1964.9031508872779
 30
0.0
 11
1711.023534604418
 21
1964.9031508872779
 31
0.0
 12
1708.6902012710841
 22
1978.9031508872779
 32
0.0
 13
1708.6902012710841
 23
1978.9031508872779
 33
0.0
  0
LINE
  5
25E
  8
DIM
 10
1674.809561405659
 20
1978.9031508872779
 30
0.0
 11
1710.6902012710841
 21
1978.9031508872779
 31
0.0
  0
SOLID
  5
25F
  8
DIM
 10
1706.3568679377511
 20
1992.9031508872779
 30
0.0
 11
1711.023534604418
 21
1992.9031508872779
 31
0.0
 12
1708.6902012710841
 22
1978.9031508872779
 32
0.0
 13
1708.6902012710841
 23
1978.9031508872779
 33
0.0
  0
TEXT
  5
260
  8
DIM
 10
1699.6902012710841
 20
2016.6888651729921
 30
0.0
 40
12.0
  1
95
 50
89.999999999999986
 72
     1
 11
1693.6902012710841
 21
2026.4031508872779
 31
0.0
 73
     2
  0
LINE
  5
261
  8
DIM
 10
1708.6902012710841
 20
1992.9031508872779
 30
0.0
 11
1708.6902012710841
 21
2059.9031508872781
 31
0.0
  0
LINE
  5
262
  8
DIM
 10
1670.236054918387
 20
1368.8031508872771
 30
0.0
 11
1710.6902012710841
 21
1368.8031508872771
 31
0.0
  0
SOLID
  5
263
  8
DIM
 10
1706.3568679377511
 20
1382.803150887278
 30
0.0
 11
1711.0235346044169
 21
1382.803150887278
 31
0.0
 12
1708.6902012710841
 22
1368.803150887278
 32
0.0
 13
1708.6902012710841
 23
1368.803150887278
 33
0.0
  0
TEXT
  5
264
  8
DIM
 10
1699.6902012710841
 20
1659.567436601563
 30
0.0
 40
12.0
  1
610
 50
89.999999999999986
 72
     1
 11
1693.6902012710841
 21
1673.8531508872779
 31
0.0
 73
     2
  0
TEXT
  5
265
  8
DIM
 10
1116.385456379488
 20
2066.9907957448781
 30
0.0
 40
12.0
  1
THIS SIDE ONLY FOR G30 & ISO F30
  0
TEXT
  5
266
  8
DIM
 10
1116.385456379488
 20
2108.769091550037
 30
0.0
 40
12.0
  1
4 OFF M12 SCREWS EACH SIDE ON
  0
TEXT
  5
267
  8
DIM
 10
1116.385456379488
 20
2088.1976629786091
 30
0.0
 40
12.0
  1
%%C140 (%%c5.51") P.C.
  0
LINE
  5
268
  8
DIM
 10
1505.0270576407311
 20
2093.7707601562629
 30
0.0
 11
1484.776863408036
 21
2093.7707601562629
 31
0.0
  0
LINE
  5
269
  8
HID
 10
430.52807214469988
 20
1497.053150887278
 30
0.0
 11
432.78485571179152
 21
1497.053150887278
 31
0.0
  0
LINE
  5
26A
  8
HID
 10
430.52807214469988
 20
1505.553150887278
 30
0.0
 11
432.78485571179152
 21
1505.553150887278
 31
0.0
  0
LINE
  5
26B
  8
HID
 10
412.78485571179152
 20
1496.303150887278
 30
0.0
 11
416.4199405547273
 21
1496.303150887278
 31
0.0
  0
LINE
  5
26C
  8
HID
 10
412.78485571179152
 20
1497.053150887278
 30
0.0
 11
416.02417131249831
 21
1497.053150887278
 31
0.0
  0
LINE
  5
26D
  8
HID
 10
412.78485571179152
 20
1506.303150887278
 30
0.0
 11
416.4199405547273
 21
1506.303150887278
 31
0.0
  0
LINE
  5
26E
  8
HID
 10
412.78485571179152
 20
1505.553150887278
 30
0.0
 11
416.02417131249831
 21
1505.553150887278
 31
0.0
  0
LINE
  5
26F
  8
HID
 10
428.78485571179152
 20
1497.8227691316149
 30
0.0
 11
428.78485571179152
 21
1496.303150887278
 31
0.0
  0
LINE
  5
270
  8
HID
 10
419.4223807758421
 20
1496.303150887278
 30
0.0
 11
423.91633957823842
 21
1496.303150887278
 31
0.0
  0
LINE
  5
271
  8
HID
 10
425.98852057906601
 20
1496.303150887278
 30
0.0
 11
428.78485571179152
 21
1496.303150887278
 31
0.0
  0
LINE
  5
272
  8
HID
 10
426.16359286974551
 20
1497.053150887278
 30
0.0
 11
429.4246324466601
 21
1497.053150887278
 31
0.0
  0
LINE
  5
273
  8
HID
 10
419.20169191471967
 20
1497.053150887278
 30
0.0
 11
423.70398583899919
 21
1497.053150887278
 31
0.0
  0
LINE
  5
274
  8
HID
 10
419.4223807758421
 20
1506.303150887278
 30
0.0
 11
423.91633957823842
 21
1506.303150887278
 31
0.0
  0
LINE
  5
275
  8
HID
 10
419.20169191471967
 20
1505.553150887278
 30
0.0
 11
423.70398583899919
 21
1505.553150887278
 31
0.0
  0
LINE
  5
276
  8
HID
 10
425.98852057906601
 20
1506.303150887278
 30
0.0
 11
428.78485571179152
 21
1506.303150887278
 31
0.0
  0
LINE
  5
277
  8
HID
 10
426.16359286974551
 20
1505.553150887278
 30
0.0
 11
429.4246324466601
 21
1505.553150887278
 31
0.0
  0
LINE
  5
278
  8
HID
 10
428.78485571179152
 20
1504.7835326429411
 30
0.0
 11
428.78485571179152
 21
1506.303150887278
 31
0.0
  0
LINE
  5
279
  8
HID
 10
428.78485571179152
 20
1502.430380797922
 30
0.0
 11
428.78485571179152
 21
1503.7540280686919
 31
0.0
  0
LINE
  5
27A
  8
HID
 10
428.78485571179152
 20
1499.096981440247
 30
0.0
 11
428.78485571179152
 21
1500.78830793774
 31
0.0
  0
LINE
  5
27B
  8
HID
 10
428.78485571179152
 20
1496.303150887278
 30
0.0
 11
428.78485571179152
 21
1497.650544001968
 31
0.0
  0
LINE
  5
27C
  8
HID
 10
428.78485571179152
 20
1497.8227691316149
 30
0.0
 11
428.78485571179152
 21
1496.303150887278
 31
0.0
  0
LINE
  5
27D
  8
HID
 10
434.49933399033171
 20
1502.5835874003731
 30
0.0
 11
435.23859435584762
 21
1501.303150887278
 31
0.0
  0
LINE
  5
27E
  8
HID
 10
432.78485571179152
 20
1505.553150887278
 30
0.0
 11
433.77099445472788
 21
1503.8451084812
 31
0.0
  0
LINE
  5
27F
  8
HID
 10
434.49933399033171
 20
1500.022714374182
 30
0.0
 11
435.23859435584762
 21
1501.303150887278
 31
0.0
  0
LINE
  5
280
  8
HID
 10
432.78485571179152
 20
1500.257437201808
 30
0.0
 11
432.78485571179152
 21
1502.3510222442919
 31
0.0
  0
LINE
  5
281
  8
HID
 10
432.78485571179152
 20
1497.053150887278
 30
0.0
 11
433.77099445472788
 21
1498.761193293356
 31
0.0
  0
LINE
  5
282
  8
HID
 10
432.78485571179152
 20
1504.121707295413
 30
0.0
 11
432.78485571179152
 21
1505.553150887278
 31
0.0
  0
LINE
  5
283
  8
HID
 10
432.78485571179152
 20
1497.053150887278
 30
0.0
 11
432.78485571179152
 21
1498.09175975889
 31
0.0
  0
LINE
  5
284
  8
HID
 10
432.78485571179152
 20
1497.053150887278
 30
0.0
 11
433.77099445472788
 21
1498.761193293356
 31
0.0
  0
LINE
  5
285
  8
HID
 10
430.52807214469988
 20
1232.053150887278
 30
0.0
 11
432.78485571179152
 21
1232.053150887278
 31
0.0
  0
LINE
  5
286
  8
HID
 10
430.52807214469988
 20
1240.553150887278
 30
0.0
 11
432.78485571179152
 21
1240.553150887278
 31
0.0
  0
LINE
  5
287
  8
HID
 10
412.78485571179152
 20
1231.303150887278
 30
0.0
 11
416.4199405547273
 21
1231.303150887278
 31
0.0
  0
LINE
  5
288
  8
HID
 10
412.78485571179152
 20
1232.053150887278
 30
0.0
 11
416.02417131249831
 21
1232.053150887278
 31
0.0
  0
LINE
  5
289
  8
HID
 10
412.78485571179152
 20
1240.553150887278
 30
0.0
 11
416.02417131249831
 21
1240.553150887278
 31
0.0
  0
LINE
  5
28A
  8
HID
 10
412.78485571179152
 20
1241.303150887278
 30
0.0
 11
416.4199405547273
 21
1241.303150887278
 31
0.0
  0
LINE
  5
28B
  8
HID
 10
428.78485571179152
 20
1239.7835326429411
 30
0.0
 11
428.78485571179152
 21
1241.303150887278
 31
0.0
  0
LINE
  5
28C
  8
HID
 10
428.78485571179152
 20
1241.303150887278
 30
0.0
 11
428.78485571179152
 21
1239.955757772588
 31
0.0
  0
LINE
  5
28D
  8
HID
 10
428.78485571179152
 20
1235.175920976634
 30
0.0
 11
428.78485571179152
 21
1233.852273705864
 31
0.0
  0
LINE
  5
28E
  8
HID
 10
428.78485571179152
 20
1232.8227691316149
 30
0.0
 11
428.78485571179152
 21
1231.303150887278
 31
0.0
  0
LINE
  5
28F
  8
HID
 10
419.4223807758421
 20
1231.303150887278
 30
0.0
 11
423.91633957823842
 21
1231.303150887278
 31
0.0
  0
LINE
  5
290
  8
HID
 10
425.98852057906601
 20
1231.303150887278
 30
0.0
 11
428.78485571179152
 21
1231.303150887278
 31
0.0
  0
LINE
  5
291
  8
HID
 10
426.16359286974551
 20
1232.053150887278
 30
0.0
 11
429.4246324466601
 21
1232.053150887278
 31
0.0
  0
LINE
  5
292
  8
HID
 10
419.20169191471967
 20
1232.053150887278
 30
0.0
 11
423.70398583899919
 21
1232.053150887278
 31
0.0
  0
LINE
  5
293
  8
HID
 10
419.20169191471967
 20
1240.553150887278
 30
0.0
 11
423.70398583899919
 21
1240.553150887278
 31
0.0
  0
LINE
  5
294
  8
HID
 10
426.16359286974551
 20
1240.553150887278
 30
0.0
 11
429.4246324466601
 21
1240.553150887278
 31
0.0
  0
LINE
  5
295
  8
HID
 10
425.98852057906601
 20
1241.303150887278
 30
0.0
 11
428.78485571179152
 21
1241.303150887278
 31
0.0
  0
LINE
  5
296
  8
HID
 10
419.4223807758421
 20
1241.303150887278
 30
0.0
 11
423.91633957823842
 21
1241.303150887278
 31
0.0
  0
LINE
  5
297
  8
HID
 10
428.78485571179152
 20
1239.7835326429411
 30
0.0
 11
428.78485571179152
 21
1241.303150887278
 31
0.0
  0
LINE
  5
298
  8
HID
 10
428.78485571179152
 20
1238.5093203343081
 30
0.0
 11
428.78485571179152
 21
1236.8179938368171
 31
0.0
  0
LINE
  5
299
  8
HID
 10
432.78485571179152
 20
1240.553150887278
 30
0.0
 11
432.78485571179152
 21
1239.514542015665
 31
0.0
  0
LINE
  5
29A
  8
HID
 10
432.78485571179152
 20
1233.484594479143
 30
0.0
 11
432.78485571179152
 21
1232.053150887278
 31
0.0
  0
LINE
  5
29B
  8
HID
 10
432.78485571179152
 20
1237.3488645727471
 30
0.0
 11
432.78485571179152
 21
1235.255279530264
 31
0.0
  0
LINE
  5
29C
  8
HID
 10
432.78485571179152
 20
1240.553150887278
 30
0.0
 11
433.77099445472788
 21
1238.8451084812
 31
0.0
  0
LINE
  5
29D
  8
HID
 10
432.78485571179152
 20
1240.553150887278
 30
0.0
 11
433.77099445472788
 21
1238.8451084812
 31
0.0
  0
LINE
  5
29E
  8
HID
 10
434.49933399033171
 20
1237.583587400374
 30
0.0
 11
435.23859435584762
 21
1236.303150887278
 31
0.0
  0
LINE
  5
29F
  8
HID
 10
432.78485571179152
 20
1232.053150887278
 30
0.0
 11
433.77099445472788
 21
1233.761193293356
 31
0.0
  0
LINE
  5
2A0
  8
HID
 10
434.49933399033171
 20
1235.022714374182
 30
0.0
 11
435.23859435584762
 21
1236.303150887278
 31
0.0
  0
TEXT
  5
2A1
  8
TXT
 10
759.15261807204593
 20
599.0923190452944
 30
0.0
 40
12.0
  1
8.11:1
 72
     4
 11
782.58118950061726
 21
605.0923190452944
 31
0.0
  0
TEXT
  5
2A2
  8
TXT
 10
764.29547521490304
 20
560.69231904529431
 30
0.0
 40
12.0
  1
7.30
 72
     4
 11
782.58118950061726
 21
566.6923190452942
 31
0.0
  0
LINE
  5
2A3
  8
DRG2
 10
314.58118950061748
 20
547.49231904529461
 30
0.0
 11
1322.581189500617
 21
547.49231904529415
 31
0.0
  0
LINE
  5
2A4
  8
DRG2
 10
314.58118950061748
 20
585.8923190452947
 30
0.0
 11
1322.581189500617
 21
585.89231904529424
 31
0.0
  0
LINE
  5
2A5
  8
DRG2
 10
314.58118950061748
 20
624.29231904529433
 30
0.0
 11
1322.581189500617
 21
624.29231904529377
 31
0.0
  0
LINE
  5
2A6
  8
DRG2
 10
314.58118950061748
 20
662.69231904529443
 30
0.0
 11
1322.581189500617
 21
662.69231904529408
 31
0.0
  0
TEXT
  5
2A7
  8
TXT
 10
326.00976092918881
 20
561.5494619024372
 30
0.0
 40
12.0
  1
FACTOR (MECH. ADVANTAGE)
 72
     4
 11
458.58118950061743
 21
566.6923190452942
 31
0.0
  0
TEXT
  5
2A8
  8
TXT
 10
389.72404664347448
 20
637.49231904529438
 30
0.0
 40
12.0
  1
NOMINAL RATIO
 72
     4
 11
458.58118950061743
 21
643.49231904529449
 31
0.0
  0
TEXT
  5
2A9
  8
TXT
 10
400.29547521490309
 20
599.0923190452944
 30
0.0
 40
12.0
  1
EXACT RATIO
 72
     4
 11
458.58118950061743
 21
605.0923190452944
 31
0.0
  0
LINE
  5
2AA
  8
DRG2
 10
314.58118950061748
 20
547.49231904529461
 30
0.0
 11
314.58118950061748
 21
662.69231904529443
 31
0.0
  0
TEXT
  5
2AB
  8
TXT
 10
639.15261807204593
 20
599.0923190452944
 30
0.0
 40
12.0
  1
6.11:1
 72
     4
 11
662.58118950061726
 21
605.0923190452944
 31
0.0
  0
TEXT
  5
2AC
  8
TXT
 10
644.29547521490304
 20
560.69231904529431
 30
0.0
 40
12.0
  1
5.50
 72
     4
 11
662.58118950061726
 21
566.6923190452942
 31
0.0
  0
LINE
  5
2AD
  8
DRG2
 10
602.58118950061737
 20
547.49231904529461
 30
0.0
 11
602.58118950061737
 21
662.69231904529443
 31
0.0
  0
TEXT
  5
2AE
  8
TXT
 10
651.15261807204581
 20
637.49231904529438
 30
0.0
 40
12.0
  1
6:1
 72
     4
 11
662.58118950061726
 21
643.49231904529449
 31
0.0
  0
LINE
  5
2AF
  8
DRG2
 10
722.58118950061748
 20
547.49231904529461
 30
0.0
 11
722.58118950061748
 21
662.69231904529408
 31
0.0
  0
TEXT
  5
2B0
  8
TXT
 10
771.15261807204593
 20
637.49231904529438
 30
0.0
 40
12.0
  1
8:1
 72
     4
 11
782.58118950061726
 21
643.49231904529449
 31
0.0
  0
TEXT
  5
2B1
  8
TXT
 10
1245.7240466434739
 20
638.63517618815138
 30
0.0
 40
12.0
  1
24;1
 72
     4
 11
1262.581189500617
 21
643.49231904529427
 31
0.0
  0
TEXT
  5
2B2
  8
TXT
 10
1239.7240466434739
 20
560.6923190452942
 30
0.0
 40
12.0
  1
21.68
 72
     4
 11
1262.581189500617
 21
566.6923190452942
 31
0.0
  0
TEXT
  5
2B3
  8
TXT
 10
1231.1526180720459
 20
599.09231904529418
 30
0.0
 40
12.0
  1
24.09:1
 72
     4
 11
1262.581189500617
 21
605.09231904529429
 31
0.0
  0
TEXT
  5
2B4
  8
TXT
 10
1006.581189500617
 20
637.49231904529427
 30
0.0
 40
12.0
  1
12:1
 72
     4
 11
1022.581189500617
 21
643.49231904529427
 31
0.0
  0
TEXT
  5
2B5
  8
TXT
 10
999.72404664347437
 20
560.6923190452942
 30
0.0
 40
12.0
  1
10.82
 72
     4
 11
1022.581189500617
 21
566.6923190452942
 31
0.0
  0
TEXT
  5
2B6
  8
TXT
 10
992.29547521490292
 20
599.09231904529418
 30
0.0
 40
12.0
  1
12.03:1
 72
     4
 11
1022.581189500617
 21
605.09231904529429
 31
0.0
  0
TEXT
  5
2B7
  8
TXT
 10
886.58118950061726
 20
637.49231904529438
 30
0.0
 40
12.0
  1
10:1
 72
     4
 11
902.58118950061726
 21
643.49231904529449
 31
0.0
  0
TEXT
  5
2B8
  8
TXT
 10
872.29547521490304
 20
599.0923190452944
 30
0.0
 40
12.0
  1
10.00:1
 72
     4
 11
902.58118950061726
 21
605.0923190452944
 31
0.0
  0
TEXT
  5
2B9
  8
TXT
 10
884.29547521490292
 20
560.69231904529431
 30
0.0
 40
12.0
  1
9.00
 72
     4
 11
902.58118950061726
 21
566.6923190452942
 31
0.0
  0
LINE
  5
2BA
  8
DRG2
 10
842.58118950061748
 20
547.49231904529461
 30
0.0
 11
842.58118950061748
 21
662.69231904529408
 31
0.0
  0
LINE
  5
2BB
  8
DRG2
 10
962.58118950061726
 20
547.49231904529415
 30
0.0
 11
962.58118950061726
 21
662.69231904529408
 31
0.0
  0
TEXT
  5
2BC
  8
TXT
 10
1126.581189500617
 20
637.49231904529427
 30
0.0
 40
12.0
  1
15:1
 72
     4
 11
1142.581189500617
 21
643.49231904529427
 31
0.0
  0
TEXT
  5
2BD
  8
TXT
 10
1113.4383323577599
 20
599.09231904529418
 30
0.0
 40
12.0
  1
15.17:1
 72
     4
 11
1142.581189500617
 21
605.09231904529429
 31
0.0
  0
TEXT
  5
2BE
  8
TXT
 10
1119.7240466434739
 20
560.6923190452942
 30
0.0
 40
12.0
  1
13.65
 72
     4
 11
1142.581189500617
 21
566.6923190452942
 31
0.0
  0
LINE
  5
2BF
  8
DRG2
 10
1082.581189500617
 20
547.49231904529415
 30
0.0
 11
1082.581189500617
 21
662.69231904529408
 31
0.0
  0
LINE
  5
2C0
  8
DRG2
 10
1202.581189500617
 20
547.49231904529415
 30
0.0
 11
1202.581189500617
 21
662.69231904529408
 31
0.0
  0
LINE
  5
2C1
  8
DRG2
 10
1322.581189500617
 20
547.49231904529415
 30
0.0
 11
1322.581189500617
 21
662.69231904529408
 31
0.0
  0
ARC
  5
2C2
  8
DRG2
 10
1564.1108715499061
 20
1556.533969090121
 30
0.0
 40
15.875
 50
66.173606895498395
 51
18.5289781006718
  0
CIRCLE
  5
2C3
  8
DRG2
 10
1564.1108715499061
 20
1556.533969090121
 30
0.0
 40
14.084300000000001
  0
LINE
  5
2C4
  8
CRS
 10
1454.1419492561779
 20
1425.685796325507
 30
0.0
 11
1454.1419492561779
 21
1467.4357963255061
 31
0.0
  0
LINE
  5
2C5
  8
CRS
 10
1475.016949256177
 20
1446.5607963255061
 30
0.0
 11
1433.266949256179
 21
1446.5607963255061
 31
0.0
  0
LINE
  5
2C6
  8
CRS
 10
1454.144954792964
 20
1270.163249441377
 30
0.0
 11
1454.144954792964
 21
1311.9132494413741
 31
0.0
  0
LINE
  5
2C7
  8
CRS
 10
1475.0199547929631
 20
1291.0382494413759
 30
0.0
 11
1433.2699547929651
 21
1291.0382494413759
 31
0.0
  0
LINE
  5
2C8
  8
CRS
 10
1584.993127557578
 20
1181.0693271476471
 30
0.0
 11
1543.2431275575791
 21
1181.0693271476471
 31
0.0
  0
LINE
  5
2C9
  8
CRS
 10
1564.1181275575791
 20
1201.9443271476459
 30
0.0
 11
1564.1181275575791
 21
1160.194327147648
 31
0.0
  0
ARC
  5
2CA
  8
DRG2
 10
1454.1419492561779
 20
1446.560796325507
 30
0.0
 40
15.875
 50
66.173606895498395
 51
18.5289781006718
  0
CIRCLE
  5
2CB
  8
DRG2
 10
1454.1419492561779
 20
1446.560796325507
 30
0.0
 40
14.084300000000001
  0
ARC
  5
2CC
  8
DRG2
 10
1454.1449547929651
 20
1291.0382494413759
 30
0.0
 40
15.875
 50
66.173606895498395
 51
18.5289781006718
  0
CIRCLE
  5
2CD
  8
DRG2
 10
1454.1449547929651
 20
1291.0382494413759
 30
0.0
 40
14.084300000000001
  0
ARC
  5
2CE
  8
DRG2
 10
1564.1181275575791
 20
1181.0693271476471
 30
0.0
 40
15.875
 50
66.173606895498395
 51
18.5289781006718
  0
CIRCLE
  5
2CF
  8
DRG2
 10
1564.1181275575791
 20
1181.0693271476471
 30
0.0
 40
14.084300000000001
  0
TEXT
  5
2D0
  8
DIM
 10
1153.6197181935579
 20
1338.022839685035
 30
0.0
 40
11.995200000000001
  1

  0
TEXT
  5
2D1
  8
DIM
 10
1728.833058413941
 20
1996.1174366015639
 30
0.0
 40
12.0
  1
(3.74")
 50
89.999999999999986
 72
     4
 11
1723.6902012710841
 21
2026.4031508872779
 31
0.0
  0
TEXT
  5
2D2
  8
DIM
 10
1728.833058413941
 20
1637.8531508872779
 30
0.0
 40
12.0
  1
(24.02")
 50
89.999999999999986
 72
     4
 11
1723.6902012710841
 21
1673.8531508872779
 31
0.0
  0
ARC
  5
2D3
  8
DRG
 10
1641.8757729958079
 20
1368.803150887278
 30
0.0
 40
114.3000000000001
 50
89.999999999999986
 51
270.0
  0
LINE
  5
2D4
  8
DIM
 10
1471.331533462871
 20
1545.1907487188721
 30
0.0
 11
1363.5431836276971
 21
1545.1907487188721
 31
0.0
  0
TEXT
  5
2D5
  8
DIM
 10
1363.9470123674289
 20
1525.9675989627231
 30
0.0
 40
11.995200000000001
  1
(%%c18.74")
 50
0.0000000000002036
 72
     4
 11
1404.216612367429
 21
1531.108398962723
 31
0.0
  0
TEXT
  5
2D6
  8
DIM
 10
1383.653412367428
 20
1553.275498475022
 30
0.0
 40
11.995200000000001
  1
%%C476
 50
0.0000000000001272
 72
     4
 11
1404.216612367429
 21
1559.2730984750219
 31
0.0
  0
TEXT
  5
2D7
  8
DIM
 10
1456.403141389944
 20
949.01650003052669
 30
0.0
 40
11.995200000000001
  1
(%%c27.76")
 72
     4
 11
1497.8151413899441
 21
954.15730003052681
 31
0.0
  0
TEXT
  5
2D8
  8
DIM
 10
832.5027128546476
 20
1409.2854891584591
 30
0.0
 40
12.0
  1
(10.23")
 72
     4
 11
867.35985571179049
 21
1414.428346301316
 31
0.0
  0
TEXT
  5
2D9
  8
DIM
 10
837.92771285464801
 20
947.72324288766936
 30
0.0
 40
12.0
  1
(10.65")
 72
     4
 11
872.78485571179078
 21
952.86610003052658
 31
0.0
  0
TEXT
  5
2DA
  8
DIM
 10
1035.466141366466
 20
947.72324288767015
 30
0.0
 40
12.0
  1
(0.31")
 72
     4
 11
1064.6089985093231
 21
952.86610003052726
 31
0.0
  0
TEXT
  5
2DB
  8
DIM
 10
674.43485571179076
 20
854.06004121639091
 30
0.0
 40
12.0
  1
(23.44")
 72
     4
 11
710.43485571179087
 21
859.20289835924814
 31
0.0
  0
TEXT
  5
2DC
  8
DIM
 10
234.80618668065901
 20
1333.1031508872779
 30
0.0
 40
11.995200000000001
  1
(%%c8.69")
 50
89.999999999999986
 72
     4
 11
229.665386680659
 21
1368.803150887278
 31
0.0
  0
TEXT
  5
2DD
  8
DIM
 10
-26.27768770667717
 20
1547.5697091041659
 30
0.0
 40
11.995200000000001
  1
ON %%c265 (%%c10.43") P.C.
  0
TEXT
  5
2DE
  8
DIM
 10
70.107327853684865
 20
1701.6620947943729
 30
0.0
 40
12.0
  1
G30  & ISO F30 ONLY
  0
TEXT
  5
2DF
  8
DIM
 10
885.64914142607665
 20
1922.4633378745721
 30
0.0
 40
12.0
  1
(7.26")
 72
     4
 11
915.93485571179076
 21
1927.6061950174289
 31
0.0
  0
TEXT
  5
2E0
  8
DIM
 10
662.35166524395424
 20
2064.5487575745451
 30
0.0
 40
12.0
  1
(0.47")
 72
     4
 11
692.63737952966869
 21
2069.691614717402
 31
0.0
  0
TEXT
  5
2E1
  8
DIM
 10
783.07771285464696
 20
2115.4461072650638
 30
0.0
 40
12.0
  1
(14.97")
 72
     4
 11
817.93485571178985
 21
2120.5889644079211
 31
0.0
  0
TEXT
  5
2E2
  8
DIM
 10
337.82661803232969
 20
2115.4461072650638
 30
0.0
 40
12.0
  1
(0.59")
 72
     4
 11
368.11233231804391
 21
2120.5889644079211
 31
0.0
  0
TEXT
  5
2E3
  8
DIM
 10
154.33900515878599
 20
2115.4461072650638
 30
0.0
 40
12.0
  1
(0.20")
 72
     4
 11
184.6247194445003
 21
2120.5889644079211
 31
0.0
  0
TEXT
  5
2E4
  8
DIM
 10
302.37414142607531
 20
2181.4241520493451
 30
0.0
 40
12.0
  1
(7.88")
 72
     4
 11
332.65985571178959
 21
2186.5670091922029
 31
0.0
  0
TEXT
  5
2E5
  8
DIM
 10
684.43485571179053
 20
2181.4241520493451
 30
0.0
 40
12.0
  1
(22.65")
 72
     4
 11
720.43485571179053
 21
2186.5670091922029
 31
0.0
  0
TEXT
  5
2E6
  8
DIM
 10
56.606024247595897
 20
2078.3408097939018
 30
0.0
 40
12.0
  1
14x9x80
 72
     4
 11
92.034595676167314
 21
2084.3408097939032
 31
0.0
  0
TEXT
  5
2E7
  8
DIM
 10
4.6060242475958972
 20
2058.626524079616
 30
0.0
 40
12.0
  1
(0.55"x0.35"x3.15")
 72
     4
 11
92.034595676167314
 21
2063.7693812224738
 31
0.0
  0
TEXT
  5
2E8
  8
DIM
 10
76.034595676167328
 20
2037.1979526510449
 30
0.0
 40
12.0
  1
KEY
 72
     4
 11
92.034595676167314
 21
2043.1979526510449
 31
0.0
  0
LINE
  5
2E9
  8
DIM
 10
277.53485571178982
 20
2007.303150887278
 30
0.0
 11
238.4410701749276
 21
2063.7693812224738
 31
0.0
  0
SOLID
  5
2EA
  8
DIM
 10
271.48547391263088
 20
2020.1389346938099
 30
0.0
 11
267.64951061316981
 21
2017.483146877513
 31
0.0
 12
277.53485571178948
 22
2007.303150887278
 32
0.0
 13
277.53485571178948
 23
2007.303150887278
 33
0.0
  0
LINE
  5
2EB
  8
DIM
 10
186.00325807991479
 20
2063.7693812224738
 30
0.0
 11
238.4410701749276
 21
2063.7693812224738
 31
0.0
  0
LINE
  5
2EC
  8
DIM
 10
237.53485571178919
 20
2067.5028879342331
 30
0.0
 11
237.53485571178919
 21
2140.7005548662441
 31
0.0
  0
LINE
  5
2ED
  8
DIM
 10
232.53485571178939
 20
2067.9683548484991
 30
0.0
 11
232.53485571178939
 21
2205.7670091922018
 31
0.0
  0
LINE
  5
2EE
  8
DRG
 10
234.03485571178939
 20
1953.903150887277
 30
0.0
 11
232.53485571178939
 21
1955.4031508872779
 31
0.0
  0
TEXT
  5
2EF
  8
TXT
 10
805.8954752149034
 20
2643.3544125022372
 30
0.0
 40
12.0
  1
EXTENSION
 72
     4
 11
852.18118950061773
 21
2649.3544125022372
 31
0.0
  0
TEXT
  5
2F0
  8
TXT
 10
824.75261807204606
 20
2668.554412502237
 30
0.0
 40
12.0
  1
SHAFT
 72
     4
 11
852.18118950061773
 21
2674.554412502237
 31
0.0
  0
TEXT
  5
2F1
  8
TXT
 10
842.46690378633195
 20
2604.9544125022371
 30
0.0
 40
12.0
  1
90
 72
     4
 11
852.18118950061773
 21
2610.954412502238
 31
0.0
  0
TEXT
  5
2F2
  8
TXT
 10
821.89547521490317
 20
2580.6115553593791
 30
0.0
 40
12.0
  1
(3.54")
 72
     4
 11
852.18118950061773
 21
2585.7544125022359
 31
0.0
  0
LINE
  5
2F3
  8
DRG2
 10
336.18118950061768
 20
2375.7544125022368
 30
0.0
 11
1740.1811895006181
 21
2375.7544125022382
 31
0.0
  0
LINE
  5
2F4
  8
DRG2
 10
336.18118950061779
 20
2439.3544125022381
 30
0.0
 11
1740.1811895006181
 21
2439.3544125022381
 31
0.0
  0
LINE
  5
2F5
  8
DRG2
 10
336.18118950061779
 20
2502.954412502238
 30
0.0
 11
1740.1811895006181
 21
2502.954412502238
 31
0.0
  0
LINE
  5
2F6
  8
DRG2
 10
336.18118950061779
 20
2502.954412502238
 30
0.0
 11
1740.1811895006181
 21
2502.954412502238
 31
0.0
  0
LINE
  5
2F7
  8
DRG2
 10
336.18118950061779
 20
2630.1544125022369
 30
0.0
 11
1740.1811895006181
 21
2630.1544125022369
 31
0.0
  0
LINE
  5
2F8
  8
DRG2
 10
336.18118950061779
 20
2566.5544125022379
 30
0.0
 11
1740.1811895006181
 21
2566.5544125022379
 31
0.0
  0
LINE
  5
2F9
  8
DRG2
 10
336.18118950061779
 20
2693.7544125022368
 30
0.0
 11
1740.1811895006181
 21
2693.7544125022382
 31
0.0
  0
LINE
  5
2FA
  8
DRG2
 10
336.18118950061779
 20
2732.1544125022369
 30
0.0
 11
1740.1811895006181
 21
2732.1544125022378
 31
0.0
  0
LINE
  5
2FB
  8
DRG2
 10
336.18118950061768
 20
2312.1544125022369
 30
0.0
 11
1740.1811895006181
 21
2312.1544125022378
 31
0.0
  0
LINE
  5
2FC
  8
DRG2
 10
336.18118950061768
 20
2248.554412502237
 30
0.0
 11
1740.1811895006181
 21
2248.5544125022379
 31
0.0
  0
LINE
  5
2FD
  8
DIM
 10
183.4505373739384
 20
2849.8624617766118
 30
0.0
 11
296.25053737393807
 21
2849.8624617766118
 31
0.0
  0
ARC
  5
2FE
  8
DRG
 10
280.35053737393832
 20
2527.0624617766121
 30
0.0
 40
6.0
 50
270.0
 51
0.0
  0
ARC
  5
2FF
  8
DRG
 10
280.35053737393832
 20
2468.2624617766119
 30
0.0
 40
6.0
 50
270.0
 51
0.0
  0
ARC
  5
300
  8
DRG
 10
280.35053737393832
 20
2441.8624617766118
 30
0.0
 40
6.0
 50
0.0
 51
89.999999999999915
  0
ARC
  5
301
  8
DRG
 10
280.35053737393832
 20
2383.0624617766121
 30
0.0
 40
6.0
 50
0.0
 51
89.999999999999986
  0
LINE
  5
302
  8
CRS
 10
23.875171239906649
 20
2455.0624617766121
 30
0.0
 11
328.21533539753932
 21
2455.0624617766121
 31
0.0
  0
LINE
  5
303
  8
DRG
 10
197.85053737393801
 20
2705.8624617766131
 30
0.0
 11
286.35053737393832
 21
2542.0624617766121
 31
0.0
  0
LINE
  5
304
  8
DRG
 10
197.85053737393821
 20
2204.2624617766119
 30
0.0
 11
286.35053737393821
 21
2368.0624617766121
 31
0.0
  0
LINE
  5
305
  8
HID
 10
181.35053737393801
 20
2584.7224617766101
 30
0.0
 11
181.35053737393841
 21
2325.4024617766108
 31
0.0
  0
LINE
  5
306
  8
DIM
 10
-30.149462626060771
 20
2705.8624617766131
 30
0.0
 11
-30.14946262606054
 21
2204.2624617766128
 31
0.0
  0
LINE
  5
307
  8
DRG
 10
197.85053737393801
 20
2705.8624617766131
 30
0.0
 11
197.85053737393841
 21
2204.2624617766128
 31
0.0
  0
LINE
  5
308
  8
DRG
 10
173.85053737393801
 20
2705.8624617766131
 30
0.0
 11
173.85053737393821
 21
2204.2624617766119
 31
0.0
  0
LINE
  5
309
  8
DIM
 10
164.67374713660581
 20
2204.2624617766119
 30
0.0
 11
-32.549462626061079
 21
2204.2624617766128
 31
0.0
  0
SOLID
  5
30A
  8
DIM
 10
-32.549462626060397
 20
2218.6624617766129
 30
0.0
 11
-27.749462626060222
 21
2218.6624617766129
 31
0.0
 12
-30.149462626060771
 22
2204.2624617766128
 32
0.0
 13
-30.149462626060771
 23
2204.2624617766128
 33
0.0
  0
LINE
  5
30B
  8
CRS
 10
170.12306871985319
 20
2241.4624617766121
 30
0.0
 11
200.42792798715831
 21
2241.4624617766121
 31
0.0
  0
LINE
  5
30C
  8
DRG
 10
173.85053737393821
 20
2204.2624617766119
 30
0.0
 11
197.85053737393821
 21
2204.2624617766119
 31
0.0
  0
LINE
  5
30D
  8
HID
 10
173.8505373739398
 20
2227.662461776612
 30
0.0
 11
197.8505373739398
 21
2227.662461776612
 31
0.0
  0
LINE
  5
30E
  8
HID
 10
173.85053737393841
 20
2325.4024617766108
 30
0.0
 11
181.35053737393841
 21
2325.4024617766108
 31
0.0
  0
LINE
  5
30F
  8
HID
 10
173.8505373739398
 20
2255.2624617766119
 30
0.0
 11
197.8505373739398
 21
2255.2624617766119
 31
0.0
  0
LINE
  5
310
  8
DIM
 10
168.36201309277089
 20
2705.8624617766131
 30
0.0
 11
-32.549462626060858
 21
2705.8624617766131
 31
0.0
  0
TEXT
  5
311
  8
DIM
 10
-10.4430626260609
 20
2412.5080617766139
 30
0.0
 40
11.995200000000001
  1
SEE TABLE
 50
89.999999999999986
 72
     4
 11
-16.440662626060881
 21
2460.4888617766128
 31
0.0
  0
TEXT
  5
312
  8
DIM
 10
-37.8606626260609
 20
2369.9536617766139
 30
0.0
 40
11.995200000000001
  1
FOR INPUT OPTIONS
 50
89.999999999999986
 72
     4
 11
-43.858262626060871
 21
2460.4888617766128
 31
0.0
  0
SOLID
  5
313
  8
DIM
 10
-32.549462626060397
 20
2691.4624617766121
 30
0.0
 11
-27.749462626060222
 21
2691.4624617766121
 31
0.0
 12
-30.149462626060771
 22
2705.8624617766131
 32
0.0
 13
-30.149462626060771
 23
2705.8624617766131
 33
0.0
  0
LINE
  5
314
  8
DIM
 10
173.85053737393849
 20
2711.667514038108
 30
0.0
 11
173.85053737393849
 21
2852.2624617766119
 31
0.0
  0
LINE
  5
315
  8
DRG
 10
43.650537373938278
 20
2425.0624617766121
 30
0.0
 11
173.85053737393829
 21
2425.0624617766121
 31
0.0
  0
LINE
  5
316
  8
DRG
 10
43.65053737393805
 20
2485.0624617766121
 30
0.0
 11
173.85053737393801
 21
2485.0624617766121
 31
0.0
  0
LINE
  5
317
  8
DRG
 10
47.850537373938323
 20
2489.142461776612
 30
0.0
 11
167.85053737393829
 21
2489.142461776612
 31
0.0
  0
LINE
  5
318
  8
DIM
 10
62.250537373938641
 20
2561.142461776612
 30
0.0
 11
126.1595772234907
 21
2561.142461776612
 31
0.0
  0
TEXT
  5
319
  8
DIM
 10
68.254928631373531
 20
2542.292861776612
 30
0.0
 40
11.995200000000001
  1
(0.20")
 72
     4
 11
98.528528631373547
 21
2547.433661776613
 31
0.0
  0
LINE
  5
31A
  8
DRG
 10
41.850537373938089
 20
2483.2624617766119
 30
0.0
 11
41.850537373938323
 21
2426.8624617766118
 31
0.0
  0
LINE
  5
31B
  8
DRG2
 10
43.65053737393805
 20
2485.0624617766121
 30
0.0
 11
43.650537373938278
 21
2425.0624617766121
 31
0.0
  0
LINE
  5
31C
  8
DRG
 10
41.850537373938323
 20
2426.8624617766118
 30
0.0
 11
43.650537373938278
 21
2425.0624617766121
 31
0.0
  0
SOLID
  5
31D
  8
DIM
 10
27.45053737393869
 20
2563.542461776613
 30
0.0
 11
27.45053737393869
 21
2558.7424617766128
 31
0.0
 12
41.85053737393855
 22
2561.142461776612
 32
0.0
 13
41.85053737393855
 23
2561.142461776612
 33
0.0
  0
LINE
  5
31E
  8
DIM
 10
27.45053737393869
 20
2561.142461776612
 30
0.0
 11
9.7006792196780225
 21
2561.142461776612
 31
0.0
  0
LINE
  5
31F
  8
DIM
 10
41.85053737393855
 20
2487.826170090023
 30
0.0
 11
41.85053737393855
 21
2564.8238188047162
 31
0.0
  0
LINE
  5
320
  8
DIM
 10
47.850537373938543
 20
2493.2368155327708
 30
0.0
 11
47.850537373938543
 21
2567.5496974945149
 31
0.0
  0
LINE
  5
321
  8
DRG
 10
47.850537373938323
 20
2489.142461776612
 30
0.0
 11
47.850537373938323
 21
2485.0624617766121
 31
0.0
  0
LINE
  5
322
  8
DRG
 10
43.65053737393805
 20
2485.0624617766121
 30
0.0
 11
41.850537373938089
 21
2483.2624617766119
 31
0.0
  0
SOLID
  5
323
  8
DIM
 10
62.250537373938641
 20
2563.542461776613
 30
0.0
 11
62.250537373938641
 21
2558.7424617766128
 31
0.0
 12
47.850537373938543
 22
2561.142461776612
 32
0.0
 13
47.850537373938543
 23
2561.142461776612
 33
0.0
  0
TEXT
  5
324
  8
DIM
 10
94.530128631373543
 20
2568.8536617766122
 30
0.0
 40
11.995200000000001
  1
5
 72
     4
 11
98.528528631373547
 21
2574.8512617766128
 31
0.0
  0
LINE
  5
325
  8
DRG
 10
203.85053737393829
 20
2521.0624617766121
 30
0.0
 11
280.35053737393832
 21
2521.0624617766121
 31
0.0
  0
LINE
  5
326
  8
DRG
 10
203.85053737393829
 20
2389.0624617766121
 30
0.0
 11
280.35053737393832
 21
2389.0624617766121
 31
0.0
  0
LINE
  5
327
  8
DRG
 10
203.85053737393829
 20
2447.8624617766118
 30
0.0
 11
280.35053737393832
 21
2447.8624617766118
 31
0.0
  0
LINE
  5
328
  8
DRG
 10
203.85053737393829
 20
2462.2624617766119
 30
0.0
 11
280.35053737393832
 21
2462.2624617766119
 31
0.0
  0
ARC
  5
329
  8
DRG
 10
203.85053737393821
 20
2383.0624617766121
 30
0.0
 40
6.0
 50
89.999999999999986
 51
180.0
  0
ARC
  5
32A
  8
DRG
 10
203.85053737393829
 20
2441.8624617766118
 30
0.0
 40
6.0
 50
89.999999999999986
 51
180.0
  0
LINE
  5
32B
  8
DRG
 10
167.85053737393829
 20
2489.142461776612
 30
0.0
 11
167.85053737393829
 21
2485.0624617766121
 31
0.0
  0
ARC
  5
32C
  8
DRG
 10
203.85053737393829
 20
2468.2624617766119
 30
0.0
 40
6.0
 50
180.0
 51
270.0
  0
ARC
  5
32D
  8
DRG
 10
203.85053737393829
 20
2527.0624617766121
 30
0.0
 40
6.0
 50
180.0
 51
270.0
  0
SOLID
  5
32E
  8
DIM
 10
212.2505373739379
 20
2780.2624617766119
 30
0.0
 11
212.2505373739379
 21
2775.4624617766131
 31
0.0
 12
197.85053737393801
 22
2777.8624617766118
 32
0.0
 13
197.85053737393801
 23
2777.8624617766118
 33
0.0
  0
LINE
  5
32F
  8
CRS
 10
170.12306871985169
 20
2668.662461776612
 30
0.0
 11
200.42792798715661
 21
2668.662461776612
 31
0.0
  0
LINE
  5
330
  8
HID
 10
173.85053737393801
 20
2654.8624617766131
 30
0.0
 11
197.85053737393801
 21
2654.8624617766131
 31
0.0
  0
LINE
  5
331
  8
HID
 10
173.85053737393829
 20
2584.7224617766101
 30
0.0
 11
181.35053737393801
 21
2584.7224617766101
 31
0.0
  0
LINE
  5
332
  8
DRG
 10
173.85053737393801
 20
2705.8624617766131
 30
0.0
 11
197.85053737393801
 21
2705.8624617766131
 31
0.0
  0
LINE
  5
333
  8
HID
 10
173.85053737393801
 20
2682.4624617766121
 30
0.0
 11
197.85053737393801
 21
2682.4624617766131
 31
0.0
  0
LINE
  5
334
  8
DIM
 10
159.4505373739386
 20
2777.8624617766118
 30
0.0
 11
145.05053737393851
 21
2777.8624617766118
 31
0.0
  0
SOLID
  5
335
  8
DIM
 10
159.4505373739386
 20
2780.2624617766119
 30
0.0
 11
159.4505373739386
 21
2775.4624617766131
 31
0.0
 12
173.85053737393849
 22
2777.8624617766118
 32
0.0
 13
173.85053737393849
 23
2777.8624617766118
 33
0.0
  0
LINE
  5
336
  8
DIM
 10
197.85053737393801
 20
2711.667514038108
 30
0.0
 11
197.85053737393801
 21
2780.2624617766119
 31
0.0
  0
LINE
  5
337
  8
DIM
 10
212.2505373739379
 20
2777.8624617766118
 30
0.0
 11
276.41726406555739
 21
2777.8624617766118
 31
0.0
  0
TEXT
  5
338
  8
DIM
 10
214.68448748010579
 20
2759.0128617766122
 30
0.0
 40
11.995200000000001
  1
(0.79")
 72
     4
 11
244.9580874801058
 21
2764.1536617766119
 31
0.0
  0
TEXT
  5
339
  8
DIM
 10
209.57693737393851
 20
2831.0128617766122
 30
0.0
 40
11.995200000000001
  1
(4.33")
 72
     4
 11
239.85053737393849
 21
2836.1536617766119
 31
0.0
  0
SOLID
  5
33A
  8
DIM
 10
188.25053737393861
 20
2852.2624617766119
 30
0.0
 11
188.25053737393861
 21
2847.4624617766131
 31
0.0
 12
173.85053737393849
 22
2849.8624617766118
 32
0.0
 13
173.85053737393849
 23
2849.8624617766118
 33
0.0
  0
TEXT
  5
33B
  8
DIM
 10
226.7129373739385
 20
2857.573661776612
 30
0.0
 40
11.995200000000001
  1
110
 72
     4
 11
239.85053737393849
 21
2863.571261776613
 31
0.0
  0
TEXT
  5
33C
  8
DIM
 10
235.24768748010581
 20
2785.5736617766129
 30
0.0
 40
11.995200000000001
  1
20
 72
     4
 11
244.9580874801058
 21
2791.571261776613
 31
0.0
  0
TEXT
  5
33D
  8
TXT
 10
621.89547521490329
 20
2350.554412502237
 30
0.0
 40
12.0
  1
%%c50.00 -0.05
 72
     4
 11
684.18118950061762
 21
2356.554412502237
 31
0.0
  0
LINE
  5
33E
  8
DRG2
 10
576.18118950061739
 20
2248.554412502237
 30
0.0
 11
576.18118950061762
 21
2693.7544125022368
 31
0.0
  0
LINE
  5
33F
  8
DRG2
 10
792.18118950061762
 20
2248.5544125022379
 30
0.0
 11
792.18118950061762
 21
2693.7544125022382
 31
0.0
  0
LINE
  5
340
  8
DRG2
 10
456.18118950061768
 20
2248.554412502237
 30
0.0
 11
456.1811895006179
 21
2693.7544125022368
 31
0.0
  0
LINE
  5
341
  8
DRG2
 10
336.18118950061768
 20
2248.554412502237
 30
0.0
 11
336.18118950061779
 21
2732.1544125022369
 31
0.0
  0
TEXT
  5
342
  8
TXT
 10
495.32404664347467
 20
2350.554412502237
 30
0.0
 40
12.0
  1
%%c350
 72
     4
 11
516.18118950061751
 21
2356.554412502237
 31
0.0
  0
TEXT
  5
343
  8
TXT
 10
361.60976092918918
 20
2337.954412502238
 30
0.0
 40
12.0
  1
ISO F30
 72
     4
 11
396.18118950061779
 21
2343.9544125022371
 31
0.0
  0
TEXT
  5
344
  8
TXT
 10
362.46690378633201
 20
2286.9544125022371
 30
0.0
 40
12.0
  1
ROTORK
 72
     4
 11
396.18118950061768
 21
2292.9544125022371
 31
0.0
  0
TEXT
  5
345
  8
TXT
 10
380.46690378633201
 20
2261.7544125022368
 30
0.0
 40
12.0
  1
G30
 72
     4
 11
396.18118950061768
 21
2267.7544125022382
 31
0.0
  0
TEXT
  5
346
  8
TXT
 10
475.89547521490329
 20
2262.61155535938
 30
0.0
 40
12.0
  1
(%%c16.46")
 72
     4
 11
516.18118950061751
 21
2267.7544125022382
 31
0.0
  0
TEXT
  5
347
  8
TXT
 10
496.4669037863319
 20
2286.9544125022371
 30
0.0
 40
12.0
  1
%%c418
 72
     4
 11
516.18118950061751
 21
2292.9544125022371
 31
0.0
  0
TEXT
  5
348
  8
TXT
 10
475.89547521490329
 20
2326.2115553593799
 30
0.0
 40
12.0
  1
(%%c13.78")
 72
     4
 11
516.18118950061751
 21
2331.3544125022372
 31
0.0
  0
TEXT
  5
349
  8
TXT
 10
601.03833235776051
 20
2326.2115553593799
 30
0.0
 40
12.0
  1
(%%c1.969" -0.002")
 72
     4
 11
684.18118950061762
 21
2331.3544125022372
 31
0.0
  0
TEXT
  5
34A
  8
TXT
 10
621.89547521490329
 20
2286.9544125022371
 30
0.0
 40
12.0
  1
%%c50.00 -0.05
 72
     4
 11
684.18118950061762
 21
2292.9544125022371
 31
0.0
  0
TEXT
  5
34B
  8
TXT
 10
601.03833235776051
 20
2262.61155535938
 30
0.0
 40
12.0
  1
(%%c1.969" -0.002")
 72
     4
 11
684.18118950061762
 21
2267.7544125022382
 31
0.0
  0
LINE
  5
34C
  8
DIM
 10
305.85053737393832
 20
2547.8210896187838
 30
0.0
 11
305.85053737393832
 21
2852.2624617766119
 31
0.0
  0
TEXT
  5
34D
  8
TXT
 10
363.03833235776068
 20
2592.3544125022372
 30
0.0
 40
12.0
  1
ISO F16
 72
     4
 11
396.18118950061779
 21
2598.3544125022372
 31
0.0
  0
TEXT
  5
34E
  8
TXT
 10
361.60976092918918
 20
2465.1544125022369
 30
0.0
 40
12.0
  1
ISO F25
 72
     4
 11
396.18118950061779
 21
2471.1544125022369
 31
0.0
  0
LINE
  5
34F
  8
DRG
 10
305.85053737393832
 20
2542.0624617766121
 30
0.0
 11
305.85053737393821
 21
2368.0624617766121
 31
0.0
  0
LINE
  5
350
  8
DRG
 10
286.35053737393832
 20
2542.0624617766121
 30
0.0
 11
286.35053737393821
 21
2368.0624617766121
 31
0.0
  0
LINE
  5
351
  8
DRG
 10
286.35053737393821
 20
2368.0624617766121
 30
0.0
 11
305.85053737393821
 21
2368.0624617766121
 31
0.0
  0
LINE
  5
352
  8
DRG
 10
286.35053737393832
 20
2542.0624617766121
 30
0.0
 11
305.85053737393832
 21
2542.0624617766121
 31
0.0
  0
TEXT
  5
353
  8
TXT
 10
375.03833235776062
 20
2401.554412502237
 30
0.0
 40
12.0
  1
FA25
 72
     4
 11
396.18118950061779
 21
2407.554412502237
 31
0.0
  0
TEXT
  5
354
  8
TXT
 10
376.46690378633213
 20
2528.7544125022359
 30
0.0
 40
12.0
  1
FA16
 72
     4
 11
396.18118950061779
 21
2534.7544125022368
 31
0.0
  0
TEXT
  5
355
  8
TXT
 10
480.4669037863319
 20
2517.0115553593801
 30
0.0
 40
12.0
  1
(%%c8.27")
 72
     4
 11
516.18118950061751
 21
2522.1544125022369
 31
0.0
  0
TEXT
  5
356
  8
TXT
 10
478.18118950061762
 20
2389.8115553593798
 30
0.0
 40
12.0
  1
(%%c11.81")
 72
     4
 11
516.18118950061751
 21
2394.9544125022371
 31
0.0
  0
TEXT
  5
357
  8
TXT
 10
478.18118950061762
 20
2453.4115553593788
 30
0.0
 40
12.0
  1
(%%c11.81")
 72
     4
 11
516.18118950061751
 21
2458.554412502237
 31
0.0
  0
TEXT
  5
358
  8
TXT
 10
495.32404664347467
 20
2414.1544125022369
 30
0.0
 40
12.0
  1
%%c300
 72
     4
 11
516.18118950061751
 21
2420.1544125022369
 31
0.0
  0
TEXT
  5
359
  8
TXT
 10
495.32404664347467
 20
2477.7544125022368
 30
0.0
 40
12.0
  1
%%c300
 72
     4
 11
516.18118950061751
 21
2483.7544125022368
 31
0.0
  0
TEXT
  5
35A
  8
TXT
 10
496.4669037863319
 20
2541.3544125022381
 30
0.0
 40
12.0
  1
%%c210
 72
     4
 11
516.18118950061751
 21
2547.3544125022381
 31
0.0
  0
TEXT
  5
35B
  8
TXT
 10
480.4669037863319
 20
2580.6115553593791
 30
0.0
 40
12.0
  1
(%%c8.27")
 72
     4
 11
516.18118950061751
 21
2585.7544125022359
 31
0.0
  0
TEXT
  5
35C
  8
TXT
 10
496.4669037863319
 20
2604.9544125022371
 30
0.0
 40
12.0
  1
%%c210
 72
     4
 11
516.18118950061751
 21
2610.954412502238
 31
0.0
  0
TEXT
  5
35D
  8
TXT
 10
488.4669037863319
 20
2644.2115553593799
 30
0.0
 40
12.0
  1
O/DIA.
 72
     4
 11
516.18118950061751
 21
2649.3544125022372
 31
0.0
  0
TEXT
  5
35E
  8
TXT
 10
483.89547521490329
 20
2668.554412502237
 30
0.0
 40
12.0
  1
FLANGE
 72
     4
 11
516.18118950061751
 21
2674.554412502237
 31
0.0
  0
SOLID
  5
35F
  8
DIM
 10
291.45053737393818
 20
2852.2624617766119
 30
0.0
 11
291.45053737393818
 21
2847.4624617766131
 31
0.0
 12
305.85053737393832
 22
2849.8624617766118
 32
0.0
 13
305.85053737393832
 23
2849.8624617766118
 33
0.0
  0
TEXT
  5
360
  8
TXT
 10
601.03833235776051
 20
2580.6115553593791
 30
0.0
 40
12.0
  1
(%%c1.575" -0.002")
 72
     4
 11
684.18118950061762
 21
2585.7544125022359
 31
0.0
  0
TEXT
  5
361
  8
TXT
 10
621.89547521490329
 20
2541.3544125022372
 30
0.0
 40
12.0
  1
%%c40.00 -0.05
 72
     4
 11
684.18118950061762
 21
2547.3544125022372
 31
0.0
  0
TEXT
  5
362
  8
TXT
 10
621.89547521490329
 20
2604.9544125022371
 30
0.0
 40
12.0
  1
%%c40.00 -0.05
 72
     4
 11
684.18118950061762
 21
2610.954412502238
 31
0.0
  0
TEXT
  5
363
  8
TXT
 10
601.03833235776051
 20
2517.0115553593801
 30
0.0
 40
12.0
  1
(%%c1.575" -0.002")
 72
     4
 11
684.18118950061762
 21
2522.1544125022369
 31
0.0
  0
TEXT
  5
364
  8
TXT
 10
621.89547521490329
 20
2477.7544125022368
 30
0.0
 40
12.0
  1
%%c50.00 -0.05
 72
     4
 11
684.18118950061762
 21
2483.7544125022368
 31
0.0
  0
TEXT
  5
365
  8
TXT
 10
601.03833235776051
 20
2453.4115553593788
 30
0.0
 40
12.0
  1
(%%c1.969" -0.002")
 72
     4
 11
684.18118950061762
 21
2458.554412502237
 31
0.0
  0
TEXT
  5
366
  8
TXT
 10
601.03833235776051
 20
2389.8115553593798
 30
0.0
 40
12.0
  1
(%%c1.969" -0.002")
 72
     4
 11
684.18118950061762
 21
2394.9544125022371
 31
0.0
  0
TEXT
  5
367
  8
TXT
 10
621.89547521490329
 20
2414.1544125022369
 30
0.0
 40
12.0
  1
%%c50.00 -0.05
 72
     4
 11
684.18118950061762
 21
2420.1544125022369
 31
0.0
  0
TEXT
  5
368
  8
TXT
 10
656.75261807204606
 20
2668.554412502237
 30
0.0
 40
12.0
  1
SHAFT
 72
     4
 11
684.18118950061762
 21
2674.554412502237
 31
0.0
  0
TEXT
  5
369
  8
TXT
 10
669.03833235776051
 20
2643.3544125022372
 30
0.0
 40
12.0
  1
DIA.
 72
     4
 11
684.18118950061762
 21
2649.3544125022372
 31
0.0
  0
TEXT
  5
36A
  8
TXT
 10
1317.8954752149041
 20
2668.554412502237
 30
0.0
 40
12.0
  1
HOLE DETAILS
 72
     4
 11
1380.181189500619
 21
2674.5544125022361
 31
0.0
  0
TEXT
  5
36B
  8
TXT
 10
1312.181189500619
 20
2644.211555359379
 30
0.0
 40
12.0
  1
(OFF CENTRES)
 72
     4
 11
1380.181189500619
 21
2649.3544125022372
 31
0.0
  0
TEXT
  5
36C
  8
TXT
 10
1269.6097609291901
 20
2542.211555359379
 30
0.0
 40
12.0
  1
4 HOLES %%c20.5 (%%c0.81")
 72
     4
 11
1380.181189500619
 21
2547.3544125022372
 31
0.0
  0
TEXT
  5
36D
  8
TXT
 10
1269.6097609291901
 20
2605.8115553593789
 30
0.0
 40
12.0
  1
4 HOLES %%c20.5 (%%c0.81")
 72
     4
 11
1380.181189500619
 21
2610.9544125022371
 31
0.0
  0
TEXT
  5
36E
  8
TXT
 10
1268.1811895006181
 20
2580.6115553593791
 30
0.0
 40
12.0
  1
ON %%c165.0 (%%c6.50") P.C.
 72
     4
 11
1380.181189500619
 21
2585.7544125022359
 31
0.0
  0
TEXT
  5
36F
  8
TXT
 10
1263.6097609291901
 20
2326.211555359379
 30
0.0
 40
12.0
  1
ON %%c298.0 (%%c11.73") P.C.
 72
     4
 11
1380.181189500619
 21
2331.3544125022358
 31
0.0
  0
TEXT
  5
370
  8
TXT
 10
1269.6097609291901
 20
2351.4115553593788
 30
0.0
 40
12.0
  1
8 HOLES %%c20.5 (%%c0.81")
 72
     4
 11
1380.181189500619
 21
2356.5544125022361
 31
0.0
  0
TEXT
  5
371
  8
TXT
 10
1269.6097609291901
 20
2415.0115553593791
 30
0.0
 40
12.0
  1
8 HOLES %%c16.5 (%%c0.65")
 72
     4
 11
1380.181189500619
 21
2420.154412502236
 31
0.0
  0
TEXT
  5
372
  8
TXT
 10
1262.466903786333
 20
2389.8115553593789
 30
0.0
 40
12.0
  1
ON %%c254.0 (%%c10.00") P.C.
 72
     4
 11
1380.181189500619
 21
2394.9544125022362
 31
0.0
  0
TEXT
  5
373
  8
TXT
 10
1262.466903786333
 20
2453.4115553593788
 30
0.0
 40
12.0
  1
ON %%c254.0 (%%c10.00") P.C.
 72
     4
 11
1380.181189500619
 21
2458.5544125022361
 31
0.0
  0
TEXT
  5
374
  8
TXT
 10
1269.6097609291901
 20
2478.6115553593791
 30
0.0
 40
12.0
  1
8 HOLES %%c16.5 (%%c0.65")
 72
     4
 11
1380.181189500619
 21
2483.7544125022359
 31
0.0
  0
TEXT
  5
375
  8
TXT
 10
1268.1811895006181
 20
2517.0115553593791
 30
0.0
 40
12.0
  1
ON %%c165.0 (%%c6.50") P.C.
 72
     4
 11
1380.181189500619
 21
2522.1544125022369
 31
0.0
  0
TEXT
  5
376
  8
TXT
 10
1262.466903786333
 20
2262.6115553593791
 30
0.0
 40
12.0
  1
ON %%c356.0 (%%c14.02") P.C.
 72
     4
 11
1380.181189500619
 21
2267.7544125022359
 31
0.0
  0
TEXT
  5
377
  8
TXT
 10
1269.6097609291901
 20
2287.8115553593789
 30
0.0
 40
12.0
  1
8 HOLES %%c23.0 (%%c0.91")
 72
     4
 11
1380.181189500619
 21
2292.9544125022371
 31
0.0
  0
TEXT
  5
378
  8
TXT
 10
1178.4669037863321
 20
2350.554412502237
 30
0.0
 40
12.0
  1
6
 72
     4
 11
1182.1811895006169
 21
2356.554412502237
 31
0.0
  0
TEXT
  5
379
  8
TXT
 10
954.46690378633195
 20
2350.554412502237
 30
0.0
 40
12.0
  1
%%c230.10 +0.10
 72
     4
 11
1020.1811895006171
 21
2356.554412502237
 31
0.0
  0
LINE
  5
37A
  8
DRG2
 10
1236.1811895006181
 20
2248.5544125022379
 30
0.0
 11
1236.1811895006181
 21
2693.7544125022359
 31
0.0
  0
LINE
  5
37B
  8
DRG2
 10
1128.1811895006181
 20
2248.5544125022379
 30
0.0
 11
1128.1811895006169
 21
2693.7544125022359
 31
0.0
  0
LINE
  5
37C
  8
DRG2
 10
912.18118950061762
 20
2248.5544125022379
 30
0.0
 11
912.18118950061762
 21
2693.7544125022359
 31
0.0
  0
TEXT
  5
37D
  8
TXT
 10
955.60976092918906
 20
2286.9544125022371
 30
0.0
 40
12.0
  1
%%c216.10 +0.10
 72
     4
 11
1020.1811895006171
 21
2292.9544125022371
 31
0.0
  0
TEXT
  5
37E
  8
TXT
 10
928.46690378633195
 20
2326.2115553593799
 30
0.0
 40
12.0
  1
(%%c9.059" +0.004") 
 72
     4
 11
1020.1811895006171
 21
2331.3544125022372
 31
0.0
  0
TEXT
  5
37F
  8
TXT
 10
928.46690378633195
 20
2262.61155535938
 30
0.0
 40
12.0
  1
(%%c8.508" +0.004") 
 72
     4
 11
1020.1811895006171
 21
2267.7544125022382
 31
0.0
  0
TEXT
  5
380
  8
TXT
 10
1151.8954752149029
 20
2326.2115553593799
 30
0.0
 40
12.0
  1
(0.24")
 72
     4
 11
1182.1811895006169
 21
2331.3544125022372
 31
0.0
  0
TEXT
  5
381
  8
TXT
 10
1151.8954752149029
 20
2262.61155535938
 30
0.0
 40
12.0
  1
(0.24")
 72
     4
 11
1182.1811895006169
 21
2267.7544125022382
 31
0.0
  0
TEXT
  5
382
  8
TXT
 10
1178.4669037863321
 20
2286.9544125022371
 30
0.0
 40
12.0
  1
6
 72
     4
 11
1182.1811895006169
 21
2292.9544125022371
 31
0.0
  0
TEXT
  5
383
  8
TXT
 10
933.32404664347496
 20
2706.9544125022371
 30
0.0
 40
12.0
  1
INPUT FLANGE DETAILS
 72
     4
 11
1038.1811895006169
 21
2712.954412502238
 31
0.0
  0
TEXT
  5
384
  8
TXT
 10
929.60976092918906
 20
2580.6115553593791
 30
0.0
 40
12.0
  1
(%%c5.120" +0.002") 
 72
     4
 11
1020.1811895006171
 21
2585.7544125022359
 31
0.0
  0
TEXT
  5
385
  8
TXT
 10
953.32404664347473
 20
2541.3544125022372
 30
0.0
 40
12.0
  1
%%c126.92 +0.05
 72
     4
 11
1020.1811895006171
 21
2547.3544125022372
 31
0.0
  0
TEXT
  5
386
  8
TXT
 10
953.32404664347473
 20
2604.9544125022371
 30
0.0
 40
12.0
  1
%%c130.05 +0.05
 72
     4
 11
1020.1811895006171
 21
2610.954412502238
 31
0.0
  0
TEXT
  5
387
  8
TXT
 10
987.60976092918906
 20
2668.554412502237
 30
0.0
 40
12.0
  1
RECESS
 72
     4
 11
1020.1811895006171
 21
2674.554412502237
 31
0.0
  0
TEXT
  5
388
  8
TXT
 10
954.46690378633195
 20
2414.1544125022369
 30
0.0
 40
12.0
  1
%%c152.37 +0.10
 72
     4
 11
1020.1811895006171
 21
2420.1544125022369
 31
0.0
  0
TEXT
  5
389
  8
TXT
 10
954.46690378633195
 20
2477.7544125022368
 30
0.0
 40
12.0
  1
%%c200.10 +0.10
 72
     4
 11
1020.1811895006171
 21
2483.7544125022368
 31
0.0
  0
TEXT
  5
38A
  8
TXT
 10
928.46690378633195
 20
2389.8115553593798
 30
0.0
 40
12.0
  1
(%%c5.999" +0.004") 
 72
     4
 11
1020.1811895006171
 21
2394.9544125022371
 31
0.0
  0
TEXT
  5
38B
  8
TXT
 10
928.46690378633195
 20
2453.4115553593788
 30
0.0
 40
12.0
  1
(%%c7.878" +0.004") 
 72
     4
 11
1020.1811895006171
 21
2458.554412502237
 31
0.0
  0
TEXT
  5
38C
  8
TXT
 10
928.46690378633195
 20
2517.0115553593801
 30
0.0
 40
12.0
  1
(%%c4.997" +0.002") 
 72
     4
 11
1020.1811895006171
 21
2522.1544125022369
 31
0.0
  0
TEXT
  5
38D
  8
TXT
 10
1005.0383323577601
 20
2643.3544125022372
 30
0.0
 40
12.0
  1
DIA.
 72
     4
 11
1020.1811895006171
 21
2649.3544125022372
 31
0.0
  0
TEXT
  5
38E
  8
TXT
 10
1151.8954752149029
 20
2453.4115553593801
 30
0.0
 40
12.0
  1
(0.20")
 72
     4
 11
1182.1811895006169
 21
2458.5544125022379
 31
0.0
  0
TEXT
  5
38F
  8
TXT
 10
1151.8954752149029
 20
2389.8115553593789
 30
0.0
 40
12.0
  1
(0.20")
 72
     4
 11
1182.1811895006169
 21
2394.9544125022371
 31
0.0
  0
TEXT
  5
390
  8
TXT
 10
1178.1811895006181
 20
2414.1544125022369
 30
0.0
 40
12.0
  1
5
 72
     4
 11
1182.1811895006169
 21
2420.1544125022369
 31
0.0
  0
TEXT
  5
391
  8
TXT
 10
1151.8954752149029
 20
2517.0115553593801
 30
0.0
 40
12.0
  1
(0.20")
 72
     4
 11
1182.1811895006169
 21
2522.1544125022369
 31
0.0
  0
TEXT
  5
392
  8
TXT
 10
1178.1811895006181
 20
2477.7544125022368
 30
0.0
 40
12.0
  1
5
 72
     4
 11
1182.1811895006169
 21
2483.7544125022368
 31
0.0
  0
TEXT
  5
393
  8
TXT
 10
1178.1811895006181
 20
2541.3544125022381
 30
0.0
 40
12.0
  1
5
 72
     4
 11
1182.1811895006169
 21
2547.3544125022381
 31
0.0
  0
TEXT
  5
394
  8
TXT
 10
1149.609760929189
 20
2668.554412502237
 30
0.0
 40
12.0
  1
RECESS
 72
     4
 11
1182.1811895006169
 21
2674.554412502237
 31
0.0
  0
TEXT
  5
395
  8
TXT
 10
1151.8954752149029
 20
2580.61155535938
 30
0.0
 40
12.0
  1
(0.20")
 72
     4
 11
1182.1811895006169
 21
2585.7544125022382
 31
0.0
  0
TEXT
  5
396
  8
TXT
 10
1155.609760929189
 20
2643.3544125022372
 30
0.0
 40
12.0
  1
DEPTH
 72
     4
 11
1182.1811895006169
 21
2649.3544125022372
 31
0.0
  0
TEXT
  5
397
  8
TXT
 10
1178.1811895006181
 20
2604.9544125022371
 30
0.0
 40
12.0
  1
5
 72
     4
 11
1182.1811895006169
 21
2610.954412502238
 31
0.0
  0
LINE
  5
398
  8
DRG2
 10
1740.1811895006181
 20
2248.5544125022379
 30
0.0
 11
1740.1811895006181
 21
2732.1544125022378
 31
0.0
  0
LINE
  5
399
  8
DRG2
 10
1524.181189500619
 20
2248.5544125022379
 30
0.0
 11
1524.181189500619
 21
2693.7544125022359
 31
0.0
  0
TEXT
  5
39A
  8
TXT
 10
1545.8954752149029
 20
2580.6115553593791
 30
0.0
 40
12.0
  1
(0.47"x0.31"x2.17")
 72
     4
 11
1632.1811895006169
 21
2585.7544125022359
 31
0.0
  0
TEXT
  5
39B
  8
TXT
 10
1545.8954752149029
 20
2517.0115553593791
 30
0.0
 40
12.0
  1
(0.47"x0.31"x2.17")
 72
     4
 11
1632.1811895006169
 21
2522.1544125022369
 31
0.0
  0
TEXT
  5
39C
  8
TXT
 10
1544.7526180720461
 20
2453.4115553593788
 30
0.0
 40
12.0
  1
(0.55"x0.35"x3.15")
 72
     4
 11
1632.1811895006169
 21
2458.5544125022361
 31
0.0
  0
TEXT
  5
39D
  8
TXT
 10
1596.7526180720461
 20
2541.3544125022358
 30
0.0
 40
12.0
  1
12x8x55
 72
     4
 11
1632.1811895006169
 21
2547.3544125022372
 31
0.0
  0
TEXT
  5
39E
  8
TXT
 10
1596.7526180720461
 20
2477.7544125022359
 30
0.0
 40
12.0
  1
14x9x80
 72
     4
 11
1632.1811895006169
 21
2483.7544125022359
 31
0.0
  0
TEXT
  5
39F
  8
TXT
 10
1598.1811895006169
 20
2643.3544125022372
 30
0.0
 40
12.0
  1
DETAILS
 72
     4
 11
1632.1811895006169
 21
2649.3544125022372
 31
0.0
  0
TEXT
  5
3A0
  8
TXT
 10
1616.1811895006169
 20
2668.554412502237
 30
0.0
 40
12.0
  1
KEY
 72
     4
 11
1632.1811895006169
 21
2674.5544125022361
 31
0.0
  0
TEXT
  5
3A1
  8
TXT
 10
1596.7526180720461
 20
2604.9544125022371
 30
0.0
 40
12.0
  1
12x8x55
 72
     4
 11
1632.1811895006169
 21
2610.9544125022371
 31
0.0
  0
TEXT
  5
3A2
  8
TXT
 10
1287.991223303289
 20
852.26177174481563
 30
0.0
 40
12.0
  1
BASEPLATE DETAILS
 72
     4
 11
1378.5626518747169
 21
858.26177174481563
 31
0.0
  0
LINE
  5
3A3
  8
DRG2
 10
1018.562651874718
 20
839.06177174481559
 30
0.0
 11
1738.562651874716
 21
839.06177174481525
 31
0.0
  0
LINE
  5
3A4
  8
DRG2
 10
1018.562651874718
 20
800.66177174481584
 30
0.0
 11
1738.562651874716
 21
800.66177174481516
 31
0.0
  0
LINE
  5
3A5
  8
DRG2
 10
1018.562651874719
 20
877.46177174481556
 30
0.0
 11
1738.562651874716
 21
877.46177174481545
 31
0.0
  0
TEXT
  5
3A6
  8
TXT
 10
1393.4197947318601
 20
814.71891460195832
 30
0.0
 40
12.0
  1
HOLE DETAILS (22.5%%d OFF CENTRES)
 72
     4
 11
1558.5626518747169
 21
819.86177174481543
 31
0.0
  0
TEXT
  5
3A7
  8
TXT
 10
1415.9912233032881
 20
776.31891460195823
 30
0.0
 40
12.0
  1
8 HOLES M36x45 (1.77") DEEP
 72
     4
 11
1558.5626518747169
 21
781.46177174481534
 31
0.0
  0
LINE
  5
3A8
  8
DRG2
 10
1018.562651874718
 20
737.06177174481559
 30
0.0
 11
1738.562651874716
 21
737.06177174481525
 31
0.0
  0
LINE
  5
3A9
  8
DRG2
 10
1018.562651874718
 20
673.46177174481556
 30
0.0
 11
1738.562651874716
 21
673.46177174481545
 31
0.0
  0
TEXT
  5
3AA
  8
TXT
 10
1392.5626518747169
 20
712.71891460195832
 30
0.0
 40
12.0
  1
8 HOLES 1.25"UNCx45 (1.77") DEEP
 72
     4
 11
1558.5626518747169
 21
717.86177174481543
 31
0.0
  0
LINE
  5
3AB
  8
DRG2
 10
1378.5626518747181
 20
673.46177174481591
 30
0.0
 11
1378.5626518747181
 21
839.06177174481559
 31
0.0
  0
LINE
  5
3AC
  8
DRG2
 10
1138.5626518747181
 20
673.46177174481556
 30
0.0
 11
1138.5626518747181
 21
839.06177174481559
 31
0.0
  0
LINE
  5
3AD
  8
DRG2
 10
1018.562651874718
 20
673.46177174481556
 30
0.0
 11
1018.562651874719
 21
877.46177174481556
 31
0.0
  0
TEXT
  5
3AE
  8
TXT
 10
1057.419794731861
 20
699.26177174481563
 30
0.0
 40
12.0
  1
FA40
 72
     4
 11
1078.562651874719
 21
705.26177174481563
 31
0.0
  0
TEXT
  5
3AF
  8
TXT
 10
1191.7055090175761
 20
711.86177174481577
 30
0.0
 40
12.0
  1
%%c228.60 -0.15
 72
     4
 11
1258.562651874719
 21
717.86177174481566
 31
0.0
  0
TEXT
  5
3B0
  8
TXT
 10
1166.848366160433
 20
687.51891460195827
 30
0.0
 40
12.0
  1
(%%c9.000" -0.006") 
 72
     4
 11
1258.562651874719
 21
692.6617717448155
 31
0.0
  0
TEXT
  5
3B1
  8
TXT
 10
1043.9912233032901
 20
762.86177174481566
 30
0.0
 40
12.0
  1
ISO F40
 72
     4
 11
1078.562651874719
 21
768.86177174481566
 31
0.0
  0
TEXT
  5
3B2
  8
TXT
 10
1206.562651874719
 20
813.86177174481566
 30
0.0
 40
12.0
  1
SPIGOT DIA.
 72
     4
 11
1258.562651874719
 21
819.86177174481577
 31
0.0
  0
TEXT
  5
3B3
  8
TXT
 10
1190.562651874719
 20
775.46177174481556
 30
0.0
 40
12.0
  1
%%c299.95 -0.05
 72
     4
 11
1258.562651874719
 21
781.46177174481568
 31
0.0
  0
TEXT
  5
3B4
  8
TXT
 10
1163.419794731861
 20
751.11891460195852
 30
0.0
 40
12.0
  1
(%%c11.809" -0.002") 
 72
     4
 11
1258.562651874719
 21
756.26177174481563
 31
0.0
  0
LINE
  5
3B5
  8
DRG2
 10
1738.562651874716
 20
673.46177174481613
 30
0.0
 11
1738.562651874716
 21
877.46177174481579
 31
0.0
  0
TEXT
  5
3B6
  8
TXT
 10
1440.8483661604309
 20
687.51891460195804
 30
0.0
 40
12.0
  1
ON %%c406.4 (%%c16.00") P.C.
 72
     4
 11
1558.5626518747169
 21
692.66177174481516
 31
0.0
  0
TEXT
  5
3B7
  8
TXT
 10
1440.8483661604309
 20
751.11891460195818
 30
0.0
 40
12.0
  1
ON %%c406.0 (%%c15.98") P.C.
 72
     4
 11
1558.5626518747169
 21
756.26177174481518
 31
0.0
  0
LINE
  5
3B8
  8
DIM
 10
1289.375772995807
 20
1317.507450079605
 30
0.0
 11
1289.375772995807
 21
965.86610003052704
 31
0.0
  0
TEXT
  5
3B9
  8
BORT
 10
-27.647381927954122
 20
755.09231904529474
 30
0.0
 40
12.0
  1
1
 72
     4
 11
-26.218810499382698
 21
761.09231904529474
 31
0.0
  0
TEXT
  5
3BA
  8
BORT
 10
72.695475214903524
 20
755.09231904529474
 30
0.0
 40
12.0
  1
CN915 JMO 19.6.97
 72
     4
 11
160.9811895006178
 21
761.09231904529474
 31
0.0
  0
TEXT
  5
3BB
  8
BORT
 10
-30.218810499382698
 20
788.69231904529465
 30
0.0
 40
12.0
  1
2
 72
     4
 11
-26.218810499382698
 21
794.69231904529465
 31
0.0
  0
TEXT
  5
3BD
  8
BORT
 10
67.838332357760208
 20
788.69231904529465
 30
0.0
 40
12.0
  1
CN959 B.T. 20.11.97
 72
     4
 11
160.98118950061729
 21
794.69231904529465
 31
0.0
  0
LINE
  5
3BE
  8
BORT
 39
4.3200000000000003
 10
314.58118950061731
 20
777.89231904529436
 30
0.0
 11
-59.818810499382607
 21
777.8923190452947
 31
0.0
  0
LINE
  5
3BF
  8
BORT
 39
4.3200000000000003
 10
314.58118950061731
 20
811.49231904529427
 30
0.0
 11
-59.818810499382607
 21
811.49231904529461
 31
0.0
  0
TEXT
  5
3C0
  8
TXT
 10
1544.7526180720461
 20
2389.8115553593789
 30
0.0
 40
12.0
  1
(0.55"x0.35"x3.15")
 72
     4
 11
1632.1811895006169
 21
2394.9544125022362
 31
0.0
  0
TEXT
  5
3C1
  8
TXT
 10
1596.7526180720461
 20
2414.154412502236
 30
0.0
 40
12.0
  1
14x9x80
 72
     4
 11
1632.1811895006169
 21
2420.154412502236
 31
0.0
  0
TEXT
  5
3C2
  8
TXT
 10
1544.7526180720461
 20
2326.211555359379
 30
0.0
 40
12.0
  1
(0.55"x0.35"x3.15")
 72
     4
 11
1632.1811895006169
 21
2331.3544125022358
 31
0.0
  0
TEXT
  5
3C3
  8
TXT
 10
1596.7526180720461
 20
2350.5544125022361
 30
0.0
 40
12.0
  1
14x9x80
 72
     4
 11
1632.1811895006169
 21
2356.5544125022361
 31
0.0
  0
TEXT
  5
3C4
  8
TXT
 10
1544.7526180720461
 20
2262.6115553593791
 30
0.0
 40
12.0
  1
(0.55"x0.35"x3.15")
 72
     4
 11
1632.1811895006169
 21
2267.7544125022359
 31
0.0
  0
TEXT
  5
3C5
  8
TXT
 10
1596.7526180720461
 20
2286.9544125022362
 30
0.0
 40
12.0
  1
14x9x80
 72
     4
 11
1632.1811895006169
 21
2292.9544125022362
 31
0.0
  0
LINE
  5
3C6
  8
BORT
 39
4.3200000000000003
 10
314.58118950061748
 20
845.09231904529429
 30
0.0
 11
-59.818810499382373
 21
845.09231904529452
 31
0.0
  0
TEXT
  5
3C7
  8
TXT
 10
821.89547521490317
 20
2517.0115553593801
 30
0.0
 40
12.0
  1
(3.54")
 72
     4
 11
852.18118950061773
 21
2522.1544125022369
 31
0.0
  0
TEXT
  5
3C8
  8
TXT
 10
842.46690378633195
 20
2541.3544125022381
 30
0.0
 40
12.0
  1
90
 72
     4
 11
852.18118950061773
 21
2547.3544125022381
 31
0.0
  0
TEXT
  5
3C9
  8
TXT
 10
821.89547521490317
 20
2453.4115553593801
 30
0.0
 40
12.0
  1
(3.54")
 72
     4
 11
852.18118950061773
 21
2458.5544125022379
 31
0.0
  0
TEXT
  5
3CA
  8
TXT
 10
842.46690378633195
 20
2477.7544125022382
 30
0.0
 40
12.0
  1
90
 72
     4
 11
852.18118950061773
 21
2483.7544125022382
 31
0.0
  0
TEXT
  5
3CB
  8
TXT
 10
821.89547521490317
 20
2389.8115553593798
 30
0.0
 40
12.0
  1
(3.54")
 72
     4
 11
852.18118950061773
 21
2394.9544125022371
 31
0.0
  0
TEXT
  5
3CC
  8
TXT
 10
842.46690378633195
 20
2414.1544125022378
 30
0.0
 40
12.0
  1
90
 72
     4
 11
852.18118950061773
 21
2420.1544125022378
 31
0.0
  0
TEXT
  5
3CD
  8
TXT
 10
821.89547521490317
 20
2326.2115553593799
 30
0.0
 40
12.0
  1
(3.54")
 72
     4
 11
852.18118950061773
 21
2331.3544125022372
 31
0.0
  0
TEXT
  5
3CE
  8
TXT
 10
842.46690378633195
 20
2350.554412502237
 30
0.0
 40
12.0
  1
90
 72
     4
 11
852.18118950061773
 21
2356.5544125022379
 31
0.0
  0
TEXT
  5
3CF
  8
TXT
 10
821.89547521490317
 20
2262.6115553593791
 30
0.0
 40
12.0
  1
(3.54")
 72
     4
 11
852.18118950061773
 21
2267.7544125022368
 31
0.0
  0
TEXT
  5
3D0
  8
TXT
 10
842.46690378633195
 20
2286.9544125022371
 30
0.0
 40
12.0
  1
90
 72
     4
 11
852.18118950061773
 21
2292.954412502238
 31
0.0
  0
LINE
  5
43E
  8
HID
 10
737.48485571179094
 20
1398.803150887278
 30
0.0
 11
997.23485571179015
 21
1398.803150887278
 31
0.0
  0
LINE
  5
43F
  8
HID
 10
737.48485571179071
 20
1338.803150887278
 30
0.0
 11
997.23485571179071
 21
1338.803150887278
 31
0.0
  0
LINE
  5
440
  8
DIM
 10
1098.8592414645241
 20
1483.1031508872779
 30
0.0
 11
1204.0588066270959
 21
1483.1031508872779
 31
0.0
  0
TEXT
  5
441
  8
BORT
 10
58.695475214903183
 20
822.29231904529445
 30
0.0
 40
12.0
  1
CN1094 D.J.G. 20.5.99
 72
     4
 11
160.9811895006174
 21
828.29231904529456
 31
0.0
  0
TEXT
  5
442
  8
BORT
 10
-30.218810499382698
 20
822.29231904529445
 30
0.0
 40
12.0
  1
3
 72
     4
 11
-26.218810499382698
 21
828.29231904529456
 31
0.0
  0
TEXT
  5
444
  8
DIM
 10
1106.394475502759
 20
1410.3857742581411
 30
0.0
 40
11.995200000000001
  1
(2.56")
 50
89.999999999999986
 72
     4
 11
1101.2536755027591
 21
1440.659374258141
 31
0.0
  0
LINE
  5
445
  8
DIM
 10
1003.23485571179
 20
1398.803150887278
 30
0.0
 11
1093.6463678117821
 21
1398.803150887278
 31
0.0
  0
LINE
  5
446
  8
DIM
 10
1003.23485571179
 20
1338.803150887278
 30
0.0
 11
1093.6463678117821
 21
1338.803150887278
 31
0.0
  0
TEXT
  5
447
  8
DIM
 10
1059.4684250590699
 20
1413.22811919337
 30
0.0
 40
11.995200000000001
  1
ALUMINIUM BRONZE ONLY
 50
89.999999999999986
 72
     4
 11
1053.47082505907
 21
1530.0385191933699
 31
0.0
  0
LINE
  5
448
  8
DIM
 10
1087.9343678117821
 20
1398.803150887278
 30
0.0
 11
1087.9343678117821
 21
1618.1840354996791
 31
0.0
  0
TEXT
  5
449
  8
DIM
 10
1081.644548983282
 20
1411.8623332529401
 30
0.0
 40
11.995200000000001
  1
%%C65 CAST PILOT BORE
 50
89.999999999999986
 72
     4
 11
1075.6469489832821
 21
1514.6783332529401
 31
0.0
  0
SOLID
  5
44A
  8
DIM
 10
1085.6495678117819
 20
1385.0943508872781
 30
0.0
 11
1090.219167811782
 21
1385.0943508872781
 31
0.0
 12
1087.9343678117821
 22
1398.803150887278
 32
0.0
 13
1087.9343678117821
 23
1398.803150887278
 33
0.0
  0
SOLID
  5
44B
  8
DIM
 10
1085.6495678117819
 20
1352.5119508872781
 30
0.0
 11
1090.219167811782
 21
1352.5119508872781
 31
0.0
 12
1087.9343678117821
 22
1338.803150887278
 32
0.0
 13
1087.9343678117821
 23
1338.803150887278
 33
0.0
  0
LINE
  5
44C
  8
DIM
 10
1087.9343678117821
 20
1350.227150887278
 30
0.0
 11
1087.9343678117821
 21
1398.803150887278
 31
0.0
  0
INSERT
  5
5EE
  8
0
  2
ROTORK_GEARS_LOGO
 10
-70.695137934822782
 20
469.7147671081886
 30
0.0
 41
1.8375000000000259
 42
1.837500000000019
 43
1.8374999999999999
  0
VIEWPORT
  5
30
 67
     1
  8
0
 10
210.00000022409631
 20
152.0942409999999
 30
0.0
 40
420.00000044819268
 41
304.18848199999991
 68
     1
 69
     1
1001
ACAD
1000
MVIEW
1002
{
1070
    16
1010
0.0
1020
0.0
1030
0.0
1010
0.0
1020
0.0
1030
1.0
1040
0.0
1040
304.18848199999991
1040
210.00000022409631
1040
152.0942409999999
1040
50.0
1040
0.0
1040
0.0
1070
     0
1070
  2000
1070
     1
1070
     1
1070
     1
1070
     0
1070
     0
1070
     1
1040
0.0
1040
0.0
1040
0.0
1040
5.0
1040
5.0
1040
10.0
1040
10.0
1070
     0
1002
{
1002
}
1002
}
  0
ENDSEC
  0
EOF
