  0
SECTION
  2
HEADER
  9
$ACADVER
  1
AC1009
  9
$INSBASE
 10
0.0
 20
0.0
 30
0.0
  9
$EXTMIN
 10
0.0
 20
0.0
 30
0.0
  9
$EXTMAX
 10
2084.6345308170298
 20
2449.5314424034459
 30
4.3200000000000003
  9
$LIMMIN
 10
0.0
 20
0.0
  9
$LIMMAX
 10
1850.0
 20
2600.0
  9
$ORTHOMODE
 70
     1
  9
$REGENMODE
 70
     1
  9
$FILLMODE
 70
     1
  9
$QTEXTMODE
 70
     0
  9
$MIRRTEXT
 70
     0
  9
$DRAGMODE
 70
     2
  9
$LTSCALE
 40
2.0
  9
$OSMODE
 70
    47
  9
$ATTMODE
 70
     1
  9
$TEXTSIZE
 40
12.0
  9
$TRACEWID
 40
10.0
  9
$TEXTSTYLE
  7
STANDARD
  9
$CLAYER
  8
DRG2
  9
$CELTYPE
  6
BYLAYER
  9
$CECOLOR
 62
   256
  9
$DIMSCALE
 40
1.0
  9
$DIMASZ
 40
14.0
  9
$DIMEXO
 40
7.5
  9
$DIMDLI
 40
10.0
  9
$DIMRND
 40
0.0
  9
$DIMDLE
 40
1.25
  9
$DIMEXE
 40
2.0
  9
$DIMTP
 40
0.0
  9
$DIMTM
 40
0.0
  9
$DIMTXT
 40
12.0
  9
$DIMCEN
 40
-3.0
  9
$DIMTSZ
 40
0.0
  9
$DIMTOL
 70
     0
  9
$DIMLIM
 70
     0
  9
$DIMTIH
 70
     0
  9
$DIMTOH
 70
     0
  9
$DIMSE1
 70
     0
  9
$DIMSE2
 70
     0
  9
$DIMTAD
 70
     0
  9
$DIMZIN
 70
     0
  9
$DIMBLK
  1

  9
$DIMASO
 70
     0
  9
$DIMSHO
 70
     0
  9
$DIMPOST
  1

  9
$DIMAPOST
  1

  9
$DIMALT
 70
     0
  9
$DIMALTD
 70
     2
  9
$DIMALTF
 40
0.039
  9
$DIMLFAC
 40
1.0
  9
$DIMTOFL
 70
     0
  9
$DIMTVP
 40
1.25
  9
$DIMTIX
 70
     0
  9
$DIMSOXD
 70
     0
  9
$DIMSAH
 70
     0
  9
$DIMBLK1
  1

  9
$DIMBLK2
  1

  9
$DIMSTYLE
  2
STD
  9
$DIMCLRD
 70
   256
  9
$DIMCLRE
 70
   256
  9
$DIMCLRT
 70
   256
  9
$DIMTFAC
 40
0.25
  9
$DIMGAP
 40
1.5
  9
$LUNITS
 70
     2
  9
$LUPREC
 70
     2
  9
$SKETCHINC
 40
1.0
  9
$FILLETRAD
 40
0.0
  9
$AUNITS
 70
     0
  9
$AUPREC
 70
     2
  9
$MENU
  1
ACAD
  9
$ELEVATION
 40
0.0
  9
$PELEVATION
 40
0.0
  9
$THICKNESS
 40
0.0
  9
$LIMCHECK
 70
     0
  9
$BLIPMODE
 70
     0
  9
$CHAMFERA
 40
0.0
  9
$CHAMFERB
 40
0.0
  9
$SKPOLY
 70
     1
  9
$TDCREATE
 40
2449759.4814251158
  9
$TDUPDATE
 40
2452817.4669856708
  9
$TDINDWG
 40
0.2649967014
  9
$TDUSRTIMER
 40
0.2649967014
  9
$USRTIMER
 70
     1
  9
$ANGBASE
 50
0.0
  9
$ANGDIR
 70
     0
  9
$PDMODE
 70
     3
  9
$PDSIZE
 40
0.0
  9
$PLINEWID
 40
0.0
  9
$COORDS
 70
     1
  9
$SPLFRAME
 70
     0
  9
$SPLINETYPE
 70
     6
  9
$SPLINESEGS
 70
     6
  9
$ATTDIA
 70
     0
  9
$ATTREQ
 70
     1
  9
$HANDLING
 70
  4097
  9
$HANDSEED
  5
7D5
  9
$SURFTAB1
 70
    18
  9
$SURFTAB2
 70
    18
  9
$SURFTYPE
 70
     6
  9
$SURFU
 70
    18
  9
$SURFV
 70
    18
  9
$UCSNAME
  2

  9
$UCSORG
 10
0.0
 20
0.0
 30
0.0
  9
$UCSXDIR
 10
1.0
 20
0.0
 30
0.0
  9
$UCSYDIR
 10
0.0
 20
1.0
 30
0.0
  9
$PUCSNAME
  2

  9
$PUCSORG
 10
0.0
 20
0.0
 30
0.0
  9
$PUCSXDIR
 10
1.0
 20
0.0
 30
0.0
  9
$PUCSYDIR
 10
0.0
 20
1.0
 30
0.0
  9
$USERI1
 70
     0
  9
$USERI2
 70
     0
  9
$USERI3
 70
     0
  9
$USERI4
 70
     0
  9
$USERI5
 70
     0
  9
$USERR1
 40
0.0
  9
$USERR2
 40
0.0
  9
$USERR3
 40
0.0
  9
$USERR4
 40
0.0
  9
$USERR5
 40
0.0
  9
$WORLDVIEW
 70
     0
  9
$SHADEDGE
 70
     3
  9
$SHADEDIF
 70
    70
  9
$TILEMODE
 70
     1
  9
$MAXACTVP
 70
    16
  9
$PLIMCHECK
 70
     0
  9
$PEXTMIN
 10
1.0000000000000000E+020
 20
1.0000000000000000E+020
 30
1.0000000000000000E+020
  9
$PEXTMAX
 10
-1.0000000000000000E+020
 20
-1.0000000000000000E+020
 30
-1.0000000000000000E+020
  9
$PLIMMIN
 10
0.0
 20
0.0
  9
$PLIMMAX
 10
420.0
 20
297.0
  9
$UNITMODE
 70
     0
  9
$VISRETAIN
 70
     0
  9
$PLINEGEN
 70
     0
  9
$PSLTSCALE
 70
     0
  0
ENDSEC
  0
SECTION
  2
TABLES
  0
TABLE
  2
VPORT
 70
     2
  0
VPORT
  2
*ACTIVE
 70
     0
 10
0.0
 20
0.0
 11
1.0
 21
1.0
 12
388.20295475612193
 22
0.0209925476058288
 13
0.0
 23
0.0
 14
5.0
 24
5.0
 15
10.0
 25
10.0
 16
0.0
 26
0.0
 36
1.0
 17
1099.201123041408
 27
1224.7779882923869
 37
0.0
 40
2469.9442898382922
 41
1.7512195121951211
 42
50.0
 43
0.0
 44
0.0
 50
0.0
 51
0.0
 71
     0
 72
  2000
 73
     1
 74
     2
 75
     0
 76
     0
 77
     0
 78
     1
  0
ENDTAB
  0
TABLE
  2
LTYPE
 70
    13
  0
LTYPE
  2
CONTINUOUS
 70
     0
  3
Solid line
 72
    65
 73
     0
 40
0.0
  0
LTYPE
  2
CENTER
 70
     0
  3
____ _ ____ _ ____ _ ____ _ ____ _ ____ _ ____ 
 72
    65
 73
     4
 40
50.0
 49
31.25
 49
-6.25
 49
6.25
 49
-6.25
  0
LTYPE
  2
HIDDEN
 70
     0
  3
_ _ _ _ _ _ _ _ _ _ _ _ _ _ _ _ _ _ _ _ _ _ _ _
 72
    65
 73
     2
 40
9.375
 49
6.25
 49
-3.125
  0
LTYPE
  2
PHANTOM2
 70
     0
  3
Phantom (.5x) ___ _ _ ___ _ _ ___ _ _ ___ _ _
 72
    65
 73
     6
 40
1.25
 49
0.625
 49
-0.125
 49
0.125
 49
-0.125
 49
0.125
 49
-0.125
  0
LTYPE
  2
ASULTYPE
 70
     0
  3
Solid line
 72
    65
 73
     2
 40
3.0
 49
2.5
 49
0.5
  0
LTYPE
  2
ASVLTYPE
 70
     0
  3
__ __ __ __ __ __ __ __ __ __ __ __ __ __ __ __ __ __ __ __ __
 72
    65
 73
     2
 40
0.75
 49
0.5
 49
-0.25
  0
LTYPE
  2
AM_ISO02W050
 70
     0
  3
__ __ __ __ __ __ __ __ __ __ __ __ __ __ __
 72
    65
 73
     2
 40
7.5
 49
6.0
 49
-1.5
  0
LTYPE
  2
AM_ISO08W050
 70
     0
  3
____ . ____ . ____ . ____ . ____ . ____ . ____
 72
    65
 73
     4
 40
18.0
 49
12.0
 49
-1.5
 49
3.0
 49
-1.5
  0
LTYPE
  2
AM_ISO09W050
 70
     0
  3
_____ . . _____ . . _____ . . ____ .. ____
 72
    65
 73
     6
 40
22.5
 49
12.0
 49
-1.5
 49
3.0
 49
-1.5
 49
3.0
 49
-1.5
  0
LTYPE
  2
AMCONSTR
 70
     0
  3
_______________________
 72
    65
 73
     2
 40
9999.0
 49
9999.0
 49
0.0
  0
LTYPE
  2
AM_ISO08W050X2
 70
     0
  3
__ . __ . __ . __ . __ . __
 72
    65
 73
     4
 40
9.0
 49
6.0
 49
-0.75
 49
1.5
 49
-0.75
  0
LTYPE
  2
AM_ISO02W050X2
 70
     0
  3
 _ _ _ _ _ _ _ _ _ _ _ _
 72
    65
 73
     2
 40
3.75
 49
3.0
 49
-0.75
  0
LTYPE
  2
AMZIGZAG
 70
     0
  3
/\/-/\/-/\/-/\/-/\/-/\/
 72
    65
 73
     2
 40
11.000099999999991
 49
0.0001
 49
-11.0
  0
ENDTAB
  0
TABLE
  2
LAYER
 70
     8
  0
LAYER
  2
0
 70
     0
 62
     7
  6
CONTINUOUS
  0
LAYER
  2
DRG
 70
     0
 62
     1
  6
CONTINUOUS
  0
LAYER
  2
CRS
 70
     0
 62
     3
  6
CENTER
  0
LAYER
  2
HID
 70
     0
 62
     6
  6
HIDDEN
  0
LAYER
  2
BORT
 70
     0
 62
     7
  6
CONTINUOUS
  0
LAYER
  2
TXT
 70
     0
 62
     4
  6
CONTINUOUS
  0
LAYER
  2
DIM
 70
     0
 62
     2
  6
CONTINUOUS
  0
LAYER
  2
DRG2
 70
     0
 62
     8
  6
CONTINUOUS
  0
ENDTAB
  0
TABLE
  2
STYLE
 70
     2
  0
STYLE
  2
STANDARD
 70
     0
 40
0.0
 41
1.0
 50
0.0
 71
     0
 42
12.0
  3
SIMPLEX
  4

  0
STYLE
  2

 70
     1
 40
0.0
 41
1.0
 50
0.0
 71
     0
 42
12.0
  3
ltypeshp.shx
  4

  0
ENDTAB
  0
TABLE
  2
VIEW
 70
     0
  0
ENDTAB
  0
TABLE
  2
UCS
 70
     0
  0
ENDTAB
  0
TABLE
  2
APPID
 70
    12
  0
APPID
  2
ACAD
 70
     0
  0
APPID
  2
GENIUS_GENDIM_13
 70
     0
  0
APPID
  2
GENIUS_GENDTOL_13
 70
     0
  0
APPID
  2
GENIUS_GE3DTOL_13
 70
     0
  0
APPID
  2
MCAD_NO_VIS
 70
     0
  0
APPID
  2
ACAD_TEMP_GRAPHIC
 70
     0
  0
APPID
  2
AD_DRAW
 70
     0
  0
APPID
  2
ACATTRIBSERVICES
 70
     0
  0
APPID
  2
ASURF_PCURVE_APPNAME
 70
     0
  0
APPID
  2
DESIGNERASSEMBLIES
 70
     0
  0
APPID
  2
ACADM_DIM_EDIT
 70
     0
  0
APPID
  2
CONTENTBLOCKICON
 70
     0
  0
ENDTAB
  0
TABLE
  2
DIMSTYLE
 70
     1
  0
DIMSTYLE
  2
STD
 70
     0
  3

  4

  5

  6

  7

 40
1.0
 41
14.0
 42
7.5
 43
10.0
 44
2.0
 45
0.0
 46
1.25
 47
0.0
 48
0.0
140
12.0
141
-3.0
142
0.0
143
0.039
144
1.0
145
1.25
146
0.25
147
1.5
 71
     0
 72
     0
 73
     0
 74
     0
 75
     0
 76
     0
 77
     0
 78
     0
170
     0
171
     2
172
     0
173
     0
174
     0
175
     0
176
   256
177
   256
178
   256
  0
ENDTAB
  0
ENDSEC
  0
SECTION
  2
BLOCKS
  0
BLOCK
  8
0
  2
$MODEL_SPACE
 70
     0
 10
0.0
 20
0.0
 30
0.0
  3
$MODEL_SPACE
  1

  0
ENDBLK
  5
420
  8
0
  0
BLOCK
 67
     1
  8
0
  2
$PAPER_SPACE
 70
     0
 10
0.0
 20
0.0
 30
0.0
  3
$PAPER_SPACE
  1

  0
ENDBLK
  5
41E
 67
     1
  8
0
  0
BLOCK
  8
0
  2
A$C01897E91
 70
     0
 10
0.0
 20
0.0
 30
0.0
  3
A$C01897E91
  1

  0
TEXT
  5
425
  8
DIM
 10
100.08294088186059
 20
69.652181182571724
 30
0.0
 40
9.9960000000000004
  1
(2.36")
 50
90.0
 72
     4
 11
95.798940881860645
 21
94.880181182571732
 31
0.0
  0
LINE
  5
426
  8
DIM
 10
0.0000057060552763
 20
59.999995040185688
 30
0.0
 11
90.411517806047186
 21
59.999995040185688
 31
0.0
  0
LINE
  5
427
  8
DIM
 10
0.0000057060552763
 20
-0.0000049598141914
 30
0.0
 11
90.411517806047186
 21
-0.0000049598141914
 31
0.0
  0
TEXT
  5
428
  8
DIM
 10
60.977898845453588
 20
72.020801961929521
 30
0.0
 40
9.9960000000000004
  1
ALUMINIUM BRONZE ONLY
 50
90.0
 72
     4
 11
55.97989884545359
 21
169.36280196192939
 31
0.0
  0
LINE
  5
429
  8
DIM
 10
84.699517806047197
 20
59.999995040185688
 30
0.0
 11
84.699517806047197
 21
242.8173988838534
 31
0.0
  0
TEXT
  5
42A
  8
DIM
 10
79.458002115630563
 20
70.882647011570583
 30
0.0
 40
9.9960000000000004
  1
%%C60 CAST PILOT BORE
 50
90.0
 72
     4
 11
74.460002115630573
 21
156.5626470115705
 31
0.0
  0
SOLID
  5
42B
  8
DIM
 10
82.795517806047087
 20
48.575995040185717
 30
0.0
 11
86.603517806047179
 21
48.575995040185717
 31
0.0
 12
84.699517806047197
 22
59.999995040185688
 32
0.0
 13
84.699517806047197
 23
59.999995040185688
 33
0.0
  0
SOLID
  5
42C
  8
DIM
 10
82.795517806047087
 20
11.42399504018578
 30
0.0
 11
86.603517806047179
 21
11.42399504018578
 31
0.0
 12
84.699517806047197
 22
-0.0000049598141914
 32
0.0
 13
84.699517806047197
 23
-0.0000049598141914
 33
0.0
  0
LINE
  5
42D
  8
DIM
 10
84.699517806047197
 20
11.42399504018578
 30
0.0
 11
84.699517806047197
 21
59.999995040185688
 31
0.0
  0
ENDBLK
  5
42F
  8
0
  0
BLOCK
  8
0
  2
*U1
 70
     1
 10
0.0
 20
0.0
 30
0.0
  3
*U1
  1

  0
ENDBLK
  5
4FE
  8
0
  0
BLOCK
  8
0
  2
LOGO
 70
     0
 10
0.0
 20
0.0
 30
0.0
  3
LOGO
  1

  0
INSERT
  5
529
  8
DRG
  6
CONTINUOUS
 62
     7
  2
*U4
 10
0.0
 20
0.0
 30
0.0
1001
ACAD
1002
{
1000
R14_HATCH_DATA
1000
529
1011
1.0
1021
0.0
1031
0.0
1021
0.0
1031
0.0
1011
0.0
1021
0.0
1031
0.0
1021
1.0
1031
0.0
1011
0.0
1021
0.0
1031
0.0
1021
0.0
1031
1.0
1040
0.0
1010
0.0
1020
0.0
1030
1.0
1000
SOLID
1070
     1
1070
     0
1071
       17
1071
        7
1070
     1
1070
     1
1071
        9
1040
18.821661727211438
1040
85.569427875032716
1040
-0.4142135623730951
1040
26.821661727211438
1040
93.569427875032716
1040
0.0
1040
28.191279411133561
1040
93.56942787503273
1040
0.0
1040
28.191279411133561
1040
102.0369718403326
1040
0.2674368359602434
1040
18.821661727211438
1040
97.915857504065912
1040
0.0
1040
18.821661727211438
1040
102.0369718403326
1040
0.0
1040
7.7802673214059723
1040
102.0369718403326
1040
0.0
1040
7.7802673214059723
1040
62.115696081838671
1040
0.0
1040
18.821661727211438
1040
62.115696081838678
1040
0.0
1071
        0
1071
        7
1070
     1
1070
     1
1071
        8
1040
29.838142899665851
1040
72.897331735467191
1040
0.4142135623730863
1040
41.838142899665847
1040
60.89733173546756
1040
0.0
1040
47.650196927116667
1040
60.89733173546756
1040
0.4142126981028046
1040
59.650196927064421
1040
72.897296325816569
1040
0.0348233422700972
1040
59.650196927064421
1040
90.096337111694368
1040
0.4142126981028142
1040
47.650196927116667
1040
102.0963017020437
1040
0.0
1040
41.838142899665847
1040
102.0963017020437
1040
0.4142135623730893
1040
29.838142899665851
1040
90.096301702044016
1040
0.0348231985322414
1071
        0
1071
       22
1070
     1
1070
     1
1071
        4
1040
40.882971825549703
1040
90.337990088334166
1040
-1.0
1040
48.605370470334492
1040
90.337990088334735
1040
-0.0248818291691539
1040
48.605370470334492
1040
72.655643349175492
1040
-1.0
1040
40.882971825549703
1040
72.655643349177595
1040
-0.0248818291691501
1071
        0
1071
        7
1070
     1
1070
     1
1071
       18
1040
67.331191210151701
1040
68.89733173546756
1040
0.4142135623730951
1040
75.331191210151701
1040
60.89733173546756
1040
0.0
1040
80.675802928262684
1040
60.89733173546756
1040
0.1450058980834471
1040
84.501142256151084
1040
62.072518178885289
1040
0.0
1040
84.501142256151084
1040
70.214764581409185
1040
-0.0833071563303517
1040
83.501142256151255
1040
69.876055965300111
1040
0.0
1040
80.482556033578916
1040
69.876055965300111
1040
-0.4142135623730951
1040
77.482556033578931
1040
72.876055965300111
1040
0.0
1040
77.482556033578931
1040
94.593352860836134
1040
0.0
1040
84.553623006881026
1040
94.593352860836134
1040
0.0
1040
84.553623006881026
1040
101.9948050433795
1040
0.0
1040
77.482556033578931
1040
101.9948050433795
1040
0.0
1040
77.482556033578931
1040
107.1280725498991
1040
0.0
1040
67.331191210151701
1040
107.1280725498991
1040
0.0
1040
67.331191210151701
1040
101.9948050433795
1040
0.0
1040
62.478989637268562
1040
101.9948050433795
1040
0.0
1040
62.478989637268569
1040
94.593352860836134
1040
0.0
1040
67.331191210151687
1040
94.593352860836134
1040
0.0
1071
        0
1071
        7
1070
     1
1070
     1
1071
        8
1040
85.849782736700035
1040
72.897331735467475
1040
0.4142135623730931
1040
97.849782736700035
1040
60.89733173546756
1040
0.0
1040
103.66183676415081
1040
60.89733173546756
1040
0.4142126981028048
1040
115.6618367640986
1040
72.897296325816569
1040
0.0348233422700971
1040
115.6618367640986
1040
90.096337111694325
1040
0.4142126981028151
1040
103.66183676415081
1040
102.0963017020437
1040
0.0
1040
97.849782736700035
1040
102.0963017020437
1040
0.4142135623730893
1040
85.849782736700035
1040
90.096301702044016
1040
0.0348231985322409
1071
        0
1071
       22
1070
     1
1070
     1
1071
        4
1040
96.894611662583884
1040
90.337990088335033
1040
-1.0
1040
104.6170103073686
1040
90.337990088334763
1040
-0.0248818291691539
1040
104.6170103073686
1040
72.655643349175506
1040
-1.0
1040
96.894611662583884
1040
72.655643349177595
1040
-0.0248818291691514
1071
        0
1071
        7
1070
     1
1070
     1
1071
        9
1040
119.0096173095521
1040
62.115696081838678
1040
0.0
1040
130.05101171535759
1040
62.115696081838671
1040
0.0
1040
130.05101171535759
1040
85.569427875032716
1040
-0.4142135623730946
1040
138.05101171535759
1040
93.569427875032716
1040
0.0
1040
139.4206293992797
1040
93.56942787503273
1040
0.0
1040
139.4206293992797
1040
102.0369718403325
1040
0.2674368359602435
1040
130.05101171535759
1040
97.915857504065855
1040
0.0
1040
130.05101171535759
1040
102.0369718403326
1040
0.0
1040
119.0096173095521
1040
102.0369718403326
1040
0.0
1071
        0
1071
        7
1070
     0
1070
     1
1071
        4
1040
153.2899770207527
1040
102.0369718403326
1040
142.11987082690661
1040
102.0369718403326
1040
142.11987082690661
1040
62.115696081838678
1040
153.2899770207527
1040
62.115696081838678
1071
        0
1071
        7
1070
     0
1070
     1
1071
        9
1040
161.3332883364622
1040
62.115696081838678
1040
171.78072804963571
1040
62.115696081838678
1040
165.4162645291251
1040
78.311404477182364
1040
176.9709164189357
1040
78.31140447718235
1040
176.9709164189357
1040
86.855763084496857
1040
165.4162645291251
1040
86.855763084496886
1040
171.38205787173379
1040
102.0369718403326
1040
160.9346181585602
1040
102.0369718403326
1040
153.2899770207527
1040
82.583583780839575
1071
        0
1071
        7
1070
     1
1070
     1
1071
       21
1040
152.52515784094209
1040
47.648154099737518
1040
-0.8501159182110916
1040
160.04745823702251
1040
46.421288526219293
1040
0.0
1040
160.04745823702251
1040
45.21828747592599
1040
0.0
1040
171.0912486890569
1040
45.21828747592599
1040
0.4103700463812956
1040
159.0922846938046
1040
57.06060729124669
1040
0.0
1040
153.28023066635379
1040
57.06060729124669
1040
0.3231315706904765
1040
141.8917942032017
1040
48.84260609145101
1040
0.1954153765693974
1040
142.3184035466634
1040
43.115005509834923
1040
0.2113556324406552
1040
155.72873071743231
1040
33.145354604103439
1040
-0.2264685134690167
1040
160.04745823702251
1040
29.300230626583549
1040
0.0
1040
160.04745823702251
1040
27.619948938379359
1040
-1.0
1040
152.32505959223769
1040
27.619948938379359
1040
0.0
1040
152.32505959223769
1040
29.959298931438969
1040
0.0
1040
141.28023066635379
1040
29.95929893143898
1040
0.0
1040
141.28023066635379
1040
27.861637324670479
1040
0.4142135623730951
1040
153.28023066635379
1040
15.861637324670481
1040
0.0
1040
159.0922846938046
1040
15.861637324670481
1040
0.4142135623730951
1040
171.0922846938046
1040
27.861637324670479
1040
0.0
1040
171.0922846938046
1040
29.95929893143904
1040
0.3201720163042325
1040
161.4128172083947
1040
39.98989916707626
1040
-0.1549843570040388
1040
153.4809683549079
1040
44.585756161105429
1040
-0.2969707756967668
1071
        0
1071
        7
1070
     1
1070
     1
1071
        9
1040
116.19314081319391
1040
17.28637227261407
1040
0.0
1040
127.2345352189994
1040
17.28637227261407
1040
0.0
1040
127.2345352189994
1040
40.740104065808097
1040
-0.4142135623730953
1040
135.23453521899941
1040
48.740104065808111
1040
0.0
1040
136.6041529029215
1040
48.740104065808111
1040
0.0
1040
136.6041529029215
1040
57.207648031108022
1040
0.2674368359602446
1040
127.2345352189994
1040
53.086533694841222
1040
0.0
1040
127.2345352189994
1040
57.207648031108022
1040
0.0
1040
116.19314081319391
1040
57.207648031108022
1040
0.0
1071
        0
1071
        7
1070
     1
1070
     1
1071
       18
1040
111.2523129779601
1040
45.06060729124669
1040
0.4142135623730951
1040
99.252312977960173
1040
57.06060729124669
1040
0.0
1040
93.440258950509346
1040
57.06060729124669
1040
0.3935971290544443
1040
81.470405744524527
1040
45.910674481046733
1040
0.0
1040
92.485087876393209
1040
45.910674481046733
1040
0.0
1040
92.485087876393209
1040
47.313129977668268
1040
-1.0
1040
100.2074865211779
1040
47.313129977668268
1040
0.0
1040
100.207486521178
1040
42.948196427274922
1040
0.0
1040
93.358174068518778
1040
42.948196427274922
1040
0.3803366342075343
1040
81.440258950509346
1040
32.349374231810209
1040
0.0
1040
81.440258950509346
1040
27.861637324670479
1040
0.212203934851876
1040
85.398663329684837
1040
18.95474449545469
1040
0.2715779457989354
1040
94.991749269489972
1040
17.839408458597308
1040
0.2212147422997974
1040
102.1211660476033
1040
23.542010892025001
1040
0.0
1040
102.1211660476033
1040
21.102600968374279
1040
0.048558820350044
1040
102.6710305977499
1040
17.89352120355198
1040
0.0
1040
111.8021775281067
1040
17.893521203552009
1040
-0.0850534761391249
1040
111.2523129779601
1040
23.54201089202471
1040
0.0
1071
        0
1071
       22
1070
     1
1070
     1
1071
        6
1040
101.5095597489034
1040
37.384730871555568
1040
0.0
1040
101.5095597489034
1040
29.984856014372749
1040
-0.4101584254678068
1040
95.863486513980718
1040
23.758749615986972
1040
-0.4142135623730822
1040
92.002287191588479
1040
27.619948938379359
1040
0.0
1040
92.002287191588479
1040
33.041326503689838
1040
-0.3592987923427892
1040
97.969021393668683
1040
37.384730871555568
1040
0.0
1071
        0
1071
        7
1070
     1
1070
     1
1071
       14
1040
74.280536421539182
1040
35.629722934820848
1040
0.0
1040
74.280536421539182
1040
45.06060729124669
1040
0.4142135623730951
1040
62.280536421539182
1040
57.06060729124669
1040
0.0
1040
56.468482394088369
1040
57.06060729124669
1040
0.4142135623730892
1040
44.468482394088362
1040
45.060607291246939
1040
0.0348231985322411
1040
44.468482394088362
1040
27.861637324670291
1040
0.4142135623730907
1040
56.468482394088369
1040
15.861637324670481
1040
0.0
1040
62.280536421539182
1040
15.861637324670481
1040
0.4142135623730951
1040
74.280536421539182
1040
27.861637324670479
1040
0.0
1040
74.280536421539196
1040
30.816887788353831
1040
0.0
1040
63.235709964757
1040
30.81688778835381
1040
0.0
1040
63.235709964757007
1040
27.61994893837937
1040
-1.0
1040
55.513311319972217
1040
27.61994893837937
1040
0.0
1040
55.513311319972232
1040
35.629722934820848
1040
0.0
1071
        0
1071
       22
1070
     1
1070
     1
1071
        4
1040
63.235709964756971
1040
41.923431282527652
1040
0.0
1040
55.51331131997221
1040
41.923431282527638
1040
0.0
1040
55.513311319972217
1040
46.690614073903141
1040
-1.0
1040
63.235709964757007
1040
46.690614073903127
1040
0.0
1071
        0
1071
        7
1070
     1
1070
     1
1071
       15
1040
37.639779947293832
1040
57.06060729124669
1040
0.0
1040
27.267121908897028
1040
57.06060729124669
1040
0.0
1040
27.267121908897021
1040
51.255838552818979
1040
0.3392741364964821
1040
18.58303542025671
1040
58.127888502333931
1040
0.3975671648689696
1040
7.030577403887583
1040
46.170226698962978
1040
0.0322586733839356
1040
7.0565934473582743
1040
30.23514359210488
1040
0.381674351628262
1040
18.58303542025671
1040
18.945146626805109
1040
0.3392741364964824
1040
27.267121908897021
1040
25.817196576320061
1040
0.0
1040
27.267121908897021
1040
13.51984597021351
1040
-1.0
1040
19.544723264112228
1040
13.51984597021351
1040
0.0
1040
19.544723264112239
1040
14.846027306936771
1040
0.0
1040
7.7279273094568479
1040
14.846027306936771
1040
0.435111756420548
1040
18.100585347853119
1040
3.392610111620797
1040
0.0
1040
25.69916102541525
1040
3.392610111620797
1040
0.3589835117613411
1040
37.639779947293839
1040
13.760967175618781
1040
0.0
1071
        0
1071
       22
1070
     1
1070
     1
1071
        6
1040
27.387732575171409
1040
32.086434320449378
1040
-0.3635850888704513
1040
22.683854862926161
1040
25.455509253088579
1040
-0.4081657147783189
1040
17.256300807526252
1040
30.5191262631974
1040
0.0
1040
17.256300807526252
1040
46.312783983787632
1040
-0.4081657147783226
1040
22.683854862926282
1040
51.376400993896397
1040
-0.3635850888704468
1040
27.387732575171409
1040
44.745475926535612
1040
0.0
1071
        0
1070
     0
1070
     1
1040
0.2228598800114194
1071
       17
1040
17.63743802729277
1040
76.626905651017751
1040
0.0
1040
33.91754890401171
1040
77.741205688022092
1040
0.0
1040
33.91754890401171
1040
77.741205688022092
1040
0.0
1040
69.153945982282949
1040
79.301225382558854
1040
0.0
1040
91.455465417142008
1040
80.861243290751887
1040
0.0
1040
91.455465417142008
1040
80.861243290751887
1040
0.0
1040
120.67045393727309
1040
80.861243290751887
1040
0.0
1040
151.44655150816561
1040
79.746945040091759
1040
0.0
1040
157.69097519808881
1040
82.198402263350317
1040
0.0
1040
149.43941532211869
1040
47.209401108474808
1040
0.0
1040
122.2315629880345
1040
49.21514046054449
1040
0.0
1040
107.73557316557979
1040
43.19792419067948
1040
0.0
1040
107.73557316557979
1040
43.19792419067948
1040
0.0
1040
69.376961114066034
1040
40.30074552354403
1040
0.0
1040
69.376961114066034
1040
40.30074552354403
1040
0.0
1040
30.572318798986078
1040
42.306483089269697
1040
0.0
1040
30.572318798986078
1040
42.306483089269697
1040
0.0
1002
}
  0
ARC
  5
52A
  8
DRG
 62
     7
 10
56.468482394088369
 20
27.861637324670479
 30
0.0
 40
12.0
 50
180.0
 51
270.0
  0
ARC
  5
52B
  8
DRG
 62
     7
 10
56.468482394088369
 20
45.06060729124669
 30
0.0
 40
12.0
 50
90.0
 51
180.0
  0
ARC
  5
52C
  8
DRG
 62
     7
 10
47.650196927116667
 20
72.89733173546756
 30
0.0
 40
12.0
 50
270.0
 51
0.0
  0
ARC
  5
52D
  8
DRG
 62
     7
 10
47.650196927116667
 20
90.096301702043775
 30
0.0
 40
12.0
 50
0.0
 51
90.0
  0
ARC
  5
52E
  8
DRG
 62
     7
 10
44.74417114794209
 20
72.655643349176444
 30
0.0
 40
3.8611993223923942
 50
180.0
 51
0.0
  0
ARC
  5
52F
  8
DRG
 62
     7
 10
44.74417114794209
 20
90.337990088334877
 30
0.0
 40
3.8611993223923942
 50
0.0
 51
180.0
  0
ARC
  5
530
  8
DRG
 62
     7
 10
19.137584483414571
 20
31.0402274344309
 30
0.0
 40
12.107786932649869
 50
183.81258486583951
 51
267.37487616930952
  0
LINE
  5
531
  8
DRG
 62
     7
 10
27.267121908897021
 20
13.51984597021351
 30
0.0
 11
27.267121908897021
 21
25.817196576319979
 31
0.0
  0
LINE
  5
532
  8
DRG
 62
     7
 10
37.639779947293839
 20
13.760967175618591
 30
0.0
 11
37.639779947293839
 21
57.06060729124669
 31
0.0
  0
LINE
  5
533
  8
DRG
 62
     7
 10
7.7279273094568453
 20
14.846027306936771
 30
0.0
 11
19.544723264112228
 21
14.846027306936771
 31
0.0
  0
ARC
  5
534
  8
DRG
 62
     7
 10
18.249110221157022
 20
13.95076893658401
 30
0.0
 40
10.559203445863639
 50
175.13635846835899
 51
269.19405577571678
  0
ARC
  5
535
  8
DRG
 62
     7
 10
25.379351800633462
 20
15.82074347040526
 30
0.0
 40
12.432247452652581
 50
271.47404887186468
 51
350.4632534986161
  0
LINE
  5
536
  8
DRG
 62
     7
 10
18.100585347854121
 20
3.392610111620797
 30
0.0
 11
25.699161025414639
 21
3.392610111620797
 31
0.0
  0
ARC
  5
537
  8
DRG
 62
     7
 10
23.40592258650463
 20
13.51984597021351
 30
0.0
 40
3.8611993223923942
 50
180.0
 51
0.0
  0
LINE
  5
538
  8
DRG
 62
     7
 10
19.544723264112228
 20
13.51984597021351
 30
0.0
 11
19.544723264112228
 21
14.846027306936771
 31
0.0
  0
LINE
  5
539
  8
DRG
 62
     7
 10
18.821661727211438
 20
62.115696081838678
 30
0.0
 11
18.821661727211438
 21
85.569427875032716
 31
0.0
  0
ARC
  5
53A
  8
DRG
 62
     7
 10
41.838142899665847
 20
72.89733173546756
 30
0.0
 40
12.0
 50
180.0
 51
270.0
  0
LINE
  5
53B
  8
DRG
 62
     7
 10
7.7802673214059723
 20
102.0369718403326
 30
0.0
 11
7.7802673214059723
 21
62.115696081838678
 31
0.0
  0
ARC
  5
53C
  8
DRG
 62
     7
 10
19.137584483414571
 20
46.032807694708133
 30
0.0
 40
12.107786932649869
 50
92.625123830690427
 51
179.34969965531249
  0
LINE
  5
53D
  8
DRG
 62
     7
 10
7.7802673214059723
 20
62.115696081838678
 30
0.0
 11
18.821661727211438
 21
62.115696081838678
 31
0.0
  0
ARC
  5
53E
  8
DRG
 62
     7
 10
130.4096373956734
 20
38.404095866101891
 30
0.0
 40
123.62323904739679
 50
176.39825231050591
 51
183.7888327716102
  0
ARC
  5
53F
  8
DRG
 62
     7
 10
167.7922598686371
 20
36.46112230795859
 30
0.0
 40
123.62323904739679
 50
176.01116722839041
 51
183.98883277160959
  0
LINE
  5
540
  8
DRG
 62
     7
 10
27.387732575171409
 20
32.086434320449371
 30
0.0
 11
27.387732575171409
 21
44.745475926535619
 31
0.0
  0
LINE
  5
541
  8
DRG
 62
     7
 10
17.256300807526252
 20
30.519126263197901
 30
0.0
 11
17.256300807526252
 21
46.312783983787199
 31
0.0
  0
ARC
  5
542
  8
DRG
 62
     7
 10
22.554825927420261
 20
30.757839296791811
 30
0.0
 40
5.3038997311936118
 50
182.57958705316651
 51
271.39398239048438
  0
ARC
  5
543
  8
DRG
 62
     7
 10
21.079116203706629
 20
31.577778829510549
 30
0.0
 40
6.3290892655085571
 50
284.68766481341447
 51
4.6097118352224014
  0
ARC
  5
544
  8
DRG
 62
     7
 10
18.444167318675341
 20
28.04361904615444
 30
0.0
 40
9.0995321151857773
 50
270.87442572940842
 51
345.83740798549388
  0
LINE
  5
545
  8
DRG
 62
     7
 10
37.639779947293839
 20
57.06060729124669
 30
0.0
 11
27.267121908897021
 21
57.06060729124669
 31
0.0
  0
ARC
  5
546
  8
DRG
 62
     7
 10
22.554825927420261
 20
46.074070950193168
 30
0.0
 40
5.3038997311936118
 50
88.606017609515575
 51
177.42041294683341
  0
ARC
  5
547
  8
DRG
 62
     7
 10
21.079116203706629
 20
45.254131417474468
 30
0.0
 40
6.3290892655085571
 50
355.39028816477759
 51
75.312335186585557
  0
ARC
  5
548
  8
DRG
 62
     7
 10
18.444167318675341
 20
49.029416082984589
 30
0.0
 40
9.0995321151857773
 50
14.16259201450603
 51
89.125574270591571
  0
LINE
  5
549
  8
DRG
 62
     7
 10
27.267121908897021
 20
51.255838552819107
 30
0.0
 11
27.267121908897021
 21
57.06060729124669
 31
0.0
  0
LINE
  5
54A
  8
DRG
 62
     7
 10
41.838142899665847
 20
60.89733173546756
 30
0.0
 11
47.650196927116667
 21
60.89733173546756
 31
0.0
  0
LINE
  5
54B
  8
DRG
 62
     7
 10
7.7802673214059723
 20
102.0369718403326
 30
0.0
 11
18.821661727211438
 21
102.0369718403326
 31
0.0
  0
ARC
  5
54C
  8
DRG
 62
     7
 10
26.821661727211438
 20
85.569427875032716
 30
0.0
 40
8.0
 50
90.0
 51
180.0
  0
ARC
  5
54D
  8
DRG
 62
     7
 10
218.4362314981995
 20
81.496816718755667
 30
0.0
 40
177.77324423808651
 50
177.14934059322539
 51
182.85065940677461
  0
ARC
  5
54E
  8
DRG
 62
     7
 10
153.16192037421459
 20
81.496816718755667
 30
0.0
 40
123.62323904739679
 50
176.01116722839041
 51
183.98883277160959
  0
ARC
  5
54F
  8
DRG
 62
     7
 10
41.838142899665847
 20
90.096301702043775
 30
0.0
 40
12.0
 50
90.0
 51
180.0
  0
LINE
  5
550
  8
DRG
 62
     7
 10
18.821661727211438
 20
97.915857504065912
 30
0.0
 11
18.821661727211438
 21
102.0369718403326
 31
0.0
  0
ARC
  5
551
  8
DRG
 62
     7
 10
27.083354510939952
 20
91.844139685506846
 30
0.0
 40
10.2528691067876
 50
83.7965056449153
 51
143.68693404466879
  0
LINE
  5
552
  8
DRG
 62
     7
 10
28.191279411133561
 20
102.0369718403326
 30
0.0
 11
28.191279411133561
 21
93.569427875032716
 31
0.0
  0
LINE
  5
553
  8
DRG
 62
     7
 10
28.191279411133561
 20
93.569427875032716
 30
0.0
 11
26.821661727211438
 21
93.569427875032716
 31
0.0
  0
LINE
  5
554
  8
DRG
 62
     7
 10
41.838142899665847
 20
102.0963017020437
 30
0.0
 11
47.650196927116667
 21
102.0963017020437
 31
0.0
  0
ARC
  5
555
  8
DRG
 62
     7
 10
91.146199293645054
 20
26.576636016635941
 30
0.0
 40
9.5460672539884595
 50
232.98068850611
 51
293.75592135571679
  0
ARC
  5
556
  8
DRG
 62
     7
 10
153.28023066635379
 20
27.861637324670479
 30
0.0
 40
12.0
 50
180.0
 51
270.0
  0
ARC
  5
557
  8
DRG
 62
     7
 10
159.0922846938046
 20
27.861637324670479
 30
0.0
 40
12.0
 50
270.0
 51
0.0
  0
ARC
  5
558
  8
DRG
 62
     7
 10
62.280536421539182
 20
27.861637324670479
 30
0.0
 40
12.0
 50
270.0
 51
0.0
  0
LINE
  5
559
  8
DRG
 62
     7
 10
56.468482394088369
 20
15.861637324670481
 30
0.0
 11
62.280536421539182
 21
15.861637324670481
 31
0.0
  0
LINE
  5
55A
  8
DRG
 62
     7
 10
153.28023066635379
 20
15.861637324670481
 30
0.0
 11
159.0922846938046
 21
15.861637324670481
 31
0.0
  0
ARC
  5
55B
  8
DRG
 62
     7
 10
99.252312977960173
 20
45.06060729124669
 30
0.0
 40
12.0
 50
0.0
 51
90.0
  0
ARC
  5
55C
  8
DRG
 62
     7
 10
103.66183676415081
 20
72.89733173546756
 30
0.0
 40
12.0
 50
270.0
 51
0.0
  0
ARC
  5
55D
  8
DRG
 62
     7
 10
103.66183676415081
 20
90.096301702043775
 30
0.0
 40
12.0
 50
0.0
 51
90.0
  0
ARC
  5
55E
  8
DRG
 62
     7
 10
75.331191210151701
 20
68.89733173546756
 30
0.0
 40
8.0
 50
180.0
 51
270.0
  0
LINE
  5
55F
  8
DRG
 62
     7
 10
84.501142256151084
 20
62.072518178885268
 30
0.0
 11
84.501142256151084
 21
70.214764581409213
 31
0.0
  0
ARC
  5
560
  8
DRG
 62
     7
 10
97.849782736700035
 20
72.89733173546756
 30
0.0
 40
12.0
 50
180.0
 51
270.0
  0
ARC
  5
561
  8
DRG
 62
     7
 10
80.604973725058926
 20
67.941395133310024
 30
0.0
 40
7.044419488421358
 50
270.57609896713558
 51
303.5789717876612
  0
ARC
  5
562
  8
DRG
 62
     7
 10
93.358174068518778
 20
30.948196427274919
 30
0.0
 40
12.0
 50
90.0
 51
173.29457252003729
  0
ARC
  5
563
  8
DRG
 62
     7
 10
93.44025895050936
 20
27.861637324670479
 30
0.0
 40
12.0
 50
180.0
 51
227.9226718038604
  0
ARC
  5
564
  8
DRG
 62
     7
 10
93.44025895050936
 20
45.06060729124669
 30
0.0
 40
12.0
 50
90.0
 51
175.93782586434531
  0
LINE
  5
565
  8
DRG
 62
     7
 10
74.280536421539182
 20
45.06060729124669
 30
0.0
 11
74.280536421539182
 21
35.629722934820848
 31
0.0
  0
LINE
  5
566
  8
DRG
 62
     7
 10
63.235709964757007
 20
30.816887788353821
 30
0.0
 11
74.280536421539182
 21
30.816887788353821
 31
0.0
  0
LINE
  5
567
  8
DRG
 62
     7
 10
55.513311319972217
 20
35.629722934820848
 30
0.0
 11
74.280536421539182
 21
35.629722934820848
 31
0.0
  0
LINE
  5
568
  8
DRG
 62
     7
 10
63.235709964757007
 20
30.816887788353821
 30
0.0
 11
63.235709964757007
 21
27.619948938379359
 31
0.0
  0
LINE
  5
569
  8
DRG
 62
     7
 10
55.513311319972217
 20
35.629722934820848
 30
0.0
 11
55.513311319972217
 21
27.619948938379359
 31
0.0
  0
ARC
  5
56A
  8
DRG
 62
     7
 10
59.374510642364612
 20
27.619948938379359
 30
0.0
 40
3.8611993223923942
 50
180.0
 51
0.0
  0
LINE
  5
56B
  8
DRG
 62
     7
 10
74.280536421539182
 20
30.816887788353821
 30
0.0
 11
74.280536421539182
 21
27.861637324670479
 31
0.0
  0
ARC
  5
56C
  8
DRG
 62
     7
 10
62.280536421539182
 20
45.06060729124669
 30
0.0
 40
12.0
 50
0.0
 51
90.0
  0
LINE
  5
56D
  8
DRG
 62
     7
 10
55.513311319972217
 20
41.923431282527652
 30
0.0
 11
63.235709964757007
 21
41.923431282527652
 31
0.0
  0
ARC
  5
56E
  8
DRG
 62
     7
 10
59.374510642364612
 20
46.690614073903127
 30
0.0
 40
3.8611993223923942
 50
0.0
 51
180.0
  0
LINE
  5
56F
  8
DRG
 62
     7
 10
55.513311319972217
 20
46.690614073903127
 30
0.0
 11
55.513311319972217
 21
41.923431282527652
 31
0.0
  0
LINE
  5
570
  8
DRG
 62
     7
 10
63.235709964757007
 20
46.690614073903127
 30
0.0
 11
63.235709964757007
 21
41.923431282527652
 31
0.0
  0
LINE
  5
571
  8
DRG
 62
     7
 10
56.468482394088369
 20
57.06060729124669
 30
0.0
 11
62.280536421539182
 21
57.06060729124669
 31
0.0
  0
LINE
  5
572
  8
DRG
 62
     7
 10
75.331191210151701
 20
60.89733173546756
 30
0.0
 11
80.675802928264815
 21
60.89733173546756
 31
0.0
  0
LINE
  5
573
  8
DRG
 62
     7
 10
111.2523129779601
 20
45.06060729124669
 30
0.0
 11
111.2523129779601
 21
21.10260096837424
 31
0.0
  0
ARC
  5
574
  8
DRG
 62
     7
 10
92.427187023305351
 20
28.353548776339029
 30
0.0
 40
10.822390038051561
 50
283.70766965543032
 51
333.6028219757398
  0
ARC
  5
575
  8
DRG
 62
     7
 10
97.617648860406234
 20
31.597336783954741
 30
0.0
 40
5.7980507916306081
 50
86.525641605078704
 51
165.57884810514051
  0
ARC
  5
576
  8
DRG
 62
     7
 10
95.530005668639475
 20
29.734254501986349
 30
0.0
 40
5.9848030975807349
 50
273.19424815916329
 51
2.3998464036014582
  0
LINE
  5
577
  8
DRG
 62
     7
 10
92.002287191588479
 20
27.619948938379359
 30
0.0
 11
92.002287191588479
 21
33.041326503689788
 31
0.0
  0
LINE
  5
578
  8
DRG
 62
     7
 10
81.440258950509346
 20
32.349374231809861
 30
0.0
 11
81.440258950509346
 21
27.861637324670479
 31
0.0
  0
ARC
  5
579
  8
DRG
 62
     7
 10
95.863486513980874
 20
27.619948938379359
 30
0.0
 40
3.8611993223923942
 50
180.0
 51
270.0
  0
LINE
  5
57A
  8
DRG
 62
     7
 10
102.6710305977499
 20
17.89352120355198
 30
0.0
 11
111.8021775281067
 21
17.893521203552009
 31
0.0
  0
ARC
  5
57B
  8
DRG
 62
     7
 10
118.87875205644769
 20
22.322305930199491
 30
0.0
 40
16.801915635954131
 50
175.83705377070211
 51
195.28307330703629
  0
LINE
  5
57C
  8
DRG
 62
     7
 10
102.1211660476033
 20
23.542010892025068
 30
0.0
 11
102.1211660476033
 21
21.102600968374329
 31
0.0
  0
ARC
  5
57D
  8
DRG
 62
     7
 10
128.00989898680459
 20
22.322305930199519
 30
0.0
 40
16.801915635954131
 50
175.83705377070211
 51
195.28307330703629
  0
LINE
  5
57E
  8
DRG
 62
     7
 10
101.5095597489034
 20
37.384730871555568
 30
0.0
 11
101.5095597489034
 21
29.483652989600269
 31
0.0
  0
LINE
  5
57F
  8
DRG
 62
     7
 10
101.5095597489034
 20
37.384730871555568
 30
0.0
 11
97.266276327143615
 21
37.384730871555568
 31
0.0
  0
LINE
  5
580
  8
DRG
 62
     7
 10
100.2074865211779
 20
42.948196427274922
 30
0.0
 11
93.358174068518778
 21
42.948196427274922
 31
0.0
  0
ARC
  5
581
  8
DRG
 62
     7
 10
96.346287198785603
 20
47.313129977668268
 30
0.0
 40
3.8611993223923942
 50
0.0
 51
180.0
  0
LINE
  5
582
  8
DRG
 62
     7
 10
93.44025895050936
 20
57.06060729124669
 30
0.0
 11
99.252312977960173
 21
57.06060729124669
 31
0.0
  0
LINE
  5
583
  8
DRG
 62
     7
 10
92.485087876393209
 20
45.910674481046733
 30
0.0
 11
81.470405744524555
 21
45.910674481046733
 31
0.0
  0
LINE
  5
584
  8
DRG
 62
     7
 10
92.485087876393209
 20
47.313129977668268
 30
0.0
 11
92.485087876393209
 21
45.910674481046733
 31
0.0
  0
LINE
  5
585
  8
DRG
 62
     7
 10
100.2074865211779
 20
47.313129977668268
 30
0.0
 11
100.2074865211779
 21
42.948196427274922
 31
0.0
  0
LINE
  5
586
  8
DRG
 62
     7
 10
97.849782736700035
 20
60.89733173546756
 30
0.0
 11
103.66183676415081
 21
60.89733173546756
 31
0.0
  0
LINE
  5
587
  8
DRG
 62
     7
 10
80.482556033578916
 20
69.876055965300111
 30
0.0
 11
83.501142256151056
 21
69.876055965300111
 31
0.0
  0
LINE
  5
588
  8
DRG
 62
     7
 10
77.482556033578931
 20
94.593352860836134
 30
0.0
 11
84.553623006881026
 21
94.593352860836134
 31
0.0
  0
LINE
  5
589
  8
DRG
 62
     7
 10
77.482556033578931
 20
101.9948050433795
 30
0.0
 11
84.553623006881026
 21
101.9948050433795
 31
0.0
  0
ARC
  5
58A
  8
DRG
 62
     7
 10
-128.9478892023152
 20
81.496816718755667
 30
0.0
 40
177.77324423808651
 50
357.1493405932253
 51
2.8506594067746178
  0
ARC
  5
58B
  8
DRG
 62
     7
 10
-63.673578078330422
 20
81.496816718755667
 30
0.0
 40
123.62323904739679
 50
356.01116722839038
 51
3.9888327716095779
  0
LINE
  5
58C
  8
DRG
 62
     7
 10
67.331191210151701
 20
94.593352860836134
 30
0.0
 11
67.331191210151701
 21
68.89733173546756
 31
0.0
  0
LINE
  5
58D
  8
DRG
 62
     7
 10
77.482556033578931
 20
94.593352860836134
 30
0.0
 11
77.482556033578931
 21
72.876055965300111
 31
0.0
  0
ARC
  5
58E
  8
DRG
 62
     7
 10
80.482556033578916
 20
72.876055965300111
 30
0.0
 40
3.0
 50
180.0
 51
270.0
  0
LINE
  5
58F
  8
DRG
 62
     7
 10
62.478989637268569
 20
101.9948050433795
 30
0.0
 11
67.331191210151701
 21
101.9948050433795
 31
0.0
  0
LINE
  5
590
  8
DRG
 62
     7
 10
62.478989637268569
 20
94.593352860836134
 30
0.0
 11
67.331191210151701
 21
94.593352860836134
 31
0.0
  0
LINE
  5
591
  8
DRG
 62
     7
 10
62.478989637268569
 20
94.593352860836134
 30
0.0
 11
62.478989637268569
 21
101.9948050433795
 31
0.0
  0
LINE
  5
592
  8
DRG
 62
     7
 10
67.331191210151701
 20
107.1280725498991
 30
0.0
 11
77.482556033578931
 21
107.1280725498991
 31
0.0
  0
LINE
  5
593
  8
DRG
 62
     7
 10
67.331191210151701
 20
107.1280725498991
 30
0.0
 11
67.331191210151701
 21
101.9948050433795
 31
0.0
  0
LINE
  5
594
  8
DRG
 62
     7
 10
77.482556033578931
 20
101.9948050433795
 30
0.0
 11
77.482556033578931
 21
107.1280725498991
 31
0.0
  0
ARC
  5
595
  8
DRG
 62
     7
 10
-72.936249365281071
 20
81.496816718755667
 30
0.0
 40
177.77324423808651
 50
357.1493405932253
 51
2.8506594067746178
  0
ARC
  5
596
  8
DRG
 62
     7
 10
274.44787133523357
 20
81.496816718755667
 30
0.0
 40
177.77324423808651
 50
177.14934059322539
 51
182.85065940677461
  0
ARC
  5
597
  8
DRG
 62
     7
 10
209.1735602112488
 20
81.496816718755667
 30
0.0
 40
123.62323904739679
 50
176.01116722839041
 51
183.98883277160959
  0
ARC
  5
598
  8
DRG
 62
     7
 10
100.75581098497619
 20
72.655643349176444
 30
0.0
 40
3.8611993223923942
 50
180.0
 51
0.0
  0
ARC
  5
599
  8
DRG
 62
     7
 10
82.991751330883176
 20
73.025526152493626
 30
0.0
 40
3.1903983410800212
 50
279.18737892597682
 51
298.2359877234839
  0
ARC
  5
59A
  8
DRG
 62
     7
 10
100.75581098497619
 20
90.337990088334877
 30
0.0
 40
3.8611993223923942
 50
0.0
 51
180.0
  0
ARC
  5
59B
  8
DRG
 62
     7
 10
97.849782736700035
 20
90.096301702043775
 30
0.0
 40
12.0
 50
90.0
 51
180.0
  0
LINE
  5
59C
  8
DRG
 62
     7
 10
84.553623006881026
 20
101.9948050433795
 30
0.0
 11
84.553623006881026
 21
94.593352860836134
 31
0.0
  0
LINE
  5
59D
  8
DRG
 62
     7
 10
97.849782736700035
 20
102.0963017020437
 30
0.0
 11
103.66183676415081
 21
102.0963017020437
 31
0.0
  0
LINE
  5
59E
  8
DRG
 62
     7
 10
130.05101171535759
 20
62.115696081838678
 30
0.0
 11
130.05101171535759
 21
85.569427875032716
 31
0.0
  0
LINE
  5
59F
  8
DRG
 62
     7
 10
119.0096173095521
 20
102.0369718403326
 30
0.0
 11
119.0096173095521
 21
62.115696081838678
 31
0.0
  0
LINE
  5
5A0
  8
DRG
 62
     7
 10
165.4162645291251
 20
78.31140447718235
 30
0.0
 11
171.78072804963571
 21
62.115696081838678
 31
0.0
  0
LINE
  5
5A1
  8
DRG
 62
     7
 10
153.2899770207527
 20
82.583583780839604
 30
0.0
 11
161.3332883364622
 21
62.115696081838678
 31
0.0
  0
LINE
  5
5A2
  8
DRG
 62
     7
 10
153.2899770207527
 20
102.0369718403326
 30
0.0
 11
153.2899770207527
 21
62.115696081838678
 31
0.0
  0
LINE
  5
5A3
  8
DRG
 62
     7
 10
142.11987082690661
 20
102.0369718403326
 30
0.0
 11
142.11987082690661
 21
62.115696081838678
 31
0.0
  0
ARC
  5
5A4
  8
DRG
 62
     7
 10
160.28928843394391
 20
53.283870983727013
 30
0.0
 40
20.648450998997479
 50
209.50344874889601
 51
257.2400493880096
  0
LINE
  5
5A5
  8
DRG
 62
     7
 10
141.28023066635379
 20
29.95929893143898
 30
0.0
 11
152.32505959223769
 21
29.95929893143898
 31
0.0
  0
ARC
  5
5A6
  8
DRG
 62
     7
 10
153.28023066635379
 20
45.06060729124669
 30
0.0
 40
12.0
 50
90.0
 51
161.62913043773071
  0
LINE
  5
5A7
  8
DRG
 62
     7
 10
153.2899770207527
 20
62.115696081838678
 30
0.0
 11
142.11987082690661
 21
62.115696081838678
 31
0.0
  0
LINE
  5
5A8
  8
DRG
 62
     7
 10
127.2345352189994
 20
17.28637227261407
 30
0.0
 11
127.2345352189994
 21
40.740104065808111
 31
0.0
  0
LINE
  5
5A9
  8
DRG
 62
     7
 10
116.19314081319391
 20
57.207648031108022
 30
0.0
 11
116.19314081319391
 21
17.28637227261407
 31
0.0
  0
LINE
  5
5AA
  8
DRG
 62
     7
 10
116.19314081319391
 20
17.28637227261407
 30
0.0
 11
127.2345352189994
 21
17.28637227261407
 31
0.0
  0
LINE
  5
5AB
  8
DRG
 62
     7
 10
141.28023066635379
 20
29.95929893143898
 30
0.0
 11
141.28023066635379
 21
27.861637324670479
 31
0.0
  0
ARC
  5
5AC
  8
DRG
 62
     7
 10
135.496228002728
 20
47.014815876282221
 30
0.0
 40
10.2528691067876
 50
83.7965056449153
 51
143.68693404466879
  0
ARC
  5
5AD
  8
DRG
 62
     7
 10
135.23453521899941
 20
40.740104065808111
 30
0.0
 40
8.0
 50
90.0
 51
180.0
  0
LINE
  5
5AE
  8
DRG
 62
     7
 10
119.0096173095521
 20
62.115696081838678
 30
0.0
 11
130.05101171535759
 21
62.115696081838678
 31
0.0
  0
LINE
  5
5AF
  8
DRG
 62
     7
 10
116.19314081319391
 20
57.207648031108022
 30
0.0
 11
127.2345352189994
 21
57.207648031108022
 31
0.0
  0
LINE
  5
5B0
  8
DRG
 62
     7
 10
127.2345352189994
 20
53.0865336948413
 30
0.0
 11
127.2345352189994
 21
57.207648031108079
 31
0.0
  0
LINE
  5
5B1
  8
DRG
 62
     7
 10
136.6041529029215
 20
57.207648031108022
 30
0.0
 11
136.6041529029215
 21
48.740104065808111
 31
0.0
  0
LINE
  5
5B2
  8
DRG
 62
     7
 10
136.6041529029215
 20
48.740104065808111
 30
0.0
 11
135.23453521899941
 21
48.740104065808111
 31
0.0
  0
ARC
  5
5B3
  8
DRG
 62
     7
 10
149.15275272984229
 20
46.50373678022958
 30
0.0
 40
7.6283568598071962
 50
162.14543119997589
 51
216.29372603558031
  0
ARC
  5
5B4
  8
DRG
 62
     7
 10
164.68224204875119
 20
54.775095406185869
 30
0.0
 40
15.14236331012172
 50
222.29150451995909
 51
257.53093545652467
  0
ARC
  5
5B5
  8
DRG
 62
     7
 10
159.223234097084
 20
28.191351553125511
 30
0.0
 40
12.0
 50
8.4721667757414814
 51
79.486612768212169
  0
LINE
  5
5B6
  8
DRG
 62
     7
 10
160.04745823702251
 20
29.300230626583438
 30
0.0
 11
160.04745823702251
 21
27.619948938379359
 31
0.0
  0
LINE
  5
5B7
  8
DRG
 62
     7
 10
152.32505959223769
 20
27.619948938379359
 30
0.0
 11
152.32505959223769
 21
29.95929893143898
 31
0.0
  0
ARC
  5
5B8
  8
DRG
 62
     7
 10
156.18625891463009
 20
27.619948938379359
 30
0.0
 40
3.8611993223923942
 50
180.0
 51
0.0
  0
ARC
  5
5B9
  8
DRG
 62
     7
 10
153.8611380906755
 20
26.699836406787622
 30
0.0
 40
6.7106338785129491
 50
22.799249772319211
 51
73.841024038773142
  0
LINE
  5
5BA
  8
DRG
 62
     7
 10
171.0922846938046
 20
29.95929893143915
 30
0.0
 11
171.0922846938046
 21
27.861637324670479
 31
0.0
  0
LINE
  5
5BB
  8
DRG
 62
     7
 10
171.0912486890569
 20
45.21828747592599
 30
0.0
 11
160.04745823702251
 21
45.21828747592599
 31
0.0
  0
ARC
  5
5BC
  8
DRG
 62
     7
 10
159.0922846938046
 20
45.06060729124669
 30
0.0
 40
12.0
 50
0.7528890912800703
 51
90.0
  0
LINE
  5
5BD
  8
DRG
 62
     7
 10
161.3332883364622
 20
62.115696081838678
 30
0.0
 11
171.78072804963571
 21
62.115696081838678
 31
0.0
  0
ARC
  5
5BE
  8
DRG
 62
     7
 10
156.18625891463009
 20
46.421288526219307
 30
0.0
 40
3.8611993223923942
 50
0.0
 51
161.4735686305323
  0
ARC
  5
5BF
  8
DRG
 62
     7
 10
155.35373214152469
 20
46.850626662257177
 30
0.0
 40
2.938857360854815
 50
164.25399710017811
 51
230.4135202949499
  0
LINE
  5
5C0
  8
DRG
 62
     7
 10
160.04745823702251
 20
46.421288526219307
 30
0.0
 11
160.04745823702251
 21
45.21828747592599
 31
0.0
  0
LINE
  5
5C1
  8
DRG
 62
     7
 10
153.28023066635379
 20
57.06060729124669
 30
0.0
 11
159.0922846938046
 21
57.06060729124669
 31
0.0
  0
LINE
  5
5C2
  8
DRG
 62
     7
 10
142.11987082690661
 20
102.0369718403326
 30
0.0
 11
153.2899770207527
 21
102.0369718403326
 31
0.0
  0
ARC
  5
5C3
  8
DRG
 62
     7
 10
138.05101171535759
 20
85.569427875032716
 30
0.0
 40
8.0
 50
90.0
 51
180.0
  0
ARC
  5
5C4
  8
DRG
 62
     7
 10
-7.66193824129624
 20
81.496816718755667
 30
0.0
 40
123.62323904739679
 50
356.01116722839038
 51
3.9888327716095779
  0
ARC
  5
5C5
  8
DRG
 62
     7
 10
138.3127044990861
 20
91.844139685506775
 30
0.0
 40
10.2528691067876
 50
83.7965056449153
 51
143.68693404466879
  0
LINE
  5
5C6
  8
DRG
 62
     7
 10
119.0096173095521
 20
102.0369718403326
 30
0.0
 11
130.05101171535759
 21
102.0369718403326
 31
0.0
  0
LINE
  5
5C7
  8
DRG
 62
     7
 10
130.05101171535759
 20
97.915857504065855
 30
0.0
 11
130.05101171535759
 21
102.0369718403326
 31
0.0
  0
LINE
  5
5C8
  8
DRG
 62
     7
 10
139.4206293992797
 20
102.0369718403326
 30
0.0
 11
139.4206293992797
 21
93.569427875032716
 31
0.0
  0
LINE
  5
5C9
  8
DRG
 62
     7
 10
139.4206293992797
 20
93.569427875032716
 30
0.0
 11
138.05101171535759
 21
93.569427875032716
 31
0.0
  0
LINE
  5
5CA
  8
DRG
 62
     7
 10
153.2899770207527
 20
82.583583780839604
 30
0.0
 11
160.9346181585602
 21
102.0369718403326
 31
0.0
  0
LINE
  5
5CB
  8
DRG
 62
     7
 10
176.9709164189357
 20
78.31140447718235
 30
0.0
 11
176.9709164189357
 21
86.855763084496857
 31
0.0
  0
LINE
  5
5CC
  8
DRG
 62
     7
 10
176.9709164189357
 20
78.31140447718235
 30
0.0
 11
165.4162645291251
 21
78.31140447718235
 31
0.0
  0
LINE
  5
5CD
  8
DRG
 62
     7
 10
160.9346181585602
 20
102.0369718403326
 30
0.0
 11
171.38205787173379
 21
102.0369718403326
 31
0.0
  0
LINE
  5
5CE
  8
DRG
 62
     7
 10
165.4162645291251
 20
86.855763084496857
 30
0.0
 11
171.38205787173379
 21
102.0369718403326
 31
0.0
  0
LINE
  5
5CF
  8
DRG
 62
     7
 10
176.9709164189357
 20
86.855763084496857
 30
0.0
 11
165.4162645291251
 21
86.855763084496857
 31
0.0
  0
ENDBLK
  5
5D1
  8
0
  0
BLOCK
  8
0
  2
ROTORK_GEARS_LOGO
 70
     0
 10
0.0
 20
0.0
 30
0.0
  3
ROTORK_GEARS_LOGO
  1

  0
INSERT
  5
5D3
  8
0
  2
LOGO
 10
16.592937132437999
 20
3.1720898939720419
 30
0.0
  0
ENDBLK
  5
5D5
  8
0
  0
BLOCK
  8
0
  2
*U4
 70
     1
 10
0.0
 20
0.0
 30
0.0
  3
*U4
  1

  0
SOLID
  5
62A
  8
DRG
  6
CONTINUOUS
 62
     7
 10
15.253275093427559
 20
3.825466506601944
 30
0.0
 11
18.100585347853119
 21
3.392610111620797
 31
0.0
 12
25.69916102541524
 22
3.392610111620797
 32
0.0
 13
25.69916102541524
 23
3.392610111620797
 33
0.0
210
0.0
220
0.0
230
1.0
  0
SOLID
  5
62B
  8
DRG
  6
CONTINUOUS
 62
     7
 10
29.070565856658138
 20
3.9491085570248599
 30
0.0
 11
15.253275093427559
 21
3.825466506601944
 31
0.0
 12
25.69916102541524
 22
3.392610111620797
 32
0.0
 13
25.69916102541524
 23
3.392610111620797
 33
0.0
210
0.0
220
0.0
230
1.0
  0
SOLID
  5
62C
  8
DRG
  6
CONTINUOUS
 62
     7
 10
12.628832942518519
 20
5.011570945580659
 30
0.0
 11
15.253275093427559
 21
3.825466506601944
 31
0.0
 12
29.070565856658138
 22
3.9491085570248599
 32
0.0
 13
29.070565856658138
 23
3.9491085570248599
 33
0.0
  0
SOLID
  5
62D
  8
DRG
  6
CONTINUOUS
 62
     7
 10
32.163123482277982
 20
5.4024317791903966
 30
0.0
 11
12.628832942518519
 21
5.011570945580659
 31
0.0
 12
29.070565856658138
 22
3.9491085570248599
 32
0.0
 13
29.070565856658138
 23
3.9491085570248599
 33
0.0
210
0.0
220
0.0
230
1.0
  0
SOLID
  5
62E
  8
DRG
  6
CONTINUOUS
 62
     7
 10
10.42249809221936
 20
6.8626859803606264
 30
0.0
 11
12.628832942518519
 21
5.011570945580659
 31
0.0
 12
32.163123482277982
 22
5.4024317791903966
 32
0.0
 13
32.163123482277982
 23
5.4024317791903966
 33
0.0
210
0.0
220
0.0
230
1.0
  0
SOLID
  5
62F
  8
DRG
  6
CONTINUOUS
 62
     7
 10
34.743211294903951
 20
7.6427906645040924
 30
0.0
 11
10.42249809221936
 21
6.8626859803606264
 31
0.0
 12
32.163123482277982
 22
5.4024317791903966
 32
0.0
 13
32.163123482277982
 23
5.4024317791903966
 33
0.0
210
0.0
220
0.0
230
1.0
  0
SOLID
  5
630
  8
DRG
  6
CONTINUOUS
 62
     7
 10
8.7984056310258474
 20
9.2411022645984033
 30
0.0
 11
10.42249809221936
 21
6.8626859803606264
 31
0.0
 12
34.743211294903951
 22
7.6427906645040924
 32
0.0
 13
34.743211294903951
 23
7.6427906645040924
 33
0.0
210
0.0
220
0.0
230
1.0
  0
SOLID
  5
631
  8
DRG
  6
CONTINUOUS
 62
     7
 10
23.40592258650463
 20
9.658646647821115
 30
0.0
 11
8.7984056310258474
 21
9.2411022645984033
 31
0.0
 12
34.743211294903951
 22
7.6427906645040924
 32
0.0
 13
34.743211294903951
 23
7.6427906645040924
 33
0.0
210
0.0
220
0.0
230
1.0
  0
SOLID
  5
632
  8
DRG
  6
CONTINUOUS
 62
     7
 10
21.928305576765752
 20
9.9525629453087276
 30
0.0
 11
8.7984056310258474
 21
9.2411022645984033
 31
0.0
 12
23.40592258650463
 22
9.658646647821115
 32
0.0
 13
23.40592258650463
 23
9.658646647821115
 33
0.0
210
0.0
220
0.0
230
1.0
  0
SOLID
  5
633
  8
DRG
  6
CONTINUOUS
 62
     7
 10
24.883539596243509
 20
9.9525629453087276
 30
0.0
 11
23.40592258650463
 21
9.658646647821115
 31
0.0
 12
34.743211294903951
 22
7.6427906645040924
 32
0.0
 13
34.743211294903951
 23
7.6427906645040924
 33
0.0
210
0.0
220
0.0
230
1.0
  0
SOLID
  5
634
  8
DRG
  6
CONTINUOUS
 62
     7
 10
36.615920447231836
 20
10.50094067572681
 30
0.0
 11
24.883539596243509
 21
9.9525629453087276
 31
0.0
 12
34.743211294903951
 22
7.6427906645040924
 32
0.0
 13
34.743211294903951
 23
7.6427906645040924
 33
0.0
210
0.0
220
0.0
230
1.0
  0
SOLID
  5
635
  8
DRG
  6
CONTINUOUS
 62
     7
 10
20.675642362128059
 20
10.78956574583694
 30
0.0
 11
8.7984056310258474
 21
9.2411022645984033
 31
0.0
 12
21.928305576765752
 22
9.9525629453087276
 32
0.0
 13
21.928305576765752
 23
9.9525629453087276
 33
0.0
210
0.0
220
0.0
230
1.0
  0
SOLID
  5
636
  8
DRG
  6
CONTINUOUS
 62
     7
 10
26.136202810881191
 20
10.78956574583694
 30
0.0
 11
24.883539596243509
 21
9.9525629453087276
 31
0.0
 12
36.615920447231836
 22
10.50094067572681
 32
0.0
 13
36.615920447231836
 23
10.50094067572681
 33
0.0
210
0.0
220
0.0
230
1.0
  0
SOLID
  5
637
  8
DRG
  6
CONTINUOUS
 62
     7
 10
7.8773760952256326
 20
11.969883116520499
 30
0.0
 11
8.7984056310258474
 21
9.2411022645984033
 31
0.0
 12
20.675642362128059
 22
10.78956574583694
 32
0.0
 13
20.675642362128059
 23
10.78956574583694
 33
0.0
210
0.0
220
0.0
230
1.0
  0
SOLID
  5
638
  8
DRG
  6
CONTINUOUS
 62
     7
 10
19.838639561599841
 20
12.042228960474629
 30
0.0
 11
7.8773760952256326
 21
11.969883116520499
 31
0.0
 12
20.675642362128059
 22
10.78956574583694
 32
0.0
 13
20.675642362128059
 23
10.78956574583694
 33
0.0
210
0.0
220
0.0
230
1.0
  0
SOLID
  5
639
  8
DRG
  6
CONTINUOUS
 62
     7
 10
26.973205611409409
 20
12.042228960474629
 30
0.0
 11
26.136202810881191
 21
10.78956574583694
 31
0.0
 12
36.615920447231836
 22
10.50094067572681
 32
0.0
 13
36.615920447231836
 23
10.50094067572681
 33
0.0
210
0.0
220
0.0
230
1.0
  0
SOLID
  5
63A
  8
DRG
  6
CONTINUOUS
 62
     7
 10
19.544723264112228
 20
13.51984597021351
 30
0.0
 11
7.8773760952256326
 21
11.969883116520499
 31
0.0
 12
19.838639561599841
 22
12.042228960474629
 32
0.0
 13
19.838639561599841
 23
12.042228960474629
 33
0.0
210
0.0
220
0.0
230
1.0
  0
SOLID
  5
63B
  8
DRG
  6
CONTINUOUS
 62
     7
 10
27.267121908897021
 20
13.51984597021351
 30
0.0
 11
26.973205611409409
 21
12.042228960474629
 31
0.0
 12
36.615920447231836
 22
10.50094067572681
 32
0.0
 13
36.615920447231836
 23
10.50094067572681
 33
0.0
210
0.0
220
0.0
230
1.0
  0
SOLID
  5
63C
  8
DRG
  6
CONTINUOUS
 62
     7
 10
37.639779947293839
 20
13.760967175618781
 30
0.0
 11
27.267121908897021
 21
13.51984597021351
 31
0.0
 12
36.615920447231836
 22
10.50094067572681
 32
0.0
 13
36.615920447231836
 23
10.50094067572681
 33
0.0
  0
SOLID
  5
63D
  8
DRG
  6
CONTINUOUS
 62
     7
 10
19.544723264112228
 20
13.51984597021351
 30
0.0
 11
19.544723264112239
 21
14.846027306936771
 31
0.0
 12
7.7279273094568479
 22
14.846027306936771
 32
0.0
 13
7.7279273094568479
 23
14.846027306936771
 33
0.0
210
0.0
220
0.0
230
1.0
  0
SOLID
  5
63E
  8
DRG
  6
CONTINUOUS
 62
     7
 10
7.7279273094568479
 20
14.846027306936771
 30
0.0
 11
7.8773760952256326
 21
11.969883116520499
 31
0.0
 12
19.544723264112228
 22
13.51984597021351
 32
0.0
 13
19.544723264112228
 23
13.51984597021351
 33
0.0
210
0.0
220
0.0
230
1.0
  0
SOLID
  5
63F
  8
DRG
  6
CONTINUOUS
 62
     7
 10
53.362653852858138
 20
16.270527409201652
 30
0.0
 11
56.468482394088369
 21
15.861637324670481
 31
0.0
 12
62.280536421539182
 22
15.861637324670481
 32
0.0
 13
62.280536421539182
 23
15.861637324670481
 33
0.0
210
0.0
220
0.0
230
1.0
  0
SOLID
  5
640
  8
DRG
  6
CONTINUOUS
 62
     7
 10
65.386364962769434
 20
16.270527409201659
 30
0.0
 11
53.362653852858138
 21
16.270527409201652
 31
0.0
 12
62.280536421539182
 22
15.861637324670481
 32
0.0
 13
62.280536421539182
 23
15.861637324670481
 33
0.0
210
0.0
220
0.0
230
1.0
  0
SOLID
  5
641
  8
DRG
  6
CONTINUOUS
 62
     7
 10
162.1981132350349
 20
16.270527409201659
 30
0.0
 11
153.28023066635379
 21
15.861637324670481
 31
0.0
 12
159.0922846938046
 22
15.861637324670481
 32
0.0
 13
159.0922846938046
 23
15.861637324670481
 33
0.0
210
0.0
220
0.0
230
1.0
  0
SOLID
  5
642
  8
DRG
  6
CONTINUOUS
 62
     7
 10
150.17440212512361
 20
16.270527409201659
 30
0.0
 11
153.28023066635379
 21
15.861637324670481
 31
0.0
 12
162.1981132350349
 22
16.270527409201659
 32
0.0
 13
162.1981132350349
 23
16.270527409201659
 33
0.0
210
0.0
220
0.0
230
1.0
  0
SOLID
  5
643
  8
DRG
  6
CONTINUOUS
 62
     7
 10
50.468482394088412
 20
17.469332479257179
 30
0.0
 11
53.362653852858138
 21
16.270527409201652
 31
0.0
 12
65.386364962769434
 22
16.270527409201659
 32
0.0
 13
65.386364962769434
 23
16.270527409201659
 33
0.0
210
0.0
220
0.0
230
1.0
  0
SOLID
  5
644
  8
DRG
  6
CONTINUOUS
 62
     7
 10
165.0922846938046
 20
17.469332479257218
 30
0.0
 11
150.17440212512361
 21
16.270527409201659
 31
0.0
 12
162.1981132350349
 22
16.270527409201659
 32
0.0
 13
162.1981132350349
 23
16.270527409201659
 33
0.0
210
0.0
220
0.0
230
1.0
  0
SOLID
  5
645
  8
DRG
  6
CONTINUOUS
 62
     7
 10
68.280536421539182
 20
17.469332479257218
 30
0.0
 11
50.468482394088412
 21
17.469332479257179
 31
0.0
 12
65.386364962769434
 22
16.270527409201659
 32
0.0
 13
65.386364962769434
 23
16.270527409201659
 33
0.0
210
0.0
220
0.0
230
1.0
  0
SOLID
  5
646
  8
DRG
  6
CONTINUOUS
 62
     7
 10
147.28023066635379
 20
17.469332479257218
 30
0.0
 11
150.17440212512361
 21
16.270527409201659
 31
0.0
 12
165.0922846938046
 22
17.469332479257218
 32
0.0
 13
165.0922846938046
 23
17.469332479257218
 33
0.0
210
0.0
220
0.0
230
1.0
  0
SOLID
  5
647
  8
DRG
  6
CONTINUOUS
 62
     7
 10
87.597152072902304
 20
17.71482672944132
 30
0.0
 11
90.043755964704772
 21
17.09444119032354
 31
0.0
 12
92.567432060215296
 22
17.13695925093587
 32
0.0
 13
92.567432060215296
 23
17.13695925093587
 33
0.0
210
0.0
220
0.0
230
1.0
  0
SOLID
  5
648
  8
DRG
  6
CONTINUOUS
 62
     7
 10
94.991749269489972
 20
17.839408458597301
 30
0.0
 11
87.597152072902304
 21
17.71482672944132
 31
0.0
 12
92.567432060215296
 22
17.13695925093587
 32
0.0
 13
92.567432060215296
 23
17.13695925093587
 33
0.0
210
0.0
220
0.0
230
1.0
  0
SOLID
  5
649
  8
DRG
  6
CONTINUOUS
 62
     7
 10
85.398663329684837
 20
18.95474449545469
 30
0.0
 11
87.597152072902304
 21
17.71482672944132
 31
0.0
 12
94.991749269489972
 22
17.839408458597301
 32
0.0
 13
94.991749269489972
 23
17.839408458597301
 33
0.0
210
0.0
220
0.0
230
1.0
  0
SOLID
  5
64A
  8
DRG
  6
CONTINUOUS
 62
     7
 10
97.893803852853168
 20
19.013301104321851
 30
0.0
 11
85.398663329684837
 21
18.95474449545469
 31
0.0
 12
94.991749269489972
 22
17.839408458597301
 32
0.0
 13
94.991749269489972
 23
17.839408458597301
 33
0.0
210
0.0
220
0.0
230
1.0
  0
SOLID
  5
64B
  8
DRG
  6
CONTINUOUS
 62
     7
 10
47.983201019849858
 20
19.37635595043184
 30
0.0
 11
50.468482394088412
 21
17.469332479257179
 31
0.0
 12
68.280536421539182
 22
17.469332479257218
 32
0.0
 13
68.280536421539182
 23
17.469332479257218
 33
0.0
  0
SOLID
  5
64C
  8
DRG
  6
CONTINUOUS
 62
     7
 10
70.76581779577775
 20
19.376355950431911
 30
0.0
 11
47.983201019849858
 21
19.37635595043184
 31
0.0
 12
68.280536421539182
 22
17.469332479257218
 32
0.0
 13
68.280536421539182
 23
17.469332479257218
 33
0.0
210
0.0
220
0.0
230
1.0
  0
SOLID
  5
64D
  8
DRG
  6
CONTINUOUS
 62
     7
 10
167.57756606804321
 20
19.376355950431911
 30
0.0
 11
147.28023066635379
 21
17.469332479257218
 31
0.0
 12
165.0922846938046
 22
17.469332479257218
 32
0.0
 13
165.0922846938046
 23
17.469332479257218
 33
0.0
210
0.0
220
0.0
230
1.0
  0
SOLID
  5
64E
  8
DRG
  6
CONTINUOUS
 62
     7
 10
144.79494929211521
 20
19.376355950431911
 30
0.0
 11
147.28023066635379
 21
17.469332479257218
 31
0.0
 12
167.57756606804321
 22
19.376355950431911
 32
0.0
 13
167.57756606804321
 23
19.376355950431911
 33
0.0
210
0.0
220
0.0
230
1.0
  0
SOLID
  5
64F
  8
DRG
  6
CONTINUOUS
 62
     7
 10
15.68821754148445
 20
19.434178489748358
 30
0.0
 11
18.58303542025671
 21
18.945146626805109
 31
0.0
 12
20.932030560438331
 22
19.29078972041172
 32
0.0
 13
20.932030560438331
 23
19.29078972041172
 33
0.0
210
0.0
220
0.0
230
1.0
  0
SOLID
  5
650
  8
DRG
  6
CONTINUOUS
 62
     7
 10
102.3181837587821
 20
19.484710699009419
 30
0.0
 11
102.6710305977499
 21
17.89352120355198
 31
0.0
 12
111.8021775281067
 22
17.893521203552009
 32
0.0
 13
111.8021775281067
 23
17.893521203552009
 33
0.0
210
0.0
220
0.0
230
1.0
  0
SOLID
  5
651
  8
DRG
  6
CONTINUOUS
 62
     7
 10
23.111648298363178
 20
20.232338356053141
 30
0.0
 11
15.68821754148445
 21
19.434178489748358
 31
0.0
 12
20.932030560438331
 22
19.29078972041172
 32
0.0
 13
20.932030560438331
 23
19.29078972041172
 33
0.0
210
0.0
220
0.0
230
1.0
  0
SOLID
  5
652
  8
DRG
  6
CONTINUOUS
 62
     7
 10
12.996201983781489
 20
20.605577205523002
 30
0.0
 11
15.68821754148445
 21
19.434178489748358
 31
0.0
 12
23.111648298363178
 22
20.232338356053141
 32
0.0
 13
23.111648298363178
 23
20.232338356053141
 33
0.0
210
0.0
220
0.0
230
1.0
  0
SOLID
  5
653
  8
DRG
  6
CONTINUOUS
 62
     7
 10
111.2870334115631
 20
20.69438210209054
 30
0.0
 11
102.3181837587821
 21
19.484710699009419
 31
0.0
 12
111.8021775281067
 22
17.893521203552009
 32
0.0
 13
111.8021775281067
 23
17.893521203552009
 33
0.0
210
0.0
220
0.0
230
1.0
  0
SOLID
  5
654
  8
DRG
  6
CONTINUOUS
 62
     7
 10
100.3384587128772
 20
20.968705759084241
 30
0.0
 11
85.398663329684837
 21
18.95474449545469
 31
0.0
 12
97.893803852853168
 22
19.013301104321851
 32
0.0
 13
97.893803852853168
 23
19.013301104321851
 33
0.0
210
0.0
220
0.0
230
1.0
  0
SOLID
  5
655
  8
DRG
  6
CONTINUOUS
 62
     7
 10
102.1211660476033
 20
21.102600968374279
 30
0.0
 11
102.3181837587821
 21
19.484710699009419
 31
0.0
 12
111.2870334115631
 22
20.69438210209054
 32
0.0
 13
111.2870334115631
 23
20.69438210209054
 33
0.0
210
0.0
220
0.0
230
1.0
  0
SOLID
  5
656
  8
DRG
  6
CONTINUOUS
 62
     7
 10
83.257964350277348
 20
21.51176514689509
 30
0.0
 11
85.398663329684837
 21
18.95474449545469
 31
0.0
 12
100.3384587128772
 22
20.968705759084241
 32
0.0
 13
100.3384587128772
 23
20.968705759084241
 33
0.0
210
0.0
220
0.0
230
1.0
  0
SOLID
  5
657
  8
DRG
  6
CONTINUOUS
 62
     7
 10
24.97349704072932
 20
21.705690512635009
 30
0.0
 11
12.996201983781489
 21
20.605577205523002
 31
0.0
 12
23.111648298363178
 22
20.232338356053141
 32
0.0
 13
23.111648298363178
 23
20.232338356053141
 33
0.0
210
0.0
220
0.0
230
1.0
  0
SOLID
  5
658
  8
DRG
  6
CONTINUOUS
 62
     7
 10
46.076177548675162
 20
21.861637324670369
 30
0.0
 11
47.983201019849858
 21
19.37635595043184
 31
0.0
 12
70.76581779577775
 22
19.376355950431911
 32
0.0
 13
70.76581779577775
 23
19.376355950431911
 33
0.0
210
0.0
220
0.0
230
1.0
  0
SOLID
  5
659
  8
DRG
  6
CONTINUOUS
 62
     7
 10
169.48458953921789
 20
21.861637324670468
 30
0.0
 11
144.79494929211521
 21
19.376355950431911
 31
0.0
 12
167.57756606804321
 22
19.376355950431911
 32
0.0
 13
167.57756606804321
 23
19.376355950431911
 33
0.0
  0
SOLID
  5
65A
  8
DRG
  6
CONTINUOUS
 62
     7
 10
72.672841266952446
 20
21.861637324670468
 30
0.0
 11
46.076177548675162
 21
21.861637324670369
 31
0.0
 12
70.76581779577775
 22
19.376355950431911
 32
0.0
 13
70.76581779577775
 23
19.376355950431911
 33
0.0
  0
SOLID
  5
65B
  8
DRG
  6
CONTINUOUS
 62
     7
 10
142.88792582094061
 20
21.861637324670479
 30
0.0
 11
144.79494929211521
 21
19.376355950431911
 31
0.0
 12
169.48458953921789
 22
21.861637324670468
 32
0.0
 13
169.48458953921789
 23
21.861637324670468
 33
0.0
  0
SOLID
  5
65C
  8
DRG
  6
CONTINUOUS
 62
     7
 10
10.665263297999569
 20
22.390471476161601
 30
0.0
 11
12.996201983781489
 21
20.605577205523002
 31
0.0
 12
24.97349704072932
 22
21.705690512635009
 32
0.0
 13
24.97349704072932
 23
21.705690512635009
 33
0.0
210
0.0
220
0.0
230
1.0
  0
SOLID
  5
65D
  8
DRG
  6
CONTINUOUS
 62
     7
 10
111.2523129779601
 20
23.54201089202471
 30
0.0
 11
102.1211660476033
 21
21.102600968374279
 31
0.0
 12
111.2870334115631
 22
20.69438210209054
 32
0.0
 13
111.2870334115631
 23
20.69438210209054
 33
0.0
210
0.0
220
0.0
230
1.0
  0
SOLID
  5
65E
  8
DRG
  6
CONTINUOUS
 62
     7
 10
102.1211660476033
 20
23.542010892025001
 30
0.0
 11
83.257964350277348
 21
21.51176514689509
 31
0.0
 12
100.3384587128772
 22
20.968705759084241
 32
0.0
 13
100.3384587128772
 23
20.968705759084241
 33
0.0
210
0.0
220
0.0
230
1.0
  0
SOLID
  5
65F
  8
DRG
  6
CONTINUOUS
 62
     7
 10
102.1211660476033
 20
23.542010892025001
 30
0.0
 11
102.1211660476033
 21
21.102600968374279
 31
0.0
 12
111.2523129779601
 22
23.54201089202471
 32
0.0
 13
111.2523129779601
 23
23.54201089202471
 33
0.0
210
0.0
220
0.0
230
1.0
  0
SOLID
  5
660
  8
DRG
  6
CONTINUOUS
 62
     7
 10
26.390819376565261
 20
23.61053820027184
 30
0.0
 11
10.665263297999569
 21
22.390471476161601
 31
0.0
 12
24.97349704072932
 22
21.705690512635009
 32
0.0
 13
24.97349704072932
 23
21.705690512635009
 33
0.0
210
0.0
220
0.0
230
1.0
  0
SOLID
  5
661
  8
DRG
  6
CONTINUOUS
 62
     7
 10
95.863486513980718
 20
23.758749615986972
 30
0.0
 11
102.1211660476033
 21
23.542010892025001
 31
0.0
 12
111.2523129779601
 22
23.54201089202471
 32
0.0
 13
111.2523129779601
 23
23.54201089202471
 33
0.0
210
0.0
220
0.0
230
1.0
  0
SOLID
  5
662
  8
DRG
  6
CONTINUOUS
 62
     7
 10
95.863486513980718
 20
23.758749615986972
 30
0.0
 11
83.257964350277348
 21
21.51176514689509
 31
0.0
 12
102.1211660476033
 22
23.542010892025001
 32
0.0
 13
102.1211660476033
 23
23.542010892025001
 33
0.0
210
0.0
220
0.0
230
1.0
  0
SOLID
  5
663
  8
DRG
  6
CONTINUOUS
 62
     7
 10
156.18625891463009
 20
23.758749615986972
 30
0.0
 11
142.88792582094061
 21
21.861637324670479
 31
0.0
 12
169.48458953921789
 22
21.861637324670468
 32
0.0
 13
169.48458953921789
 23
21.861637324670468
 33
0.0
210
0.0
220
0.0
230
1.0
  0
SOLID
  5
664
  8
DRG
  6
CONTINUOUS
 62
     7
 10
59.374510642364612
 20
23.758749615986979
 30
0.0
 11
46.076177548675162
 21
21.861637324670369
 31
0.0
 12
72.672841266952446
 22
21.861637324670468
 32
0.0
 13
72.672841266952446
 23
21.861637324670468
 33
0.0
210
0.0
220
0.0
230
1.0
  0
SOLID
  5
665
  8
DRG
  6
CONTINUOUS
 62
     7
 10
154.70864190489121
 20
24.052665913474581
 30
0.0
 11
142.88792582094061
 21
21.861637324670479
 31
0.0
 12
156.18625891463009
 22
23.758749615986972
 32
0.0
 13
156.18625891463009
 23
23.758749615986972
 33
0.0
210
0.0
220
0.0
230
1.0
  0
SOLID
  5
666
  8
DRG
  6
CONTINUOUS
 62
     7
 10
157.66387592436891
 20
24.052665913474581
 30
0.0
 11
156.18625891463009
 21
23.758749615986972
 31
0.0
 12
169.48458953921789
 22
21.861637324670468
 32
0.0
 13
169.48458953921789
 23
21.861637324670468
 33
0.0
  0
SOLID
  5
667
  8
DRG
  6
CONTINUOUS
 62
     7
 10
57.896893632625734
 20
24.052665913474591
 30
0.0
 11
46.076177548675162
 21
21.861637324670369
 31
0.0
 12
59.374510642364612
 22
23.758749615986979
 32
0.0
 13
59.374510642364612
 23
23.758749615986979
 33
0.0
210
0.0
220
0.0
230
1.0
  0
SOLID
  5
668
  8
DRG
  6
CONTINUOUS
 62
     7
 10
60.852127652103491
 20
24.052665913474591
 30
0.0
 11
59.374510642364612
 21
23.758749615986979
 31
0.0
 12
72.672841266952446
 22
21.861637324670468
 32
0.0
 13
72.672841266952446
 23
21.861637324670468
 33
0.0
210
0.0
220
0.0
230
1.0
  0
SOLID
  5
669
  8
DRG
  6
CONTINUOUS
 62
     7
 10
94.385869504241896
 20
24.05266591347463
 30
0.0
 11
83.257964350277348
 21
21.51176514689509
 31
0.0
 12
95.863486513980718
 22
23.758749615986972
 32
0.0
 13
95.863486513980718
 23
23.758749615986972
 33
0.0
210
0.0
220
0.0
230
1.0
  0
SOLID
  5
66A
  8
DRG
  6
CONTINUOUS
 62
     7
 10
97.67821582604607
 20
24.148284466582719
 30
0.0
 11
95.863486513980718
 21
23.758749615986972
 31
0.0
 12
111.2523129779601
 22
23.54201089202471
 32
0.0
 13
111.2523129779601
 23
23.54201089202471
 33
0.0
210
0.0
220
0.0
230
1.0
  0
SOLID
  5
66B
  8
DRG
  6
CONTINUOUS
 62
     7
 10
81.903631731023069
 20
24.55917878615589
 30
0.0
 11
83.257964350277348
 21
21.51176514689509
 31
0.0
 12
94.385869504241896
 22
24.05266591347463
 32
0.0
 13
94.385869504241896
 23
24.05266591347463
 33
0.0
  0
SOLID
  5
66C
  8
DRG
  6
CONTINUOUS
 62
     7
 10
8.8324468561460741
 20
24.6839201031652
 30
0.0
 11
10.665263297999569
 21
22.390471476161601
 31
0.0
 12
26.390819376565261
 22
23.61053820027184
 32
0.0
 13
26.390819376565261
 23
23.61053820027184
 33
0.0
210
0.0
220
0.0
230
1.0
  0
SOLID
  5
66D
  8
DRG
  6
CONTINUOUS
 62
     7
 10
44.877372478619591
 20
24.755808783440081
 30
0.0
 11
46.076177548675162
 21
21.861637324670369
 31
0.0
 12
57.896893632625734
 22
24.052665913474591
 32
0.0
 13
57.896893632625734
 23
24.052665913474591
 33
0.0
210
0.0
220
0.0
230
1.0
  0
SOLID
  5
66E
  8
DRG
  6
CONTINUOUS
 62
     7
 10
170.68339460927351
 20
24.75580878344023
 30
0.0
 11
157.66387592436891
 21
24.052665913474581
 31
0.0
 12
169.48458953921789
 22
21.861637324670468
 32
0.0
 13
169.48458953921789
 23
21.861637324670468
 33
0.0
210
0.0
220
0.0
230
1.0
  0
SOLID
  5
66F
  8
DRG
  6
CONTINUOUS
 62
     7
 10
73.871646337008002
 20
24.75580878344023
 30
0.0
 11
60.852127652103491
 21
24.052665913474591
 31
0.0
 12
72.672841266952446
 22
21.861637324670468
 32
0.0
 13
72.672841266952446
 23
21.861637324670468
 33
0.0
210
0.0
220
0.0
230
1.0
  0
SOLID
  5
670
  8
DRG
  6
CONTINUOUS
 62
     7
 10
141.689120750885
 20
24.75580878344023
 30
0.0
 11
142.88792582094061
 21
21.861637324670479
 31
0.0
 12
154.70864190489121
 22
24.052665913474581
 32
0.0
 13
154.70864190489121
 23
24.052665913474581
 33
0.0
210
0.0
220
0.0
230
1.0
  0
SOLID
  5
671
  8
DRG
  6
CONTINUOUS
 62
     7
 10
153.45597869025349
 20
24.889668714002799
 30
0.0
 11
141.689120750885
 21
24.75580878344023
 31
0.0
 12
154.70864190489121
 22
24.052665913474581
 32
0.0
 13
154.70864190489121
 23
24.052665913474581
 33
0.0
210
0.0
220
0.0
230
1.0
  0
SOLID
  5
672
  8
DRG
  6
CONTINUOUS
 62
     7
 10
158.9165391390066
 20
24.889668714002799
 30
0.0
 11
157.66387592436891
 21
24.052665913474581
 31
0.0
 12
170.68339460927351
 22
24.75580878344023
 32
0.0
 13
170.68339460927351
 23
24.75580878344023
 33
0.0
210
0.0
220
0.0
230
1.0
  0
SOLID
  5
673
  8
DRG
  6
CONTINUOUS
 62
     7
 10
56.644230417988048
 20
24.889668714002809
 30
0.0
 11
44.877372478619591
 21
24.755808783440081
 31
0.0
 12
57.896893632625734
 22
24.052665913474591
 32
0.0
 13
57.896893632625734
 23
24.052665913474591
 33
0.0
210
0.0
220
0.0
230
1.0
  0
SOLID
  5
674
  8
DRG
  6
CONTINUOUS
 62
     7
 10
62.104790866741169
 20
24.889668714002809
 30
0.0
 11
60.852127652103491
 21
24.052665913474591
 31
0.0
 12
73.871646337008002
 22
24.75580878344023
 32
0.0
 13
73.871646337008002
 23
24.75580878344023
 33
0.0
210
0.0
220
0.0
230
1.0
  0
SOLID
  5
675
  8
DRG
  6
CONTINUOUS
 62
     7
 10
93.13320628960426
 20
24.889668714002859
 30
0.0
 11
81.903631731023069
 21
24.55917878615589
 31
0.0
 12
94.385869504241896
 22
24.05266591347463
 32
0.0
 13
94.385869504241896
 23
24.05266591347463
 33
0.0
210
0.0
220
0.0
230
1.0
  0
SOLID
  5
676
  8
DRG
  6
CONTINUOUS
 62
     7
 10
99.286329246363479
 20
25.075080616387432
 30
0.0
 11
97.67821582604607
 21
24.148284466582719
 31
0.0
 12
111.2523129779601
 22
23.54201089202471
 32
0.0
 13
111.2523129779601
 23
23.54201089202471
 33
0.0
210
0.0
220
0.0
230
1.0
  0
SOLID
  5
677
  8
DRG
  6
CONTINUOUS
 62
     7
 10
22.683854862926161
 20
25.455509253088579
 30
0.0
 11
8.8324468561460741
 21
24.6839201031652
 31
0.0
 12
26.390819376565261
 22
23.61053820027184
 32
0.0
 13
26.390819376565261
 23
23.61053820027184
 33
0.0
210
0.0
220
0.0
230
1.0
  0
SOLID
  5
678
  8
DRG
  6
CONTINUOUS
 62
     7
 10
20.670542050473411
 20
25.799933828790859
 30
0.0
 11
8.8324468561460741
 21
24.6839201031652
 31
0.0
 12
22.683854862926161
 22
25.455509253088579
 32
0.0
 13
22.683854862926161
 23
25.455509253088579
 33
0.0
210
0.0
220
0.0
230
1.0
  0
SOLID
  5
679
  8
DRG
  6
CONTINUOUS
 62
     7
 10
27.267121908897021
 20
25.817196576320061
 30
0.0
 11
22.683854862926161
 21
25.455509253088579
 31
0.0
 12
26.390819376565261
 22
23.61053820027184
 32
0.0
 13
26.390819376565261
 23
23.61053820027184
 33
0.0
210
0.0
220
0.0
230
1.0
  0
SOLID
  5
67A
  8
DRG
  6
CONTINUOUS
 62
     7
 10
27.267121908897021
 20
25.817196576320061
 30
0.0
 11
27.267121908897021
 21
13.51984597021351
 31
0.0
 12
37.639779947293839
 22
13.760967175618781
 32
0.0
 13
37.639779947293839
 23
13.760967175618781
 33
0.0
  0
SOLID
  5
67B
  8
DRG
  6
CONTINUOUS
 62
     7
 10
152.61897588972531
 20
26.14233192864048
 30
0.0
 11
141.689120750885
 21
24.75580878344023
 31
0.0
 12
153.45597869025349
 22
24.889668714002799
 32
0.0
 13
153.45597869025349
 23
24.889668714002799
 33
0.0
  0
SOLID
  5
67C
  8
DRG
  6
CONTINUOUS
 62
     7
 10
159.7535419395349
 20
26.14233192864048
 30
0.0
 11
158.9165391390066
 21
24.889668714002799
 31
0.0
 12
170.68339460927351
 22
24.75580878344023
 32
0.0
 13
170.68339460927351
 23
24.75580878344023
 33
0.0
  0
SOLID
  5
67D
  8
DRG
  6
CONTINUOUS
 62
     7
 10
55.80722761745983
 20
26.142331928640491
 30
0.0
 11
44.877372478619591
 21
24.755808783440081
 31
0.0
 12
56.644230417988048
 22
24.889668714002809
 32
0.0
 13
56.644230417988048
 23
24.889668714002809
 33
0.0
210
0.0
220
0.0
230
1.0
  0
SOLID
  5
67E
  8
DRG
  6
CONTINUOUS
 62
     7
 10
62.941793667269401
 20
26.142331928640491
 30
0.0
 11
62.104790866741169
 21
24.889668714002809
 31
0.0
 12
73.871646337008002
 22
24.75580878344023
 32
0.0
 13
73.871646337008002
 23
24.75580878344023
 33
0.0
210
0.0
220
0.0
230
1.0
  0
SOLID
  5
67F
  8
DRG
  6
CONTINUOUS
 62
     7
 10
92.296203489076092
 20
26.14233192864052
 30
0.0
 11
81.903631731023069
 21
24.55917878615589
 31
0.0
 12
93.13320628960426
 22
24.889668714002859
 32
0.0
 13
93.13320628960426
 23
24.889668714002859
 33
0.0
210
0.0
220
0.0
230
1.0
  0
SOLID
  5
680
  8
DRG
  6
CONTINUOUS
 62
     7
 10
24.679246464695101
 20
26.372355404399901
 30
0.0
 11
22.683854862926161
 21
25.455509253088579
 31
0.0
 12
27.267121908897021
 22
25.817196576320061
 32
0.0
 13
27.267121908897021
 23
25.817196576320061
 33
0.0
210
0.0
220
0.0
230
1.0
  0
SOLID
  5
681
  8
DRG
  6
CONTINUOUS
 62
     7
 10
100.5331576485324
 20
26.449998363542679
 30
0.0
 11
99.286329246363479
 21
25.075080616387432
 31
0.0
 12
111.2523129779601
 22
23.54201089202471
 32
0.0
 13
111.2523129779601
 23
23.54201089202471
 33
0.0
  0
SOLID
  5
682
  8
DRG
  6
CONTINUOUS
 62
     7
 10
18.936680407078839
 20
26.87964701788286
 30
0.0
 11
8.8324468561460741
 21
24.6839201031652
 31
0.0
 12
20.670542050473411
 22
25.799933828790859
 32
0.0
 13
20.670542050473411
 23
25.799933828790859
 33
0.0
210
0.0
220
0.0
230
1.0
  0
SOLID
  5
683
  8
DRG
  6
CONTINUOUS
 62
     7
 10
7.6055113962037586
 20
27.351081907662518
 30
0.0
 11
8.8324468561460741
 21
24.6839201031652
 31
0.0
 12
18.936680407078839
 22
26.87964701788286
 32
0.0
 13
18.936680407078839
 23
26.87964701788286
 33
0.0
210
0.0
220
0.0
230
1.0
  0
SOLID
  5
684
  8
DRG
  6
CONTINUOUS
 62
     7
 10
152.32505959223769
 20
27.619948938379359
 30
0.0
 11
141.689120750885
 21
24.75580878344023
 31
0.0
 12
152.61897588972531
 22
26.14233192864048
 32
0.0
 13
152.61897588972531
 23
26.14233192864048
 33
0.0
210
0.0
220
0.0
230
1.0
  0
SOLID
  5
685
  8
DRG
  6
CONTINUOUS
 62
     7
 10
92.002287191588479
 20
27.619948938379359
 30
0.0
 11
81.903631731023069
 21
24.55917878615589
 31
0.0
 12
92.296203489076092
 22
26.14233192864052
 32
0.0
 13
92.296203489076092
 23
26.14233192864052
 33
0.0
210
0.0
220
0.0
230
1.0
  0
SOLID
  5
686
  8
DRG
  6
CONTINUOUS
 62
     7
 10
160.04745823702251
 20
27.619948938379359
 30
0.0
 11
159.7535419395349
 21
26.14233192864048
 31
0.0
 12
170.68339460927351
 22
24.75580878344023
 32
0.0
 13
170.68339460927351
 23
24.75580878344023
 33
0.0
210
0.0
220
0.0
230
1.0
  0
SOLID
  5
687
  8
DRG
  6
CONTINUOUS
 62
     7
 10
55.513311319972217
 20
27.61994893837937
 30
0.0
 11
44.877372478619591
 21
24.755808783440081
 31
0.0
 12
55.80722761745983
 22
26.142331928640491
 32
0.0
 13
55.80722761745983
 23
26.142331928640491
 33
0.0
210
0.0
220
0.0
230
1.0
  0
SOLID
  5
688
  8
DRG
  6
CONTINUOUS
 62
     7
 10
63.235709964757007
 20
27.61994893837937
 30
0.0
 11
62.941793667269401
 21
26.142331928640491
 31
0.0
 12
73.871646337008002
 22
24.75580878344023
 32
0.0
 13
73.871646337008002
 23
24.75580878344023
 33
0.0
210
0.0
220
0.0
230
1.0
  0
SOLID
  5
689
  8
DRG
  6
CONTINUOUS
 62
     7
 10
44.468482394088362
 20
27.861637324670291
 30
0.0
 11
44.877372478619591
 21
24.755808783440081
 31
0.0
 12
55.513311319972217
 22
27.61994893837937
 32
0.0
 13
55.513311319972217
 23
27.61994893837937
 33
0.0
210
0.0
220
0.0
230
1.0
  0
SOLID
  5
68A
  8
DRG
  6
CONTINUOUS
 62
     7
 10
171.0922846938046
 20
27.861637324670479
 30
0.0
 11
160.04745823702251
 21
27.619948938379359
 31
0.0
 12
170.68339460927351
 22
24.75580878344023
 32
0.0
 13
170.68339460927351
 23
24.75580878344023
 33
0.0
210
0.0
220
0.0
230
1.0
  0
SOLID
  5
68B
  8
DRG
  6
CONTINUOUS
 62
     7
 10
74.280536421539182
 20
27.861637324670479
 30
0.0
 11
63.235709964757007
 21
27.61994893837937
 31
0.0
 12
73.871646337008002
 22
24.75580878344023
 32
0.0
 13
73.871646337008002
 23
24.75580878344023
 33
0.0
210
0.0
220
0.0
230
1.0
  0
SOLID
  5
68C
  8
DRG
  6
CONTINUOUS
 62
     7
 10
81.440258950509346
 20
27.861637324670479
 30
0.0
 11
81.903631731023069
 21
24.55917878615589
 31
0.0
 12
92.002287191588479
 22
27.619948938379359
 32
0.0
 13
92.002287191588479
 23
27.619948938379359
 33
0.0
210
0.0
220
0.0
230
1.0
  0
SOLID
  5
68D
  8
DRG
  6
CONTINUOUS
 62
     7
 10
141.28023066635379
 20
27.861637324670479
 30
0.0
 11
141.689120750885
 21
24.75580878344023
 31
0.0
 12
152.32505959223769
 22
27.619948938379359
 32
0.0
 13
152.32505959223769
 23
27.619948938379359
 33
0.0
210
0.0
220
0.0
230
1.0
  0
SOLID
  5
68E
  8
DRG
  6
CONTINUOUS
 62
     7
 10
26.241246459003619
 20
27.915841888747771
 30
0.0
 11
24.679246464695101
 21
26.372355404399901
 31
0.0
 12
27.267121908897021
 22
25.817196576320061
 32
0.0
 13
27.267121908897021
 23
25.817196576320061
 33
0.0
210
0.0
220
0.0
230
1.0
  0
SOLID
  5
68F
  8
DRG
  6
CONTINUOUS
 62
     7
 10
26.241246459003619
 20
27.915841888747771
 30
0.0
 11
27.267121908897021
 21
25.817196576320061
 31
0.0
 12
37.639779947293839
 22
13.760967175618781
 32
0.0
 13
37.639779947293839
 23
13.760967175618781
 33
0.0
210
0.0
220
0.0
230
1.0
  0
SOLID
  5
690
  8
DRG
  6
CONTINUOUS
 62
     7
 10
101.2987804739044
 20
28.140797454259019
 30
0.0
 11
100.5331576485324
 21
26.449998363542679
 31
0.0
 12
111.2523129779601
 22
23.54201089202471
 32
0.0
 13
111.2523129779601
 23
23.54201089202471
 33
0.0
210
0.0
220
0.0
230
1.0
  0
SOLID
  5
691
  8
DRG
  6
CONTINUOUS
 62
     7
 10
17.73941253697517
 20
28.534520552734239
 30
0.0
 11
7.6055113962037586
 21
27.351081907662518
 31
0.0
 12
18.936680407078839
 22
26.87964701788286
 32
0.0
 13
18.936680407078839
 23
26.87964701788286
 33
0.0
210
0.0
220
0.0
230
1.0
  0
SOLID
  5
692
  8
DRG
  6
CONTINUOUS
 62
     7
 10
160.04745823702251
 20
29.300230626583549
 30
0.0
 11
160.04745823702251
 21
27.619948938379359
 31
0.0
 12
171.0922846938046
 22
27.861637324670479
 32
0.0
 13
171.0922846938046
 23
27.861637324670479
 33
0.0
210
0.0
220
0.0
230
1.0
  0
SOLID
  5
693
  8
DRG
  6
CONTINUOUS
 62
     7
 10
27.181817847379151
 20
29.900160404751109
 30
0.0
 11
26.241246459003619
 21
27.915841888747771
 31
0.0
 12
37.639779947293839
 22
13.760967175618781
 32
0.0
 13
37.639779947293839
 23
13.760967175618781
 33
0.0
210
0.0
220
0.0
230
1.0
  0
SOLID
  5
694
  8
DRG
  6
CONTINUOUS
 62
     7
 10
152.32505959223769
 20
29.959298931438969
 30
0.0
 11
141.28023066635379
 21
27.861637324670479
 31
0.0
 12
152.32505959223769
 22
27.619948938379359
 32
0.0
 13
152.32505959223769
 23
27.619948938379359
 33
0.0
210
0.0
220
0.0
230
1.0
  0
SOLID
  5
695
  8
DRG
  6
CONTINUOUS
 62
     7
 10
141.28023066635379
 20
29.95929893143898
 30
0.0
 11
141.28023066635379
 21
27.861637324670479
 31
0.0
 12
152.32505959223769
 22
29.959298931438969
 32
0.0
 13
152.32505959223769
 23
29.959298931438969
 33
0.0
210
0.0
220
0.0
230
1.0
  0
SOLID
  5
696
  8
DRG
  6
CONTINUOUS
 62
     7
 10
171.0922846938046
 20
29.95929893143904
 30
0.0
 11
160.04745823702251
 21
29.300230626583549
 31
0.0
 12
171.0922846938046
 22
27.861637324670479
 32
0.0
 13
171.0922846938046
 23
27.861637324670479
 33
0.0
210
0.0
220
0.0
230
1.0
  0
SOLID
  5
697
  8
DRG
  6
CONTINUOUS
 62
     7
 10
101.5095597489034
 20
29.984856014372749
 30
0.0
 11
101.2987804739044
 21
28.140797454259019
 31
0.0
 12
111.2523129779601
 22
23.54201089202471
 32
0.0
 13
111.2523129779601
 23
23.54201089202471
 33
0.0
210
0.0
220
0.0
230
1.0
  0
SOLID
  5
698
  8
DRG
  6
CONTINUOUS
 62
     7
 10
7.0565934473582743
 20
30.23514359210488
 30
0.0
 11
7.6055113962037586
 21
27.351081907662518
 31
0.0
 12
17.73941253697517
 22
28.534520552734239
 32
0.0
 13
17.73941253697517
 23
28.534520552734239
 33
0.0
210
0.0
220
0.0
230
1.0
  0
SOLID
  5
699
  8
DRG
  6
CONTINUOUS
 62
     7
 10
17.256300807526252
 20
30.5191262631974
 30
0.0
 11
7.0565934473582743
 21
30.23514359210488
 31
0.0
 12
17.73941253697517
 22
28.534520552734239
 32
0.0
 13
17.73941253697517
 23
28.534520552734239
 33
0.0
210
0.0
220
0.0
230
1.0
  0
SOLID
  5
69A
  8
DRG
  6
CONTINUOUS
 62
     7
 10
63.235709964757
 20
30.81688778835381
 30
0.0
 11
63.235709964757007
 21
27.61994893837937
 31
0.0
 12
74.280536421539182
 22
27.861637324670479
 32
0.0
 13
74.280536421539182
 23
27.861637324670479
 33
0.0
210
0.0
220
0.0
230
1.0
  0
SOLID
  5
69B
  8
DRG
  6
CONTINUOUS
 62
     7
 10
74.280536421539196
 20
30.816887788353831
 30
0.0
 11
63.235709964757
 21
30.81688778835381
 31
0.0
 12
74.280536421539182
 22
27.861637324670479
 32
0.0
 13
74.280536421539182
 23
27.861637324670479
 33
0.0
210
0.0
220
0.0
230
1.0
  0
SOLID
  5
69C
  8
DRG
  6
CONTINUOUS
 62
     7
 10
159.01581968400799
 20
30.996563617445211
 30
0.0
 11
160.04745823702251
 21
29.300230626583549
 31
0.0
 12
171.0922846938046
 22
29.95929893143904
 32
0.0
 13
171.0922846938046
 23
29.95929893143904
 33
0.0
210
0.0
220
0.0
230
1.0
  0
SOLID
  5
69D
  8
DRG
  6
CONTINUOUS
 62
     7
 10
27.387732575171409
 20
32.086434320449378
 30
0.0
 11
27.181817847379151
 21
29.900160404751109
 31
0.0
 12
37.639779947293839
 22
13.760967175618781
 32
0.0
 13
37.639779947293839
 23
13.760967175618781
 33
0.0
210
0.0
220
0.0
230
1.0
  0
SOLID
  5
69E
  8
DRG
  6
CONTINUOUS
 62
     7
 10
157.53297815821909
 20
32.316792661720299
 30
0.0
 11
159.01581968400799
 21
30.996563617445211
 31
0.0
 12
171.0922846938046
 22
29.95929893143904
 32
0.0
 13
171.0922846938046
 23
29.95929893143904
 33
0.0
210
0.0
220
0.0
230
1.0
  0
SOLID
  5
69F
  8
DRG
  6
CONTINUOUS
 62
     7
 10
81.440258950509346
 20
32.349374231810209
 30
0.0
 11
81.440258950509346
 21
27.861637324670479
 31
0.0
 12
92.002287191588479
 22
27.619948938379359
 32
0.0
 13
92.002287191588479
 23
27.619948938379359
 33
0.0
210
0.0
220
0.0
230
1.0
  0
SOLID
  5
6A0
  8
DRG
  6
CONTINUOUS
 62
     7
 10
170.29570619663201
 20
32.817404039288149
 30
0.0
 11
157.53297815821909
 21
32.316792661720299
 31
0.0
 12
171.0922846938046
 22
29.95929893143904
 32
0.0
 13
171.0922846938046
 23
29.95929893143904
 33
0.0
210
0.0
220
0.0
230
1.0
  0
SOLID
  5
6A1
  8
DRG
  6
CONTINUOUS
 62
     7
 10
92.002287191588479
 20
33.041326503689838
 30
0.0
 11
81.440258950509346
 21
32.349374231810209
 31
0.0
 12
92.002287191588479
 22
27.619948938379359
 32
0.0
 13
92.002287191588479
 23
27.619948938379359
 33
0.0
210
0.0
220
0.0
230
1.0
  0
SOLID
  5
6A2
  8
DRG
  6
CONTINUOUS
 62
     7
 10
155.72873071743231
 20
33.145354604103439
 30
0.0
 11
157.53297815821909
 21
32.316792661720299
 31
0.0
 12
170.29570619663201
 22
32.817404039288149
 32
0.0
 13
170.29570619663201
 23
32.817404039288149
 33
0.0
210
0.0
220
0.0
230
1.0
  0
SOLID
  5
6A3
  8
DRG
  6
CONTINUOUS
 62
     7
 10
151.66291215627899
 20
34.523696118493461
 30
0.0
 11
155.72873071743231
 21
33.145354604103439
 31
0.0
 12
170.29570619663201
 22
32.817404039288149
 32
0.0
 13
170.29570619663201
 23
32.817404039288149
 33
0.0
210
0.0
220
0.0
230
1.0
  0
SOLID
  5
6A4
  8
DRG
  6
CONTINUOUS
 62
     7
 10
92.821309573647781
 20
34.855023452224977
 30
0.0
 11
81.440258950509346
 21
32.349374231810209
 31
0.0
 12
92.002287191588479
 22
33.041326503689838
 32
0.0
 13
92.002287191588479
 23
33.041326503689838
 33
0.0
210
0.0
220
0.0
230
1.0
  0
SOLID
  5
6A5
  8
DRG
  6
CONTINUOUS
 62
     7
 10
82.124565023344857
 20
35.167915353955507
 30
0.0
 11
81.440258950509346
 21
32.349374231810209
 31
0.0
 12
92.821309573647781
 22
34.855023452224977
 32
0.0
 13
92.821309573647781
 23
34.855023452224977
 33
0.0
210
0.0
220
0.0
230
1.0
  0
SOLID
  5
6A6
  8
DRG
  6
CONTINUOUS
 62
     7
 10
168.82222272033971
 20
35.39269985817279
 30
0.0
 11
151.66291215627899
 21
34.523696118493461
 31
0.0
 12
170.29570619663201
 22
32.817404039288149
 32
0.0
 13
170.29570619663201
 23
32.817404039288149
 33
0.0
210
0.0
220
0.0
230
1.0
  0
SOLID
  5
6A7
  8
DRG
  6
CONTINUOUS
 62
     7
 10
55.513311319972232
 20
35.629722934820848
 30
0.0
 11
44.468482394088362
 21
27.861637324670291
 31
0.0
 12
55.513311319972217
 22
27.61994893837937
 32
0.0
 13
55.513311319972217
 23
27.61994893837937
 33
0.0
210
0.0
220
0.0
230
1.0
  0
SOLID
  5
6A8
  8
DRG
  6
CONTINUOUS
 62
     7
 10
94.205364320613299
 20
36.284948884141627
 30
0.0
 11
82.124565023344857
 21
35.167915353955507
 31
0.0
 12
92.821309573647781
 22
34.855023452224977
 32
0.0
 13
92.821309573647781
 23
34.855023452224977
 33
0.0
210
0.0
220
0.0
230
1.0
  0
SOLID
  5
6A9
  8
DRG
  6
CONTINUOUS
 62
     7
 10
44.169020821240288
 20
36.461122307958632
 30
0.0
 11
55.513311319972232
 21
35.629722934820848
 31
0.0
 12
74.280536421539182
 22
35.629722934820848
 32
0.0
 13
74.280536421539182
 23
35.629722934820848
 33
0.0
210
0.0
220
0.0
230
1.0
  0
SOLID
  5
6AA
  8
DRG
  6
CONTINUOUS
 62
     7
 10
44.169020821240288
 20
36.461122307958632
 30
0.0
 11
44.468482394088362
 21
27.861637324670291
 31
0.0
 12
55.513311319972232
 22
35.629722934820848
 32
0.0
 13
55.513311319972232
 23
35.629722934820848
 33
0.0
210
0.0
220
0.0
230
1.0
  0
SOLID
  5
6AB
  8
DRG
  6
CONTINUOUS
 62
     7
 10
147.96999619585119
 20
36.713005966762211
 30
0.0
 11
151.66291215627899
 21
34.523696118493461
 31
0.0
 12
168.82222272033971
 22
35.39269985817279
 32
0.0
 13
168.82222272033971
 23
35.39269985817279
 33
0.0
210
0.0
220
0.0
230
1.0
  0
SOLID
  5
6AC
  8
DRG
  6
CONTINUOUS
 62
     7
 10
95.991402974049976
 20
37.162650548643818
 30
0.0
 11
82.124565023344857
 21
35.167915353955507
 31
0.0
 12
94.205364320613299
 22
36.284948884141627
 32
0.0
 13
94.205364320613299
 23
36.284948884141627
 33
0.0
210
0.0
220
0.0
230
1.0
  0
SOLID
  5
6AD
  8
DRG
  6
CONTINUOUS
 62
     7
 10
101.5095597489034
 20
37.384730871555568
 30
0.0
 11
101.5095597489034
 21
29.984856014372749
 31
0.0
 12
111.2523129779601
 22
23.54201089202471
 32
0.0
 13
111.2523129779601
 23
23.54201089202471
 33
0.0
210
0.0
220
0.0
230
1.0
  0
SOLID
  5
6AE
  8
DRG
  6
CONTINUOUS
 62
     7
 10
166.76191426628489
 20
37.5277481442359
 30
0.0
 11
147.96999619585119
 21
36.713005966762211
 31
0.0
 12
168.82222272033971
 22
35.39269985817279
 32
0.0
 13
168.82222272033971
 23
35.39269985817279
 33
0.0
210
0.0
220
0.0
230
1.0
  0
SOLID
  5
6AF
  8
DRG
  6
CONTINUOUS
 62
     7
 10
83.465136107217845
 20
37.739941408961009
 30
0.0
 11
95.991402974049976
 21
37.162650548643818
 31
0.0
 12
97.969021393668683
 22
37.384730871555568
 32
0.0
 13
97.969021393668683
 23
37.384730871555568
 33
0.0
210
0.0
220
0.0
230
1.0
  0
SOLID
  5
6B0
  8
DRG
  6
CONTINUOUS
 62
     7
 10
83.465136107217845
 20
37.739941408961009
 30
0.0
 11
82.124565023344857
 21
35.167915353955507
 31
0.0
 12
95.991402974049976
 22
37.162650548643818
 32
0.0
 13
95.991402974049976
 23
37.162650548643818
 33
0.0
210
0.0
220
0.0
230
1.0
  0
SOLID
  5
6B1
  8
DRG
  6
CONTINUOUS
 62
     7
 10
6.7865631049779154
 20
38.202265524009427
 30
0.0
 11
7.0565934473582743
 21
30.23514359210488
 31
0.0
 12
17.256300807526252
 22
30.5191262631974
 32
0.0
 13
17.256300807526252
 23
30.5191262631974
 33
0.0
210
0.0
220
0.0
230
1.0
  0
SOLID
  5
6B2
  8
DRG
  6
CONTINUOUS
 62
     7
 10
164.2407358189129
 20
39.092024764970908
 30
0.0
 11
147.96999619585119
 21
36.713005966762211
 31
0.0
 12
166.76191426628489
 22
37.5277481442359
 32
0.0
 13
166.76191426628489
 23
37.5277481442359
 33
0.0
210
0.0
220
0.0
230
1.0
  0
SOLID
  5
6B3
  8
DRG
  6
CONTINUOUS
 62
     7
 10
144.80962089523379
 20
39.618644254945529
 30
0.0
 11
147.96999619585119
 21
36.713005966762211
 31
0.0
 12
164.2407358189129
 22
39.092024764970908
 32
0.0
 13
164.2407358189129
 23
39.092024764970908
 33
0.0
210
0.0
220
0.0
230
1.0
  0
SOLID
  5
6B4
  8
DRG
  6
CONTINUOUS
 62
     7
 10
85.383656329320502
 20
39.915195190919967
 30
0.0
 11
83.465136107217845
 21
37.739941408961009
 31
0.0
 12
97.969021393668683
 22
37.384730871555568
 32
0.0
 13
97.969021393668683
 23
37.384730871555568
 33
0.0
210
0.0
220
0.0
230
1.0
  0
SOLID
  5
6B5
  8
DRG
  6
CONTINUOUS
 62
     7
 10
85.383656329320502
 20
39.915195190919967
 30
0.0
 11
97.969021393668683
 21
37.384730871555568
 31
0.0
 12
101.5095597489034
 22
37.384730871555568
 32
0.0
 13
101.5095597489034
 23
37.384730871555568
 33
0.0
210
0.0
220
0.0
230
1.0
  0
SOLID
  5
6B6
  8
DRG
  6
CONTINUOUS
 62
     7
 10
161.4128172083947
 20
39.98989916707626
 30
0.0
 11
144.80962089523379
 21
39.618644254945529
 31
0.0
 12
164.2407358189129
 22
39.092024764970908
 32
0.0
 13
164.2407358189129
 23
39.092024764970908
 33
0.0
  0
SOLID
  5
6B7
  8
DRG
  6
CONTINUOUS
 62
     7
 10
127.2345352189994
 20
40.740104065808097
 30
0.0
 11
116.19314081319391
 21
17.28637227261407
 31
0.0
 12
127.2345352189994
 22
17.28637227261407
 32
0.0
 13
127.2345352189994
 23
17.28637227261407
 33
0.0
210
0.0
220
0.0
230
1.0
  0
SOLID
  5
6B8
  8
DRG
  6
CONTINUOUS
 62
     7
 10
158.4712923481795
 20
40.965125441240623
 30
0.0
 11
144.80962089523379
 21
39.618644254945529
 31
0.0
 12
161.4128172083947
 22
39.98989916707626
 32
0.0
 13
161.4128172083947
 23
39.98989916707626
 33
0.0
210
0.0
220
0.0
230
1.0
  0
SOLID
  5
6B9
  8
DRG
  6
CONTINUOUS
 62
     7
 10
87.768046153177011
 20
41.566598844310953
 30
0.0
 11
85.383656329320502
 21
39.915195190919967
 31
0.0
 12
101.5095597489034
 22
37.384730871555568
 32
0.0
 13
101.5095597489034
 23
37.384730871555568
 33
0.0
210
0.0
220
0.0
230
1.0
  0
SOLID
  5
6BA
  8
DRG
  6
CONTINUOUS
 62
     7
 10
55.51331131997221
 20
41.923431282527638
 30
0.0
 11
44.169020821240288
 21
36.461122307958632
 31
0.0
 12
74.280536421539182
 22
35.629722934820848
 32
0.0
 13
74.280536421539182
 23
35.629722934820848
 33
0.0
210
0.0
220
0.0
230
1.0
  0
SOLID
  5
6BB
  8
DRG
  6
CONTINUOUS
 62
     7
 10
63.235709964756971
 20
41.923431282527652
 30
0.0
 11
55.51331131997221
 21
41.923431282527638
 31
0.0
 12
74.280536421539182
 22
35.629722934820848
 32
0.0
 13
74.280536421539182
 23
35.629722934820848
 33
0.0
210
0.0
220
0.0
230
1.0
  0
SOLID
  5
6BC
  8
DRG
  6
CONTINUOUS
 62
     7
 10
155.7899070018324
 20
42.518768712226482
 30
0.0
 11
144.80962089523379
 21
39.618644254945529
 31
0.0
 12
158.4712923481795
 22
40.965125441240623
 32
0.0
 13
158.4712923481795
 23
40.965125441240623
 33
0.0
210
0.0
220
0.0
230
1.0
  0
SOLID
  5
6BD
  8
DRG
  6
CONTINUOUS
 62
     7
 10
90.479010040926084
 20
42.597677724835599
 30
0.0
 11
87.768046153177011
 21
41.566598844310953
 31
0.0
 12
101.5095597489034
 22
37.384730871555568
 32
0.0
 13
101.5095597489034
 23
37.384730871555568
 33
0.0
210
0.0
220
0.0
230
1.0
  0
SOLID
  5
6BE
  8
DRG
  6
CONTINUOUS
 62
     7
 10
93.358174068518778
 20
42.948196427274922
 30
0.0
 11
90.479010040926084
 21
42.597677724835599
 31
0.0
 12
101.5095597489034
 22
37.384730871555568
 32
0.0
 13
101.5095597489034
 23
37.384730871555568
 33
0.0
210
0.0
220
0.0
230
1.0
  0
SOLID
  5
6BF
  8
DRG
  6
CONTINUOUS
 62
     7
 10
101.5095597489034
 20
37.384730871555568
 30
0.0
 11
100.207486521178
 21
42.948196427274922
 31
0.0
 12
93.358174068518778
 22
42.948196427274922
 32
0.0
 13
93.358174068518778
 23
42.948196427274922
 33
0.0
  0
SOLID
  5
6C0
  8
DRG
  6
CONTINUOUS
 62
     7
 10
100.207486521178
 20
42.948196427274922
 30
0.0
 11
101.5095597489034
 21
37.384730871555568
 31
0.0
 12
111.2523129779601
 22
23.54201089202471
 32
0.0
 13
111.2523129779601
 23
23.54201089202471
 33
0.0
  0
SOLID
  5
6C1
  8
DRG
  6
CONTINUOUS
 62
     7
 10
142.3184035466634
 20
43.11500550983493
 30
0.0
 11
144.80962089523379
 21
39.618644254945529
 31
0.0
 12
155.7899070018324
 22
42.518768712226482
 32
0.0
 13
155.7899070018324
 23
42.518768712226482
 33
0.0
210
0.0
220
0.0
230
1.0
  0
SOLID
  5
6C2
  8
DRG
  6
CONTINUOUS
 62
     7
 10
127.6260830886382
 20
43.212240020807677
 30
0.0
 11
116.19314081319391
 21
17.28637227261407
 31
0.0
 12
127.2345352189994
 22
40.740104065808097
 32
0.0
 13
127.2345352189994
 23
40.740104065808097
 33
0.0
210
0.0
220
0.0
230
1.0
  0
SOLID
  5
6C3
  8
DRG
  6
CONTINUOUS
 62
     7
 10
153.4809683549079
 20
44.585756161105429
 30
0.0
 11
142.3184035466634
 21
43.11500550983493
 31
0.0
 12
155.7899070018324
 22
42.518768712226482
 32
0.0
 13
155.7899070018324
 23
42.518768712226482
 33
0.0
210
0.0
220
0.0
230
1.0
  0
SOLID
  5
6C4
  8
DRG
  6
CONTINUOUS
 62
     7
 10
27.387732575171409
 20
44.745475926535612
 30
0.0
 11
27.387732575171409
 21
32.086434320449378
 31
0.0
 12
37.639779947293839
 22
13.760967175618781
 32
0.0
 13
37.639779947293839
 23
13.760967175618781
 33
0.0
210
0.0
220
0.0
230
1.0
  0
SOLID
  5
6C5
  8
DRG
  6
CONTINUOUS
 62
     7
 10
111.2523129779601
 20
45.06060729124669
 30
0.0
 11
100.207486521178
 21
42.948196427274922
 31
0.0
 12
111.2523129779601
 22
23.54201089202471
 32
0.0
 13
111.2523129779601
 23
23.54201089202471
 33
0.0
  0
SOLID
  5
6C6
  8
DRG
  6
CONTINUOUS
 62
     7
 10
74.280536421539182
 20
45.06060729124669
 30
0.0
 11
63.235709964756971
 21
41.923431282527652
 31
0.0
 12
74.280536421539182
 22
35.629722934820848
 32
0.0
 13
74.280536421539182
 23
35.629722934820848
 33
0.0
  0
SOLID
  5
6C7
  8
DRG
  6
CONTINUOUS
 62
     7
 10
44.468482394088362
 20
45.06060729124696
 30
0.0
 11
44.169020821240288
 21
36.461122307958632
 31
0.0
 12
55.51331131997221
 22
41.923431282527638
 32
0.0
 13
55.51331131997221
 23
41.923431282527638
 33
0.0
210
0.0
220
0.0
230
1.0
  0
SOLID
  5
6C8
  8
DRG
  6
CONTINUOUS
 62
     7
 10
141.54546826268481
 20
45.937122787892669
 30
0.0
 11
142.3184035466634
 21
43.11500550983493
 31
0.0
 12
153.4809683549079
 22
44.585756161105429
 32
0.0
 13
153.4809683549079
 23
44.585756161105429
 33
0.0
210
0.0
220
0.0
230
1.0
  0
SOLID
  5
6C9
  8
DRG
  6
CONTINUOUS
 62
     7
 10
152.54834175226111
 20
45.975031235545693
 30
0.0
 11
141.54546826268481
 21
45.937122787892669
 31
0.0
 12
153.4809683549079
 22
44.585756161105429
 32
0.0
 13
153.4809683549079
 23
44.585756161105429
 33
0.0
210
0.0
220
0.0
230
1.0
  0
SOLID
  5
6CA
  8
DRG
  6
CONTINUOUS
 62
     7
 10
7.0305774038875759
 20
46.17022669896302
 30
0.0
 11
6.7865631049779154
 21
38.202265524009427
 31
0.0
 12
17.256300807526252
 22
30.5191262631974
 32
0.0
 13
17.256300807526252
 23
30.5191262631974
 33
0.0
  0
SOLID
  5
6CB
  8
DRG
  6
CONTINUOUS
 62
     7
 10
17.256300807526252
 20
46.312783983787632
 30
0.0
 11
7.0305774038875759
 21
46.17022669896302
 31
0.0
 12
17.256300807526252
 22
30.5191262631974
 32
0.0
 13
17.256300807526252
 23
30.5191262631974
 33
0.0
210
0.0
220
0.0
230
1.0
  0
SOLID
  5
6CC
  8
DRG
  6
CONTINUOUS
 62
     7
 10
160.04745823702251
 20
46.421288526219293
 30
0.0
 11
160.04745823702251
 21
45.21828747592599
 31
0.0
 12
171.0912486890569
 22
45.21828747592599
 32
0.0
 13
171.0912486890569
 23
45.21828747592599
 33
0.0
210
0.0
220
0.0
230
1.0
  0
SOLID
  5
6CD
  8
DRG
  6
CONTINUOUS
 62
     7
 10
63.235709964757007
 20
46.690614073903127
 30
0.0
 11
63.235709964756971
 21
41.923431282527652
 31
0.0
 12
74.280536421539182
 22
45.06060729124669
 32
0.0
 13
74.280536421539182
 23
45.06060729124669
 33
0.0
210
0.0
220
0.0
230
1.0
  0
SOLID
  5
6CE
  8
DRG
  6
CONTINUOUS
 62
     7
 10
55.513311319972217
 20
46.690614073903141
 30
0.0
 11
44.468482394088362
 21
45.06060729124696
 31
0.0
 12
55.51331131997221
 22
41.923431282527638
 32
0.0
 13
55.51331131997221
 23
41.923431282527638
 33
0.0
210
0.0
220
0.0
230
1.0
  0
SOLID
  5
6CF
  8
DRG
  6
CONTINUOUS
 62
     7
 10
27.181817847379161
 20
46.931749842233849
 30
0.0
 11
27.387732575171409
 21
44.745475926535612
 31
0.0
 12
37.639779947293839
 22
13.760967175618781
 32
0.0
 13
37.639779947293839
 23
13.760967175618781
 33
0.0
210
0.0
220
0.0
230
1.0
  0
SOLID
  5
6D0
  8
DRG
  6
CONTINUOUS
 62
     7
 10
92.485087876393209
 20
47.313129977668268
 30
0.0
 11
81.470405744524527
 21
45.910674481046733
 31
0.0
 12
92.485087876393209
 22
45.910674481046733
 32
0.0
 13
92.485087876393209
 23
45.910674481046733
 33
0.0
210
0.0
220
0.0
230
1.0
  0
SOLID
  5
6D1
  8
DRG
  6
CONTINUOUS
 62
     7
 10
100.2074865211779
 20
47.313129977668268
 30
0.0
 11
100.207486521178
 21
42.948196427274922
 31
0.0
 12
111.2523129779601
 22
45.06060729124669
 32
0.0
 13
111.2523129779601
 23
45.06060729124669
 33
0.0
210
0.0
220
0.0
230
1.0
  0
SOLID
  5
6D2
  8
DRG
  6
CONTINUOUS
 62
     7
 10
152.52515784094209
 20
47.648154099737518
 30
0.0
 11
141.54546826268481
 21
45.937122787892669
 31
0.0
 12
152.54834175226111
 22
45.975031235545693
 32
0.0
 13
152.54834175226111
 23
45.975031235545693
 33
0.0
210
0.0
220
0.0
230
1.0
  0
SOLID
  5
6D3
  8
DRG
  6
CONTINUOUS
 62
     7
 10
159.7387277495244
 20
47.934174967545289
 30
0.0
 11
160.04745823702251
 21
46.421288526219293
 31
0.0
 12
171.0912486890569
 22
45.21828747592599
 32
0.0
 13
171.0912486890569
 23
45.21828747592599
 33
0.0
210
0.0
220
0.0
230
1.0
  0
SOLID
  5
6D4
  8
DRG
  6
CONTINUOUS
 62
     7
 10
73.871646337008002
 20
48.166435832476949
 30
0.0
 11
63.235709964757007
 21
46.690614073903127
 31
0.0
 12
74.280536421539182
 22
45.06060729124669
 32
0.0
 13
74.280536421539182
 23
45.06060729124669
 33
0.0
210
0.0
220
0.0
230
1.0
  0
SOLID
  5
6D5
  8
DRG
  6
CONTINUOUS
 62
     7
 10
110.84342289342889
 20
48.166435832476949
 30
0.0
 11
100.2074865211779
 21
47.313129977668268
 31
0.0
 12
111.2523129779601
 22
45.06060729124669
 32
0.0
 13
111.2523129779601
 23
45.06060729124669
 33
0.0
210
0.0
220
0.0
230
1.0
  0
SOLID
  5
6D6
  8
DRG
  6
CONTINUOUS
 62
     7
 10
44.877372478619598
 20
48.166435832477148
 30
0.0
 11
44.468482394088362
 21
45.06060729124696
 31
0.0
 12
55.513311319972217
 22
46.690614073903141
 32
0.0
 13
55.513311319972217
 23
46.690614073903141
 33
0.0
  0
SOLID
  5
6D7
  8
DRG
  6
CONTINUOUS
 62
     7
 10
62.941793667269401
 20
48.168231083642013
 30
0.0
 11
63.235709964757007
 21
46.690614073903127
 31
0.0
 12
73.871646337008002
 22
48.166435832476949
 32
0.0
 13
73.871646337008002
 23
48.166435832476949
 33
0.0
210
0.0
220
0.0
230
1.0
  0
SOLID
  5
6D8
  8
DRG
  6
CONTINUOUS
 62
     7
 10
55.80722761745983
 20
48.16823108364202
 30
0.0
 11
44.877372478619598
 21
48.166435832477148
 31
0.0
 12
55.513311319972217
 22
46.690614073903141
 32
0.0
 13
55.513311319972217
 23
46.690614073903141
 33
0.0
210
0.0
220
0.0
230
1.0
  0
SOLID
  5
6D9
  8
DRG
  6
CONTINUOUS
 62
     7
 10
170.64869051164831
 20
48.2931735432064
 30
0.0
 11
159.7387277495244
 21
47.934174967545289
 31
0.0
 12
171.0912486890569
 22
45.21828747592599
 32
0.0
 13
171.0912486890569
 23
45.21828747592599
 33
0.0
210
0.0
220
0.0
230
1.0
  0
SOLID
  5
6DA
  8
DRG
  6
CONTINUOUS
 62
     7
 10
17.739412536975191
 20
48.297389694250811
 30
0.0
 11
7.0305774038875759
 21
46.17022669896302
 31
0.0
 12
17.256300807526252
 22
46.312783983787632
 32
0.0
 13
17.256300807526252
 23
46.312783983787632
 33
0.0
210
0.0
220
0.0
230
1.0
  0
SOLID
  5
6DB
  8
DRG
  6
CONTINUOUS
 62
     7
 10
92.779004173880821
 20
48.790746987407147
 30
0.0
 11
81.470405744524527
 21
45.910674481046733
 31
0.0
 12
92.485087876393209
 22
47.313129977668268
 32
0.0
 13
92.485087876393209
 23
47.313129977668268
 33
0.0
210
0.0
220
0.0
230
1.0
  0
SOLID
  5
6DC
  8
DRG
  6
CONTINUOUS
 62
     7
 10
99.913570223690385
 20
48.790746987407147
 30
0.0
 11
100.2074865211779
 21
47.313129977668268
 31
0.0
 12
110.84342289342889
 22
48.166435832476949
 32
0.0
 13
110.84342289342889
 23
48.166435832476949
 33
0.0
210
0.0
220
0.0
230
1.0
  0
SOLID
  5
6DD
  8
DRG
  6
CONTINUOUS
 62
     7
 10
141.8917942032017
 20
48.84260609145101
 30
0.0
 11
141.54546826268481
 21
45.937122787892669
 31
0.0
 12
152.52515784094209
 22
47.648154099737518
 32
0.0
 13
152.52515784094209
 23
47.648154099737518
 33
0.0
210
0.0
220
0.0
230
1.0
  0
SOLID
  5
6DE
  8
DRG
  6
CONTINUOUS
 62
     7
 10
82.052765146120478
 20
48.845443464055869
 30
0.0
 11
81.470405744524527
 21
45.910674481046733
 31
0.0
 12
92.779004173880821
 22
48.790746987407147
 32
0.0
 13
92.779004173880821
 23
48.790746987407147
 33
0.0
210
0.0
220
0.0
230
1.0
  0
SOLID
  5
6DF
  8
DRG
  6
CONTINUOUS
 62
     7
 10
153.29859675497221
 20
48.984541822115588
 30
0.0
 11
141.8917942032017
 21
48.84260609145101
 31
0.0
 12
152.52515784094209
 22
47.648154099737518
 32
0.0
 13
152.52515784094209
 23
47.648154099737518
 33
0.0
210
0.0
220
0.0
230
1.0
  0
SOLID
  5
6E0
  8
DRG
  6
CONTINUOUS
 62
     7
 10
7.4480896310338727
 20
49.187837726674921
 30
0.0
 11
7.0305774038875759
 21
46.17022669896302
 31
0.0
 12
17.739412536975191
 22
48.297389694250811
 32
0.0
 13
17.739412536975191
 23
48.297389694250811
 33
0.0
210
0.0
220
0.0
230
1.0
  0
SOLID
  5
6E1
  8
DRG
  6
CONTINUOUS
 62
     7
 10
158.8619067058832
 20
49.205129237252457
 30
0.0
 11
159.7387277495244
 21
47.934174967545289
 31
0.0
 12
170.64869051164831
 22
48.2931735432064
 32
0.0
 13
170.64869051164831
 23
48.2931735432064
 33
0.0
  0
SOLID
  5
6E2
  8
DRG
  6
CONTINUOUS
 62
     7
 10
62.104790866741169
 20
49.420894298279691
 30
0.0
 11
62.941793667269401
 21
48.168231083642013
 31
0.0
 12
73.871646337008002
 22
48.166435832476949
 32
0.0
 13
73.871646337008002
 23
48.166435832476949
 33
0.0
210
0.0
220
0.0
230
1.0
  0
SOLID
  5
6E3
  8
DRG
  6
CONTINUOUS
 62
     7
 10
56.644230417988048
 20
49.420894298279698
 30
0.0
 11
44.877372478619598
 21
48.166435832477148
 31
0.0
 12
55.80722761745983
 22
48.16823108364202
 32
0.0
 13
55.80722761745983
 23
48.16823108364202
 33
0.0
210
0.0
220
0.0
230
1.0
  0
SOLID
  5
6E4
  8
DRG
  6
CONTINUOUS
 62
     7
 10
154.5338141330721
 20
49.911028695794251
 30
0.0
 11
141.8917942032017
 21
48.84260609145101
 31
0.0
 12
153.29859675497221
 22
48.984541822115588
 32
0.0
 13
153.29859675497221
 23
48.984541822115588
 33
0.0
210
0.0
220
0.0
230
1.0
  0
SOLID
  5
6E5
  8
DRG
  6
CONTINUOUS
 62
     7
 10
18.93668040707891
 20
49.952263229102194
 30
0.0
 11
7.4480896310338727
 21
49.187837726674921
 31
0.0
 12
17.739412536975191
 22
48.297389694250811
 32
0.0
 13
17.739412536975191
 23
48.297389694250811
 33
0.0
210
0.0
220
0.0
230
1.0
  0
SOLID
  5
6E6
  8
DRG
  6
CONTINUOUS
 62
     7
 10
157.5572113268374
 20
50.030907576854183
 30
0.0
 11
158.8619067058832
 21
49.205129237252457
 31
0.0
 12
170.64869051164831
 22
48.2931735432064
 32
0.0
 13
170.64869051164831
 23
48.2931735432064
 33
0.0
  0
SOLID
  5
6E7
  8
DRG
  6
CONTINUOUS
 62
     7
 10
93.616006974409046
 20
50.043410202044832
 30
0.0
 11
82.052765146120478
 21
48.845443464055869
 31
0.0
 12
92.779004173880821
 22
48.790746987407147
 32
0.0
 13
92.779004173880821
 23
48.790746987407147
 33
0.0
  0
SOLID
  5
6E8
  8
DRG
  6
CONTINUOUS
 62
     7
 10
99.07656742316216
 20
50.043410202044832
 30
0.0
 11
99.913570223690385
 21
48.790746987407147
 31
0.0
 12
110.84342289342889
 22
48.166435832476949
 32
0.0
 13
110.84342289342889
 23
48.166435832476949
 33
0.0
210
0.0
220
0.0
230
1.0
  0
SOLID
  5
6E9
  8
DRG
  6
CONTINUOUS
 62
     7
 10
57.896893632625734
 20
50.257897098807909
 30
0.0
 11
44.877372478619598
 21
48.166435832477148
 31
0.0
 12
56.644230417988048
 22
49.420894298279698
 32
0.0
 13
56.644230417988048
 23
49.420894298279698
 33
0.0
  0
SOLID
  5
6EA
  8
DRG
  6
CONTINUOUS
 62
     7
 10
60.852127652103498
 20
50.257897098807909
 30
0.0
 11
62.104790866741169
 21
49.420894298279691
 31
0.0
 12
73.871646337008002
 22
48.166435832476949
 32
0.0
 13
73.871646337008002
 23
48.166435832476949
 33
0.0
210
0.0
220
0.0
230
1.0
  0
SOLID
  5
6EB
  8
DRG
  6
CONTINUOUS
 62
     7
 10
156.0332810566515
 20
50.279456223742521
 30
0.0
 11
141.8917942032017
 21
48.84260609145101
 31
0.0
 12
154.5338141330721
 22
49.911028695794251
 32
0.0
 13
154.5338141330721
 23
49.911028695794251
 33
0.0
210
0.0
220
0.0
230
1.0
  0
SOLID
  5
6EC
  8
DRG
  6
CONTINUOUS
 62
     7
 10
156.0332810566515
 20
50.279456223742521
 30
0.0
 11
157.5572113268374
 21
50.030907576854183
 31
0.0
 12
170.64869051164831
 22
48.2931735432064
 32
0.0
 13
170.64869051164831
 23
48.2931735432064
 33
0.0
210
0.0
220
0.0
230
1.0
  0
SOLID
  5
6ED
  8
DRG
  6
CONTINUOUS
 62
     7
 10
59.374510642364612
 20
50.551813396295529
 30
0.0
 11
44.877372478619598
 21
48.166435832477148
 31
0.0
 12
57.896893632625734
 22
50.257897098807909
 32
0.0
 13
57.896893632625734
 23
50.257897098807909
 33
0.0
210
0.0
220
0.0
230
1.0
  0
SOLID
  5
6EE
  8
DRG
  6
CONTINUOUS
 62
     7
 10
59.374510642364612
 20
50.551813396295529
 30
0.0
 11
60.852127652103498
 21
50.257897098807909
 31
0.0
 12
73.871646337008002
 22
48.166435832476949
 32
0.0
 13
73.871646337008002
 23
48.166435832476949
 33
0.0
210
0.0
220
0.0
230
1.0
  0
SOLID
  5
6EF
  8
DRG
  6
CONTINUOUS
 62
     7
 10
94.868670189046725
 20
50.88041300257305
 30
0.0
 11
82.052765146120478
 21
48.845443464055869
 31
0.0
 12
93.616006974409046
 22
50.043410202044832
 32
0.0
 13
93.616006974409046
 23
50.043410202044832
 33
0.0
210
0.0
220
0.0
230
1.0
  0
SOLID
  5
6F0
  8
DRG
  6
CONTINUOUS
 62
     7
 10
97.823904208524496
 20
50.88041300257305
 30
0.0
 11
99.07656742316216
 21
50.043410202044832
 31
0.0
 12
110.84342289342889
 22
48.166435832476949
 32
0.0
 13
110.84342289342889
 23
48.166435832476949
 33
0.0
  0
SOLID
  5
6F1
  8
DRG
  6
CONTINUOUS
 62
     7
 10
20.6705420504735
 20
51.031976418194162
 30
0.0
 11
7.4480896310338727
 21
49.187837726674921
 31
0.0
 12
18.93668040707891
 22
49.952263229102194
 32
0.0
 13
18.93668040707891
 23
49.952263229102194
 33
0.0
210
0.0
220
0.0
230
1.0
  0
SOLID
  5
6F2
  8
DRG
  6
CONTINUOUS
 62
     7
 10
109.64461782337339
 20
51.060607291246697
 30
0.0
 11
97.823904208524496
 21
50.88041300257305
 31
0.0
 12
110.84342289342889
 22
48.166435832476949
 32
0.0
 13
110.84342289342889
 23
48.166435832476949
 33
0.0
210
0.0
220
0.0
230
1.0
  0
SOLID
  5
6F3
  8
DRG
  6
CONTINUOUS
 62
     7
 10
72.672841266952446
 20
51.060607291246697
 30
0.0
 11
59.374510642364612
 21
50.551813396295529
 31
0.0
 12
73.871646337008002
 22
48.166435832476949
 32
0.0
 13
73.871646337008002
 23
48.166435832476949
 33
0.0
210
0.0
220
0.0
230
1.0
  0
SOLID
  5
6F4
  8
DRG
  6
CONTINUOUS
 62
     7
 10
46.07617754867519
 20
51.060607291246839
 30
0.0
 11
59.374510642364612
 21
50.551813396295529
 31
0.0
 12
72.672841266952446
 22
51.060607291246697
 32
0.0
 13
72.672841266952446
 23
51.060607291246697
 33
0.0
210
0.0
220
0.0
230
1.0
  0
SOLID
  5
6F5
  8
DRG
  6
CONTINUOUS
 62
     7
 10
46.07617754867519
 20
51.060607291246839
 30
0.0
 11
44.877372478619598
 21
48.166435832477148
 31
0.0
 12
59.374510642364612
 22
50.551813396295529
 32
0.0
 13
59.374510642364612
 23
50.551813396295529
 33
0.0
  0
SOLID
  5
6F6
  8
DRG
  6
CONTINUOUS
 62
     7
 10
169.4316298757154
 20
51.151415218714057
 30
0.0
 11
156.0332810566515
 21
50.279456223742521
 31
0.0
 12
170.64869051164831
 22
48.2931735432064
 32
0.0
 13
170.64869051164831
 23
48.2931735432064
 33
0.0
210
0.0
220
0.0
230
1.0
  0
SOLID
  5
6F7
  8
DRG
  6
CONTINUOUS
 62
     7
 10
96.346287198785603
 20
51.174329300060663
 30
0.0
 11
82.052765146120478
 21
48.845443464055869
 31
0.0
 12
94.868670189046725
 22
50.88041300257305
 32
0.0
 13
94.868670189046725
 23
50.88041300257305
 33
0.0
210
0.0
220
0.0
230
1.0
  0
SOLID
  5
6F8
  8
DRG
  6
CONTINUOUS
 62
     7
 10
96.346287198785603
 20
51.174329300060663
 30
0.0
 11
97.823904208524496
 21
50.88041300257305
 31
0.0
 12
109.64461782337339
 22
51.060607291246697
 32
0.0
 13
109.64461782337339
 23
51.060607291246697
 33
0.0
210
0.0
220
0.0
230
1.0
  0
SOLID
  5
6F9
  8
DRG
  6
CONTINUOUS
 62
     7
 10
27.267121908897021
 20
51.255838552818979
 30
0.0
 11
24.679246464695179
 21
50.459554842585071
 31
0.0
 12
26.241246459003669
 22
48.91606835823719
 32
0.0
 13
26.241246459003669
 23
48.91606835823719
 33
0.0
210
0.0
220
0.0
230
1.0
  0
SOLID
  5
6FA
  8
DRG
  6
CONTINUOUS
 62
     7
 10
27.267121908897021
 20
51.255838552818979
 30
0.0
 11
26.241246459003669
 21
48.91606835823719
 31
0.0
 12
27.181817847379161
 22
46.931749842233849
 32
0.0
 13
27.181817847379161
 23
46.931749842233849
 33
0.0
210
0.0
220
0.0
230
1.0
  0
SOLID
  5
6FB
  8
DRG
  6
CONTINUOUS
 62
     7
 10
27.267121908897021
 20
51.255838552818979
 30
0.0
 11
27.181817847379161
 21
46.931749842233849
 31
0.0
 12
37.639779947293839
 22
13.760967175618781
 32
0.0
 13
37.639779947293839
 23
13.760967175618781
 33
0.0
210
0.0
220
0.0
230
1.0
  0
SOLID
  5
6FC
  8
DRG
  6
CONTINUOUS
 62
     7
 10
22.683854862926282
 20
51.376400993896397
 30
0.0
 11
7.4480896310338727
 21
49.187837726674921
 31
0.0
 12
20.6705420504735
 22
51.031976418194162
 32
0.0
 13
20.6705420504735
 23
51.031976418194162
 33
0.0
210
0.0
220
0.0
230
1.0
  0
SOLID
  5
6FD
  8
DRG
  6
CONTINUOUS
 62
     7
 10
22.683854862926282
 20
51.376400993896397
 30
0.0
 11
24.679246464695179
 21
50.459554842585071
 31
0.0
 12
27.267121908897021
 22
51.255838552818979
 32
0.0
 13
27.267121908897021
 23
51.255838552818979
 33
0.0
210
0.0
220
0.0
230
1.0
  0
SOLID
  5
6FE
  8
DRG
  6
CONTINUOUS
 62
     7
 10
143.1817274202871
 20
51.542908748999231
 30
0.0
 11
156.0332810566515
 21
50.279456223742521
 31
0.0
 12
169.4316298757154
 22
51.151415218714057
 32
0.0
 13
169.4316298757154
 23
51.151415218714057
 33
0.0
210
0.0
220
0.0
230
1.0
  0
SOLID
  5
6FF
  8
DRG
  6
CONTINUOUS
 62
     7
 10
143.1817274202871
 20
51.542908748999231
 30
0.0
 11
141.8917942032017
 21
48.84260609145101
 31
0.0
 12
156.0332810566515
 22
50.279456223742521
 32
0.0
 13
156.0332810566515
 23
50.279456223742521
 33
0.0
  0
SOLID
  5
700
  8
DRG
  6
CONTINUOUS
 62
     7
 10
83.343047985181542
 20
51.544921497210481
 30
0.0
 11
82.052765146120478
 21
48.845443464055869
 31
0.0
 12
96.346287198785603
 22
51.174329300060663
 32
0.0
 13
96.346287198785603
 23
51.174329300060663
 33
0.0
210
0.0
220
0.0
230
1.0
  0
SOLID
  5
701
  8
DRG
  6
CONTINUOUS
 62
     7
 10
8.6055953189183114
 20
52.005722280183178
 30
0.0
 11
7.4480896310338727
 21
49.187837726674921
 31
0.0
 12
22.683854862926282
 22
51.376400993896397
 32
0.0
 13
22.683854862926282
 23
51.376400993896397
 33
0.0
210
0.0
220
0.0
230
1.0
  0
SOLID
  5
702
  8
DRG
  6
CONTINUOUS
 62
     7
 10
127.2345352189994
 20
53.086533694841222
 30
0.0
 11
135.23453521899941
 21
48.740104065808111
 31
0.0
 12
136.6041529029215
 22
48.740104065808111
 32
0.0
 13
136.6041529029215
 23
48.740104065808111
 33
0.0
210
0.0
220
0.0
230
1.0
  0
SOLID
  5
703
  8
DRG
  6
CONTINUOUS
 62
     7
 10
127.2345352189994
 20
53.086533694841222
 30
0.0
 11
132.76239926399981
 21
48.348556196169341
 31
0.0
 12
135.23453521899941
 22
48.740104065808111
 32
0.0
 13
135.23453521899941
 23
48.740104065808111
 33
0.0
210
0.0
220
0.0
230
1.0
  0
SOLID
  5
704
  8
DRG
  6
CONTINUOUS
 62
     7
 10
127.2345352189994
 20
53.086533694841222
 30
0.0
 11
130.5322532006596
 21
47.212240020807691
 31
0.0
 12
132.76239926399981
 22
48.348556196169341
 32
0.0
 13
132.76239926399981
 23
48.348556196169341
 33
0.0
  0
SOLID
  5
705
  8
DRG
  6
CONTINUOUS
 62
     7
 10
127.2345352189994
 20
53.086533694841222
 30
0.0
 11
128.76239926399981
 21
45.442386084147891
 31
0.0
 12
130.5322532006596
 22
47.212240020807691
 32
0.0
 13
130.5322532006596
 23
47.212240020807691
 33
0.0
210
0.0
220
0.0
230
1.0
  0
SOLID
  5
706
  8
DRG
  6
CONTINUOUS
 62
     7
 10
127.2345352189994
 20
53.086533694841222
 30
0.0
 11
127.6260830886382
 21
43.212240020807677
 31
0.0
 12
128.76239926399981
 22
45.442386084147891
 32
0.0
 13
128.76239926399981
 23
45.442386084147891
 33
0.0
  0
SOLID
  5
707
  8
DRG
  6
CONTINUOUS
 62
     7
 10
127.2345352189994
 20
53.086533694841222
 30
0.0
 11
116.19314081319391
 21
17.28637227261407
 31
0.0
 12
127.6260830886382
 22
43.212240020807677
 32
0.0
 13
127.6260830886382
 23
43.212240020807677
 33
0.0
210
0.0
220
0.0
230
1.0
  0
SOLID
  5
708
  8
DRG
  6
CONTINUOUS
 62
     7
 10
26.390819376565261
 20
53.462496928867189
 30
0.0
 11
8.6055953189183114
 21
52.005722280183178
 31
0.0
 12
22.683854862926282
 22
51.376400993896397
 32
0.0
 13
22.683854862926282
 23
51.376400993896397
 33
0.0
210
0.0
220
0.0
230
1.0
  0
SOLID
  5
709
  8
DRG
  6
CONTINUOUS
 62
     7
 10
26.390819376565261
 20
53.462496928867189
 30
0.0
 11
22.683854862926282
 21
51.376400993896397
 31
0.0
 12
27.267121908897021
 22
51.255838552818979
 32
0.0
 13
27.267121908897021
 23
51.255838552818979
 33
0.0
210
0.0
220
0.0
230
1.0
  0
SOLID
  5
70A
  8
DRG
  6
CONTINUOUS
 62
     7
 10
107.7375943521987
 20
53.545888665485258
 30
0.0
 11
83.343047985181542
 21
51.544921497210481
 31
0.0
 12
96.346287198785603
 22
51.174329300060663
 32
0.0
 13
96.346287198785603
 23
51.174329300060663
 33
0.0
210
0.0
220
0.0
230
1.0
  0
SOLID
  5
70B
  8
DRG
  6
CONTINUOUS
 62
     7
 10
107.7375943521987
 20
53.545888665485258
 30
0.0
 11
96.346287198785603
 21
51.174329300060663
 31
0.0
 12
109.64461782337339
 22
51.060607291246697
 32
0.0
 13
109.64461782337339
 23
51.060607291246697
 33
0.0
210
0.0
220
0.0
230
1.0
  0
SOLID
  5
70C
  8
DRG
  6
CONTINUOUS
 62
     7
 10
70.76581779577775
 20
53.545888665485258
 30
0.0
 11
46.07617754867519
 21
51.060607291246839
 31
0.0
 12
72.672841266952446
 22
51.060607291246697
 32
0.0
 13
72.672841266952446
 23
51.060607291246697
 33
0.0
210
0.0
220
0.0
230
1.0
  0
SOLID
  5
70D
  8
DRG
  6
CONTINUOUS
 62
     7
 10
47.983201019849879
 20
53.54588866548535
 30
0.0
 11
46.07617754867519
 21
51.060607291246839
 31
0.0
 12
70.76581779577775
 22
53.545888665485258
 32
0.0
 13
70.76581779577775
 23
53.545888665485258
 33
0.0
210
0.0
220
0.0
230
1.0
  0
SOLID
  5
70E
  8
DRG
  6
CONTINUOUS
 62
     7
 10
167.52163335736839
 20
53.601455089215932
 30
0.0
 11
143.1817274202871
 21
51.542908748999231
 31
0.0
 12
169.4316298757154
 22
51.151415218714057
 32
0.0
 13
169.4316298757154
 23
51.151415218714057
 33
0.0
210
0.0
220
0.0
230
1.0
  0
SOLID
  5
70F
  8
DRG
  6
CONTINUOUS
 62
     7
 10
145.0997007305034
 20
53.84006797904842
 30
0.0
 11
143.1817274202871
 21
51.542908748999231
 31
0.0
 12
167.52163335736839
 22
53.601455089215932
 32
0.0
 13
167.52163335736839
 23
53.601455089215932
 33
0.0
210
0.0
220
0.0
230
1.0
  0
SOLID
  5
710
  8
DRG
  6
CONTINUOUS
 62
     7
 10
85.261041575894609
 20
53.84129081468609
 30
0.0
 11
83.343047985181542
 21
51.544921497210481
 31
0.0
 12
107.7375943521987
 22
53.545888665485258
 32
0.0
 13
107.7375943521987
 23
53.545888665485258
 33
0.0
  0
SOLID
  5
711
  8
DRG
  6
CONTINUOUS
 62
     7
 10
10.42981956125807
 20
54.445496591066302
 30
0.0
 11
8.6055953189183114
 21
52.005722280183178
 31
0.0
 12
26.390819376565261
 22
53.462496928867189
 32
0.0
 13
26.390819376565261
 23
53.462496928867189
 33
0.0
210
0.0
220
0.0
230
1.0
  0
SOLID
  5
712
  8
DRG
  6
CONTINUOUS
 62
     7
 10
129.0836962561232
 20
55.014863471122233
 30
0.0
 11
127.2345352189994
 21
53.086533694841222
 31
0.0
 12
136.6041529029215
 22
48.740104065808111
 32
0.0
 13
136.6041529029215
 23
48.740104065808111
 33
0.0
210
0.0
220
0.0
230
1.0
  0
SOLID
  5
713
  8
DRG
  6
CONTINUOUS
 62
     7
 10
24.97349704072932
 20
55.367344616504027
 30
0.0
 11
10.42981956125807
 21
54.445496591066302
 31
0.0
 12
26.390819376565261
 22
53.462496928867189
 32
0.0
 13
26.390819376565261
 23
53.462496928867189
 33
0.0
210
0.0
220
0.0
230
1.0
  0
SOLID
  5
714
  8
DRG
  6
CONTINUOUS
 62
     7
 10
68.280536421539182
 20
55.452912136659961
 30
0.0
 11
47.983201019849879
 21
53.54588866548535
 31
0.0
 12
70.76581779577775
 22
53.545888665485258
 32
0.0
 13
70.76581779577775
 23
53.545888665485258
 33
0.0
210
0.0
220
0.0
230
1.0
  0
SOLID
  5
715
  8
DRG
  6
CONTINUOUS
 62
     7
 10
105.2523129779601
 20
55.452912136659961
 30
0.0
 11
85.261041575894609
 21
53.84129081468609
 31
0.0
 12
107.7375943521987
 22
53.545888665485258
 32
0.0
 13
107.7375943521987
 23
53.545888665485258
 33
0.0
210
0.0
220
0.0
230
1.0
  0
SOLID
  5
716
  8
DRG
  6
CONTINUOUS
 62
     7
 10
50.46848239408844
 20
55.452912136660011
 30
0.0
 11
47.983201019849879
 21
53.54588866548535
 31
0.0
 12
68.280536421539182
 22
55.452912136659961
 32
0.0
 13
68.280536421539182
 23
55.452912136659961
 33
0.0
210
0.0
220
0.0
230
1.0
  0
SOLID
  5
717
  8
DRG
  6
CONTINUOUS
 62
     7
 10
165.0467076242989
 20
55.479093148836768
 30
0.0
 11
145.0997007305034
 21
53.84006797904842
 31
0.0
 12
167.52163335736839
 22
53.601455089215932
 32
0.0
 13
167.52163335736839
 23
53.601455089215932
 33
0.0
210
0.0
220
0.0
230
1.0
  0
SOLID
  5
718
  8
DRG
  6
CONTINUOUS
 62
     7
 10
147.52643268124129
 20
55.591220224334457
 30
0.0
 11
145.0997007305034
 21
53.84006797904842
 31
0.0
 12
165.0467076242989
 22
55.479093148836768
 32
0.0
 13
165.0467076242989
 23
55.479093148836768
 33
0.0
210
0.0
220
0.0
230
1.0
  0
SOLID
  5
719
  8
DRG
  6
CONTINUOUS
 62
     7
 10
87.687510497446496
 20
55.591793607886558
 30
0.0
 11
85.261041575894609
 21
53.84129081468609
 31
0.0
 12
105.2523129779601
 22
55.452912136659961
 32
0.0
 13
105.2523129779601
 23
55.452912136659961
 33
0.0
  0
SOLID
  5
71A
  8
DRG
  6
CONTINUOUS
 62
     7
 10
12.805281404658791
 20
56.352712835998311
 30
0.0
 11
10.42981956125807
 21
54.445496591066302
 31
0.0
 12
24.97349704072932
 22
55.367344616504027
 32
0.0
 13
24.97349704072932
 23
55.367344616504027
 33
0.0
210
0.0
220
0.0
230
1.0
  0
SOLID
  5
71B
  8
DRG
  6
CONTINUOUS
 62
     7
 10
131.36827517159969
 20
56.399981316747272
 30
0.0
 11
129.0836962561232
 21
55.014863471122233
 31
0.0
 12
136.6041529029215
 22
48.740104065808111
 32
0.0
 13
136.6041529029215
 23
48.740104065808111
 33
0.0
  0
SOLID
  5
71C
  8
DRG
  6
CONTINUOUS
 62
     7
 10
65.386364962769434
 20
56.65171720671551
 30
0.0
 11
50.46848239408844
 21
55.452912136660011
 31
0.0
 12
68.280536421539182
 22
55.452912136659961
 32
0.0
 13
68.280536421539182
 23
55.452912136659961
 33
0.0
210
0.0
220
0.0
230
1.0
  0
SOLID
  5
71D
  8
DRG
  6
CONTINUOUS
 62
     7
 10
102.3581415191904
 20
56.65171720671551
 30
0.0
 11
87.687510497446496
 21
55.591793607886558
 31
0.0
 12
105.2523129779601
 22
55.452912136659961
 32
0.0
 13
105.2523129779601
 23
55.452912136659961
 33
0.0
  0
SOLID
  5
71E
  8
DRG
  6
CONTINUOUS
 62
     7
 10
53.362653852858159
 20
56.651717206715531
 30
0.0
 11
50.46848239408844
 21
55.452912136660011
 31
0.0
 12
65.386364962769434
 22
56.65171720671551
 32
0.0
 13
65.386364962769434
 23
56.65171720671551
 33
0.0
210
0.0
220
0.0
230
1.0
  0
SOLID
  5
71F
  8
DRG
  6
CONTINUOUS
 62
     7
 10
162.1727205159668
 20
56.658491371782269
 30
0.0
 11
147.52643268124129
 21
55.591220224334457
 31
0.0
 12
165.0467076242989
 22
55.479093148836768
 32
0.0
 13
165.0467076242989
 23
55.479093148836768
 33
0.0
210
0.0
220
0.0
230
1.0
  0
SOLID
  5
720
  8
DRG
  6
CONTINUOUS
 62
     7
 10
150.311001405843
 20
56.687458868459103
 30
0.0
 11
147.52643268124129
 21
55.591220224334457
 31
0.0
 12
162.1727205159668
 22
56.658491371782269
 32
0.0
 13
162.1727205159668
 23
56.658491371782269
 33
0.0
210
0.0
220
0.0
230
1.0
  0
SOLID
  5
721
  8
DRG
  6
CONTINUOUS
 62
     7
 10
90.47160907217058
 20
56.687606813902534
 30
0.0
 11
87.687510497446496
 21
55.591793607886558
 31
0.0
 12
102.3581415191904
 22
56.65171720671551
 32
0.0
 13
102.3581415191904
 23
56.65171720671551
 33
0.0
210
0.0
220
0.0
230
1.0
  0
SOLID
  5
722
  8
DRG
  6
CONTINUOUS
 62
     7
 10
23.111648298363178
 20
56.840696773085902
 30
0.0
 11
12.805281404658791
 21
56.352712835998311
 31
0.0
 12
24.97349704072932
 22
55.367344616504027
 32
0.0
 13
24.97349704072932
 23
55.367344616504027
 33
0.0
210
0.0
220
0.0
230
1.0
  0
SOLID
  5
723
  8
DRG
  6
CONTINUOUS
 62
     7
 10
90.47160907217058
 20
56.687606813902534
 30
0.0
 11
99.252312977960173
 21
57.06060729124669
 31
0.0
 12
93.440258950509346
 22
57.06060729124669
 32
0.0
 13
93.440258950509346
 23
57.06060729124669
 33
0.0
210
0.0
220
0.0
230
1.0
  0
SOLID
  5
724
  8
DRG
  6
CONTINUOUS
 62
     7
 10
99.252312977960173
 20
57.06060729124669
 30
0.0
 11
90.47160907217058
 21
56.687606813902534
 31
0.0
 12
102.3581415191904
 22
56.65171720671551
 32
0.0
 13
102.3581415191904
 23
56.65171720671551
 33
0.0
210
0.0
220
0.0
230
1.0
  0
SOLID
  5
725
  8
DRG
  6
CONTINUOUS
 62
     7
 10
27.267121908897021
 20
51.255838552818979
 30
0.0
 11
37.639779947293832
 21
57.06060729124669
 31
0.0
 12
27.267121908897028
 22
57.06060729124669
 32
0.0
 13
27.267121908897028
 23
57.06060729124669
 33
0.0
210
0.0
220
0.0
230
1.0
  0
SOLID
  5
726
  8
DRG
  6
CONTINUOUS
 62
     7
 10
37.639779947293832
 20
57.06060729124669
 30
0.0
 11
27.267121908897021
 21
51.255838552818979
 31
0.0
 12
37.639779947293839
 22
13.760967175618781
 32
0.0
 13
37.639779947293839
 23
13.760967175618781
 33
0.0
  0
SOLID
  5
727
  8
DRG
  6
CONTINUOUS
 62
     7
 10
150.311001405843
 20
56.687458868459103
 30
0.0
 11
159.0922846938046
 21
57.06060729124669
 31
0.0
 12
153.28023066635379
 22
57.06060729124669
 32
0.0
 13
153.28023066635379
 23
57.06060729124669
 33
0.0
210
0.0
220
0.0
230
1.0
  0
SOLID
  5
728
  8
DRG
  6
CONTINUOUS
 62
     7
 10
159.0922846938046
 20
57.06060729124669
 30
0.0
 11
150.311001405843
 21
56.687458868459103
 31
0.0
 12
162.1727205159668
 22
56.658491371782269
 32
0.0
 13
162.1727205159668
 23
56.658491371782269
 33
0.0
210
0.0
220
0.0
230
1.0
  0
SOLID
  5
729
  8
DRG
  6
CONTINUOUS
 62
     7
 10
53.362653852858159
 20
56.651717206715531
 30
0.0
 11
62.280536421539182
 21
57.06060729124669
 31
0.0
 12
56.468482394088369
 22
57.06060729124669
 32
0.0
 13
56.468482394088369
 23
57.06060729124669
 33
0.0
210
0.0
220
0.0
230
1.0
  0
SOLID
  5
72A
  8
DRG
  6
CONTINUOUS
 62
     7
 10
62.280536421539182
 20
57.06060729124669
 30
0.0
 11
53.362653852858159
 21
56.651717206715531
 31
0.0
 12
65.386364962769434
 22
56.65171720671551
 32
0.0
 13
65.386364962769434
 23
56.65171720671551
 33
0.0
210
0.0
220
0.0
230
1.0
  0
SOLID
  5
72B
  8
DRG
  6
CONTINUOUS
 62
     7
 10
133.93314657289841
 20
57.147836223870669
 30
0.0
 11
131.36827517159969
 21
56.399981316747272
 31
0.0
 12
136.6041529029215
 22
48.740104065808111
 32
0.0
 13
136.6041529029215
 23
48.740104065808111
 33
0.0
210
0.0
220
0.0
230
1.0
  0
SOLID
  5
72C
  8
DRG
  6
CONTINUOUS
 62
     7
 10
127.2345352189994
 20
53.086533694841222
 30
0.0
 11
127.2345352189994
 21
57.207648031108022
 31
0.0
 12
116.19314081319391
 22
57.207648031108022
 32
0.0
 13
116.19314081319391
 23
57.207648031108022
 33
0.0
210
0.0
220
0.0
230
1.0
  0
SOLID
  5
72D
  8
DRG
  6
CONTINUOUS
 62
     7
 10
116.19314081319391
 20
57.207648031108022
 30
0.0
 11
116.19314081319391
 21
17.28637227261407
 31
0.0
 12
127.2345352189994
 22
53.086533694841222
 32
0.0
 13
127.2345352189994
 23
53.086533694841222
 33
0.0
210
0.0
220
0.0
230
1.0
  0
SOLID
  5
72E
  8
DRG
  6
CONTINUOUS
 62
     7
 10
136.6041529029215
 20
57.207648031108022
 30
0.0
 11
133.93314657289841
 21
57.147836223870669
 31
0.0
 12
136.6041529029215
 22
48.740104065808111
 32
0.0
 13
136.6041529029215
 23
48.740104065808111
 33
0.0
210
0.0
220
0.0
230
1.0
  0
SOLID
  5
72F
  8
DRG
  6
CONTINUOUS
 62
     7
 10
15.581604271471219
 20
57.606636323935128
 30
0.0
 11
12.805281404658791
 21
56.352712835998311
 31
0.0
 12
23.111648298363178
 22
56.840696773085902
 32
0.0
 13
23.111648298363178
 23
56.840696773085902
 33
0.0
210
0.0
220
0.0
230
1.0
  0
SOLID
  5
730
  8
DRG
  6
CONTINUOUS
 62
     7
 10
20.932030560438331
 20
57.78224540872732
 30
0.0
 11
15.581604271471219
 21
57.606636323935128
 31
0.0
 12
23.111648298363178
 22
56.840696773085902
 32
0.0
 13
23.111648298363178
 23
56.840696773085902
 33
0.0
210
0.0
220
0.0
230
1.0
  0
SOLID
  5
731
  8
DRG
  6
CONTINUOUS
 62
     7
 10
18.58303542025671
 20
58.127888502333931
 30
0.0
 11
15.581604271471219
 21
57.606636323935128
 31
0.0
 12
20.932030560438331
 22
57.78224540872732
 32
0.0
 13
20.932030560438331
 23
57.78224540872732
 33
0.0
210
0.0
220
0.0
230
1.0
  0
SOLID
  5
732
  8
DRG
  6
CONTINUOUS
 62
     7
 10
82.673677075028507
 20
61.207576574819242
 30
0.0
 11
75.331191210151701
 21
60.89733173546756
 31
0.0
 12
80.675802928262684
 22
60.89733173546756
 32
0.0
 13
80.675802928262684
 23
60.89733173546756
 33
0.0
210
0.0
220
0.0
230
1.0
  0
SOLID
  5
733
  8
DRG
  6
CONTINUOUS
 62
     7
 10
72.859055255152114
 20
61.288879605106331
 30
0.0
 11
75.331191210151701
 21
60.89733173546756
 31
0.0
 12
82.673677075028507
 22
61.207576574819242
 32
0.0
 13
82.673677075028507
 23
61.207576574819242
 33
0.0
210
0.0
220
0.0
230
1.0
  0
SOLID
  5
734
  8
DRG
  6
CONTINUOUS
 62
     7
 10
106.7676596048646
 20
61.306220292551458
 30
0.0
 11
97.849782736700035
 21
60.89733173546756
 31
0.0
 12
103.66183676415081
 22
60.89733173546756
 32
0.0
 13
103.66183676415081
 23
60.89733173546756
 33
0.0
210
0.0
220
0.0
230
1.0
  0
SOLID
  5
735
  8
DRG
  6
CONTINUOUS
 62
     7
 10
50.75601976783048
 20
61.306220292551458
 30
0.0
 11
41.838142899665847
 21
60.89733173546756
 31
0.0
 12
47.650196927116667
 22
60.89733173546756
 32
0.0
 13
47.650196927116667
 23
60.89733173546756
 33
0.0
210
0.0
220
0.0
230
1.0
  0
SOLID
  5
736
  8
DRG
  6
CONTINUOUS
 62
     7
 10
38.732314358435659
 20
61.306221819998719
 30
0.0
 11
41.838142899665847
 21
60.89733173546756
 31
0.0
 12
50.75601976783048
 22
61.306220292551458
 32
0.0
 13
50.75601976783048
 23
61.306220292551458
 33
0.0
  0
SOLID
  5
737
  8
DRG
  6
CONTINUOUS
 62
     7
 10
94.743954195469783
 20
61.306221819998733
 30
0.0
 11
97.849782736700035
 21
60.89733173546756
 31
0.0
 12
106.7676596048646
 22
61.306220292551458
 32
0.0
 13
106.7676596048646
 23
61.306220292551458
 33
0.0
210
0.0
220
0.0
230
1.0
  0
SOLID
  5
738
  8
DRG
  6
CONTINUOUS
 62
     7
 10
84.501142256151084
 20
62.072518178885289
 30
0.0
 11
72.859055255152114
 21
61.288879605106331
 31
0.0
 12
82.673677075028507
 22
61.207576574819242
 32
0.0
 13
82.673677075028507
 23
61.207576574819242
 33
0.0
210
0.0
220
0.0
230
1.0
  0
SOLID
  5
739
  8
DRG
  6
CONTINUOUS
 62
     7
 10
70.628909191811914
 20
62.42519578046798
 30
0.0
 11
72.859055255152114
 21
61.288879605106331
 31
0.0
 12
84.501142256151084
 22
62.072518178885289
 32
0.0
 13
84.501142256151084
 23
62.072518178885289
 33
0.0
210
0.0
220
0.0
230
1.0
  0
SOLID
  5
73A
  8
DRG
  6
CONTINUOUS
 62
     7
 10
109.66182654226211
 20
62.505020988450823
 30
0.0
 11
94.743954195469783
 21
61.306221819998733
 31
0.0
 12
106.7676596048646
 22
61.306220292551458
 32
0.0
 13
106.7676596048646
 23
61.306220292551458
 33
0.0
210
0.0
220
0.0
230
1.0
  0
SOLID
  5
73B
  8
DRG
  6
CONTINUOUS
 62
     7
 10
53.650186705228002
 20
62.505020988450823
 30
0.0
 11
38.732314358435659
 21
61.306221819998719
 31
0.0
 12
50.75601976783048
 22
61.306220292551458
 32
0.0
 13
50.75601976783048
 23
61.306220292551458
 33
0.0
210
0.0
220
0.0
230
1.0
  0
SOLID
  5
73C
  8
DRG
  6
CONTINUOUS
 62
     7
 10
35.838142899665947
 20
62.505026890054232
 30
0.0
 11
38.732314358435659
 21
61.306221819998719
 31
0.0
 12
53.650186705228002
 22
62.505020988450823
 32
0.0
 13
53.650186705228002
 23
62.505020988450823
 33
0.0
  0
SOLID
  5
73D
  8
DRG
  6
CONTINUOUS
 62
     7
 10
91.849782736700064
 20
62.505026890054282
 30
0.0
 11
94.743954195469783
 21
61.306221819998733
 31
0.0
 12
109.66182654226211
 22
62.505020988450823
 32
0.0
 13
109.66182654226211
 23
62.505020988450823
 33
0.0
210
0.0
220
0.0
230
1.0
  0
SOLID
  5
73E
  8
DRG
  6
CONTINUOUS
 62
     7
 10
68.859055255152114
 20
64.195049717127773
 30
0.0
 11
70.628909191811914
 21
62.42519578046798
 31
0.0
 12
84.501142256151084
 22
62.072518178885289
 32
0.0
 13
84.501142256151084
 23
62.072518178885289
 33
0.0
210
0.0
220
0.0
230
1.0
  0
SOLID
  5
73F
  8
DRG
  6
CONTINUOUS
 62
     7
 10
56.135465782143839
 20
64.412037842036057
 30
0.0
 11
35.838142899665947
 21
62.505026890054232
 31
0.0
 12
53.650186705228002
 22
62.505020988450823
 32
0.0
 13
53.650186705228002
 23
62.505020988450823
 33
0.0
210
0.0
220
0.0
230
1.0
  0
SOLID
  5
740
  8
DRG
  6
CONTINUOUS
 62
     7
 10
112.14710561917801
 20
64.412037842036057
 30
0.0
 11
91.849782736700064
 21
62.505026890054282
 31
0.0
 12
109.66182654226211
 22
62.505020988450823
 32
0.0
 13
109.66182654226211
 23
62.505020988450823
 33
0.0
210
0.0
220
0.0
230
1.0
  0
SOLID
  5
741
  8
DRG
  6
CONTINUOUS
 62
     7
 10
33.352861525427407
 20
64.412050361228864
 30
0.0
 11
35.838142899665947
 21
62.505026890054232
 31
0.0
 12
56.135465782143839
 22
64.412037842036057
 32
0.0
 13
56.135465782143839
 23
64.412037842036057
 33
0.0
210
0.0
220
0.0
230
1.0
  0
SOLID
  5
742
  8
DRG
  6
CONTINUOUS
 62
     7
 10
89.364501362461496
 20
64.412050361228964
 30
0.0
 11
91.849782736700064
 21
62.505026890054282
 31
0.0
 12
112.14710561917801
 22
64.412037842036057
 32
0.0
 13
112.14710561917801
 23
64.412037842036057
 33
0.0
210
0.0
220
0.0
230
1.0
  0
SOLID
  5
743
  8
DRG
  6
CONTINUOUS
 62
     7
 10
67.722739079790472
 20
66.425195780467973
 30
0.0
 11
68.859055255152114
 21
64.195049717127773
 31
0.0
 12
84.501142256151084
 22
62.072518178885289
 32
0.0
 13
84.501142256151084
 23
62.072518178885289
 33
0.0
210
0.0
220
0.0
230
1.0
  0
SOLID
  5
744
  8
DRG
  6
CONTINUOUS
 62
     7
 10
114.054129806327
 20
66.897311291707624
 30
0.0
 11
89.364501362461496
 21
64.412050361228964
 31
0.0
 12
112.14710561917801
 22
64.412037842036057
 32
0.0
 13
112.14710561917801
 23
64.412037842036057
 33
0.0
  0
SOLID
  5
745
  8
DRG
  6
CONTINUOUS
 62
     7
 10
58.042489969292831
 20
66.897311291707624
 30
0.0
 11
33.352861525427407
 21
64.412050361228864
 31
0.0
 12
56.135465782143839
 22
64.412037842036057
 32
0.0
 13
56.135465782143839
 23
64.412037842036057
 33
0.0
210
0.0
220
0.0
230
1.0
  0
SOLID
  5
746
  8
DRG
  6
CONTINUOUS
 62
     7
 10
31.445838054252711
 20
66.897331735467347
 30
0.0
 11
33.352861525427407
 21
64.412050361228864
 31
0.0
 12
58.042489969292831
 22
66.897311291707624
 32
0.0
 13
58.042489969292831
 23
66.897311291707624
 33
0.0
210
0.0
220
0.0
230
1.0
  0
SOLID
  5
747
  8
DRG
  6
CONTINUOUS
 62
     7
 10
87.4574778912868
 20
66.897331735467517
 30
0.0
 11
89.364501362461496
 21
64.412050361228964
 31
0.0
 12
114.054129806327
 22
66.897311291707624
 32
0.0
 13
114.054129806327
 23
66.897311291707624
 33
0.0
210
0.0
220
0.0
230
1.0
  0
SOLID
  5
748
  8
DRG
  6
CONTINUOUS
 62
     7
 10
44.744171147941039
 20
68.794444026784149
 30
0.0
 11
31.445838054252711
 21
66.897331735467347
 31
0.0
 12
58.042489969292831
 22
66.897311291707624
 32
0.0
 13
58.042489969292831
 23
66.897311291707624
 33
0.0
210
0.0
220
0.0
230
1.0
  0
SOLID
  5
749
  8
DRG
  6
CONTINUOUS
 62
     7
 10
100.7558109849752
 20
68.794444026784163
 30
0.0
 11
87.4574778912868
 21
66.897331735467517
 31
0.0
 12
114.054129806327
 22
66.897311291707624
 32
0.0
 13
114.054129806327
 23
66.897311291707624
 33
0.0
210
0.0
220
0.0
230
1.0
  0
SOLID
  5
74A
  8
DRG
  6
CONTINUOUS
 62
     7
 10
67.331191210151701
 20
68.89733173546756
 30
0.0
 11
67.722739079790472
 21
66.425195780467973
 31
0.0
 12
84.501142256151084
 22
62.072518178885289
 32
0.0
 13
84.501142256151084
 23
62.072518178885289
 33
0.0
210
0.0
220
0.0
230
1.0
  0
SOLID
  5
74B
  8
DRG
  6
CONTINUOUS
 62
     7
 10
46.221788157680002
 20
69.088360324271363
 30
0.0
 11
44.744171147941039
 21
68.794444026784149
 31
0.0
 12
58.042489969292831
 22
66.897311291707624
 32
0.0
 13
58.042489969292831
 23
66.897311291707624
 33
0.0
210
0.0
220
0.0
230
1.0
  0
SOLID
  5
74C
  8
DRG
  6
CONTINUOUS
 62
     7
 10
102.23342799471411
 20
69.088360324271378
 30
0.0
 11
100.7558109849752
 21
68.794444026784163
 31
0.0
 12
114.054129806327
 22
66.897311291707624
 32
0.0
 13
114.054129806327
 23
66.897311291707624
 33
0.0
210
0.0
220
0.0
230
1.0
  0
SOLID
  5
74D
  8
DRG
  6
CONTINUOUS
 62
     7
 10
43.266554138202238
 20
69.088360324272159
 30
0.0
 11
31.445838054252711
 21
66.897331735467347
 31
0.0
 12
44.744171147941039
 22
68.794444026784149
 32
0.0
 13
44.744171147941039
 23
68.794444026784149
 33
0.0
210
0.0
220
0.0
230
1.0
  0
SOLID
  5
74E
  8
DRG
  6
CONTINUOUS
 62
     7
 10
99.278193975236434
 20
69.088360324272173
 30
0.0
 11
87.4574778912868
 21
66.897331735467517
 31
0.0
 12
100.7558109849752
 22
68.794444026784163
 32
0.0
 13
100.7558109849752
 23
68.794444026784163
 33
0.0
210
0.0
220
0.0
230
1.0
  0
SOLID
  5
74F
  8
DRG
  6
CONTINUOUS
 62
     7
 10
115.2529390423412
 20
69.79147469166638
 30
0.0
 11
102.23342799471411
 21
69.088360324271378
 31
0.0
 12
114.054129806327
 22
66.897311291707624
 32
0.0
 13
114.054129806327
 23
66.897311291707624
 33
0.0
210
0.0
220
0.0
230
1.0
  0
SOLID
  5
750
  8
DRG
  6
CONTINUOUS
 62
     7
 10
59.241299205307058
 20
69.79147469166638
 30
0.0
 11
46.221788157680002
 21
69.088360324271363
 31
0.0
 12
58.042489969292831
 22
66.897311291707624
 32
0.0
 13
58.042489969292831
 23
66.897311291707624
 33
0.0
210
0.0
220
0.0
230
1.0
  0
SOLID
  5
751
  8
DRG
  6
CONTINUOUS
 62
     7
 10
30.247032984197109
 20
69.791503194237023
 30
0.0
 11
31.445838054252711
 21
66.897331735467347
 31
0.0
 12
43.266554138202238
 22
69.088360324272159
 32
0.0
 13
43.266554138202238
 23
69.088360324272159
 33
0.0
210
0.0
220
0.0
230
1.0
  0
SOLID
  5
752
  8
DRG
  6
CONTINUOUS
 62
     7
 10
86.258672821231215
 20
69.791503194237237
 30
0.0
 11
87.4574778912868
 21
66.897331735467517
 31
0.0
 12
99.278193975236434
 22
69.088360324272173
 32
0.0
 13
99.278193975236434
 23
69.088360324272173
 33
0.0
210
0.0
220
0.0
230
1.0
  0
SOLID
  5
753
  8
DRG
  6
CONTINUOUS
 62
     7
 10
80.482556033578916
 20
69.876055965300111
 30
0.0
 11
67.331191210151701
 21
68.89733173546756
 31
0.0
 12
84.501142256151084
 22
62.072518178885289
 32
0.0
 13
84.501142256151084
 23
62.072518178885289
 33
0.0
210
0.0
220
0.0
230
1.0
  0
SOLID
  5
754
  8
DRG
  6
CONTINUOUS
 62
     7
 10
84.501142256151084
 20
62.072518178885289
 30
0.0
 11
83.501142256151255
 21
69.876055965300111
 31
0.0
 12
80.482556033578916
 22
69.876055965300111
 32
0.0
 13
80.482556033578916
 23
69.876055965300111
 33
0.0
210
0.0
220
0.0
230
1.0
  0
SOLID
  5
755
  8
DRG
  6
CONTINUOUS
 62
     7
 10
47.474451372317922
 20
69.925363124799233
 30
0.0
 11
46.221788157680002
 21
69.088360324271363
 31
0.0
 12
59.241299205307058
 22
69.79147469166638
 32
0.0
 13
59.241299205307058
 23
69.79147469166638
 33
0.0
210
0.0
220
0.0
230
1.0
  0
SOLID
  5
756
  8
DRG
  6
CONTINUOUS
 62
     7
 10
103.4860912093521
 20
69.925363124799233
 30
0.0
 11
102.23342799471411
 21
69.088360324271378
 31
0.0
 12
115.2529390423412
 22
69.79147469166638
 32
0.0
 13
115.2529390423412
 23
69.79147469166638
 33
0.0
210
0.0
220
0.0
230
1.0
  0
SOLID
  5
757
  8
DRG
  6
CONTINUOUS
 62
     7
 10
42.01389092356478
 20
69.925363124800725
 30
0.0
 11
30.247032984197109
 21
69.791503194237023
 31
0.0
 12
43.266554138202238
 22
69.088360324272159
 32
0.0
 13
43.266554138202238
 23
69.088360324272159
 33
0.0
210
0.0
220
0.0
230
1.0
  0
SOLID
  5
758
  8
DRG
  6
CONTINUOUS
 62
     7
 10
98.025530760598997
 20
69.925363124800725
 30
0.0
 11
86.258672821231215
 21
69.791503194237237
 31
0.0
 12
99.278193975236434
 22
69.088360324272173
 32
0.0
 13
99.278193975236434
 23
69.088360324272173
 33
0.0
210
0.0
220
0.0
230
1.0
  0
SOLID
  5
759
  8
DRG
  6
CONTINUOUS
 62
     7
 10
84.015250681967487
 20
70.00375669518948
 30
0.0
 11
83.501142256151255
 21
69.876055965300111
 31
0.0
 12
84.501142256151084
 22
62.072518178885289
 32
0.0
 13
84.501142256151084
 23
62.072518178885289
 33
0.0
  0
SOLID
  5
75A
  8
DRG
  6
CONTINUOUS
 62
     7
 10
84.501142256151084
 20
70.214764581409185
 30
0.0
 11
84.015250681967487
 21
70.00375669518948
 31
0.0
 12
84.501142256151084
 22
62.072518178885289
 32
0.0
 13
84.501142256151084
 23
62.072518178885289
 33
0.0
210
0.0
220
0.0
230
1.0
  0
SOLID
  5
75B
  8
DRG
  6
CONTINUOUS
 62
     7
 10
78.982556033578931
 20
70.277979753946795
 30
0.0
 11
67.331191210151701
 21
68.89733173546756
 31
0.0
 12
80.482556033578916
 22
69.876055965300111
 32
0.0
 13
80.482556033578916
 23
69.876055965300111
 33
0.0
210
0.0
220
0.0
230
1.0
  0
SOLID
  5
75C
  8
DRG
  6
CONTINUOUS
 62
     7
 10
48.311454172846467
 20
71.178026339436684
 30
0.0
 11
47.474451372317922
 21
69.925363124799233
 31
0.0
 12
59.241299205307058
 22
69.79147469166638
 32
0.0
 13
59.241299205307058
 23
69.79147469166638
 33
0.0
210
0.0
220
0.0
230
1.0
  0
SOLID
  5
75D
  8
DRG
  6
CONTINUOUS
 62
     7
 10
104.32309400988061
 20
71.178026339436713
 30
0.0
 11
103.4860912093521
 21
69.925363124799233
 31
0.0
 12
115.2529390423412
 22
69.79147469166638
 32
0.0
 13
115.2529390423412
 23
69.79147469166638
 33
0.0
210
0.0
220
0.0
230
1.0
  0
SOLID
  5
75E
  8
DRG
  6
CONTINUOUS
 62
     7
 10
41.17688812303691
 20
71.178026339438631
 30
0.0
 11
30.247032984197109
 21
69.791503194237023
 31
0.0
 12
42.01389092356478
 22
69.925363124800725
 32
0.0
 13
42.01389092356478
 23
69.925363124800725
 33
0.0
210
0.0
220
0.0
230
1.0
  0
SOLID
  5
75F
  8
DRG
  6
CONTINUOUS
 62
     7
 10
97.188527960071099
 20
71.178026339438631
 30
0.0
 11
86.258672821231215
 21
69.791503194237237
 31
0.0
 12
98.025530760598997
 22
69.925363124800725
 32
0.0
 13
98.025530760598997
 23
69.925363124800725
 33
0.0
  0
SOLID
  5
760
  8
DRG
  6
CONTINUOUS
 62
     7
 10
77.884479822225614
 20
71.376055965300111
 30
0.0
 11
67.331191210151701
 21
68.89733173546756
 31
0.0
 12
78.982556033578931
 22
70.277979753946795
 32
0.0
 13
78.982556033578931
 23
70.277979753946795
 33
0.0
210
0.0
220
0.0
230
1.0
  0
SOLID
  5
761
  8
DRG
  6
CONTINUOUS
 62
     7
 10
48.605370470334492
 20
72.655643349175492
 30
0.0
 11
48.311454172846467
 21
71.178026339436684
 31
0.0
 12
59.241299205307058
 22
69.79147469166638
 32
0.0
 13
59.241299205307058
 23
69.79147469166638
 33
0.0
210
0.0
220
0.0
230
1.0
  0
SOLID
  5
762
  8
DRG
  6
CONTINUOUS
 62
     7
 10
104.6170103073686
 20
72.655643349175506
 30
0.0
 11
104.32309400988061
 21
71.178026339436713
 31
0.0
 12
115.2529390423412
 22
69.79147469166638
 32
0.0
 13
115.2529390423412
 23
69.79147469166638
 33
0.0
  0
SOLID
  5
763
  8
DRG
  6
CONTINUOUS
 62
     7
 10
40.882971825549703
 20
72.655643349177566
 30
0.0
 11
30.247032984197109
 21
69.791503194237023
 31
0.0
 12
41.17688812303691
 22
71.178026339438631
 32
0.0
 13
41.17688812303691
 23
71.178026339438631
 33
0.0
210
0.0
220
0.0
230
1.0
  0
SOLID
  5
764
  8
DRG
  6
CONTINUOUS
 62
     7
 10
96.894611662583884
 20
72.655643349177595
 30
0.0
 11
86.258672821231215
 21
69.791503194237237
 31
0.0
 12
97.188527960071099
 22
71.178026339438631
 32
0.0
 13
97.188527960071099
 23
71.178026339438631
 33
0.0
210
0.0
220
0.0
230
1.0
  0
SOLID
  5
765
  8
DRG
  6
CONTINUOUS
 62
     7
 10
77.482556033578931
 20
72.876055965300111
 30
0.0
 11
67.331191210151701
 21
68.89733173546756
 31
0.0
 12
77.884479822225614
 22
71.376055965300111
 32
0.0
 13
77.884479822225614
 23
71.376055965300111
 33
0.0
210
0.0
220
0.0
230
1.0
  0
SOLID
  5
766
  8
DRG
  6
CONTINUOUS
 62
     7
 10
115.6618367640986
 20
72.897296325816527
 30
0.0
 11
104.6170103073686
 21
72.655643349175506
 31
0.0
 12
115.2529390423412
 22
69.79147469166638
 32
0.0
 13
115.2529390423412
 23
69.79147469166638
 33
0.0
210
0.0
220
0.0
230
1.0
  0
SOLID
  5
767
  8
DRG
  6
CONTINUOUS
 62
     7
 10
59.650196927064421
 20
72.897296325816555
 30
0.0
 11
48.605370470334492
 21
72.655643349175492
 31
0.0
 12
59.241299205307058
 22
69.79147469166638
 32
0.0
 13
59.241299205307058
 23
69.79147469166638
 33
0.0
210
0.0
220
0.0
230
1.0
  0
SOLID
  5
768
  8
DRG
  6
CONTINUOUS
 62
     7
 10
29.838142899665851
 20
72.897331735467191
 30
0.0
 11
30.247032984197109
 21
69.791503194237023
 31
0.0
 12
40.882971825549703
 22
72.655643349177566
 32
0.0
 13
40.882971825549703
 23
72.655643349177566
 33
0.0
210
0.0
220
0.0
230
1.0
  0
SOLID
  5
769
  8
DRG
  6
CONTINUOUS
 62
     7
 10
85.849782736700035
 20
72.897331735467475
 30
0.0
 11
86.258672821231215
 21
69.791503194237237
 31
0.0
 12
96.894611662583884
 22
72.655643349177595
 32
0.0
 13
96.894611662583884
 23
72.655643349177595
 33
0.0
210
0.0
220
0.0
230
1.0
  0
SOLID
  5
76A
  8
DRG
  6
CONTINUOUS
 62
     7
 10
165.4162645291251
 20
78.311404477182364
 30
0.0
 11
161.3332883364622
 21
62.115696081838678
 31
0.0
 12
171.78072804963571
 22
62.115696081838678
 32
0.0
 13
171.78072804963571
 23
62.115696081838678
 33
0.0
210
0.0
220
0.0
230
1.0
  0
SOLID
  5
76B
  8
DRG
  6
CONTINUOUS
 62
     7
 10
104.83699487280531
 20
81.496816718755184
 30
0.0
 11
104.6170103073686
 21
72.655643349175506
 31
0.0
 12
115.6618367640986
 22
72.897296325816527
 32
0.0
 13
115.6618367640986
 23
72.897296325816527
 33
0.0
210
0.0
220
0.0
230
1.0
  0
SOLID
  5
76C
  8
DRG
  6
CONTINUOUS
 62
     7
 10
48.825355035771203
 20
81.496816718755184
 30
0.0
 11
48.605370470334492
 21
72.655643349175492
 31
0.0
 12
59.650196927064421
 22
72.897296325816555
 32
0.0
 13
59.650196927064421
 23
72.897296325816555
 33
0.0
210
0.0
220
0.0
230
1.0
  0
SOLID
  5
76D
  8
DRG
  6
CONTINUOUS
 62
     7
 10
115.9613008061006
 20
81.496816718755412
 30
0.0
 11
104.83699487280531
 21
81.496816718755184
 31
0.0
 12
115.6618367640986
 22
72.897296325816527
 32
0.0
 13
115.6618367640986
 23
72.897296325816527
 33
0.0
210
0.0
220
0.0
230
1.0
  0
SOLID
  5
76E
  8
DRG
  6
CONTINUOUS
 62
     7
 10
59.9496609690664
 20
81.49681671875544
 30
0.0
 11
48.825355035771203
 21
81.496816718755184
 31
0.0
 12
59.650196927064421
 22
72.897296325816555
 32
0.0
 13
59.650196927064421
 23
72.897296325816555
 33
0.0
210
0.0
220
0.0
230
1.0
  0
SOLID
  5
76F
  8
DRG
  6
CONTINUOUS
 62
     7
 10
29.538681326817759
 20
81.496816718755596
 30
0.0
 11
29.838142899665851
 21
72.897331735467191
 31
0.0
 12
40.882971825549703
 22
72.655643349177566
 32
0.0
 13
40.882971825549703
 23
72.655643349177566
 33
0.0
  0
SOLID
  5
770
  8
DRG
  6
CONTINUOUS
 62
     7
 10
85.550321163851976
 20
81.496816718755767
 30
0.0
 11
85.849782736700035
 21
72.897331735467475
 31
0.0
 12
96.894611662583884
 22
72.655643349177595
 32
0.0
 13
96.894611662583884
 23
72.655643349177595
 33
0.0
210
0.0
220
0.0
230
1.0
  0
SOLID
  5
771
  8
DRG
  6
CONTINUOUS
 62
     7
 10
40.662987260112992
 20
81.496816718755866
 30
0.0
 11
29.538681326817759
 21
81.496816718755596
 31
0.0
 12
40.882971825549703
 22
72.655643349177566
 32
0.0
 13
40.882971825549703
 23
72.655643349177566
 33
0.0
210
0.0
220
0.0
230
1.0
  0
SOLID
  5
772
  8
DRG
  6
CONTINUOUS
 62
     7
 10
96.674627097147194
 20
81.496816718756293
 30
0.0
 11
85.550321163851976
 21
81.496816718755767
 31
0.0
 12
96.894611662583884
 22
72.655643349177595
 32
0.0
 13
96.894611662583884
 23
72.655643349177595
 33
0.0
210
0.0
220
0.0
230
1.0
  0
SOLID
  5
773
  8
DRG
  6
CONTINUOUS
 62
     7
 10
153.2899770207527
 20
82.583583780839575
 30
0.0
 11
161.3332883364622
 21
62.115696081838678
 31
0.0
 12
165.4162645291251
 22
78.311404477182364
 32
0.0
 13
165.4162645291251
 23
78.311404477182364
 33
0.0
210
0.0
220
0.0
230
1.0
  0
SOLID
  5
774
  8
DRG
  6
CONTINUOUS
 62
     7
 10
18.821661727211438
 20
85.569427875032716
 30
0.0
 11
7.7802673214059723
 21
62.115696081838671
 31
0.0
 12
18.821661727211438
 22
62.115696081838678
 32
0.0
 13
18.821661727211438
 23
62.115696081838678
 33
0.0
  0
SOLID
  5
775
  8
DRG
  6
CONTINUOUS
 62
     7
 10
130.05101171535759
 20
85.569427875032716
 30
0.0
 11
119.0096173095521
 21
62.115696081838678
 31
0.0
 12
130.05101171535759
 22
62.115696081838671
 32
0.0
 13
130.05101171535759
 23
62.115696081838671
 33
0.0
210
0.0
220
0.0
230
1.0
  0
SOLID
  5
776
  8
DRG
  6
CONTINUOUS
 62
     7
 10
176.9709164189357
 20
86.855763084496857
 30
0.0
 11
153.2899770207527
 21
82.583583780839575
 31
0.0
 12
165.4162645291251
 22
78.311404477182364
 32
0.0
 13
165.4162645291251
 23
78.311404477182364
 33
0.0
210
0.0
220
0.0
230
1.0
  0
SOLID
  5
777
  8
DRG
  6
CONTINUOUS
 62
     7
 10
176.9709164189357
 20
86.855763084496857
 30
0.0
 11
165.4162645291251
 21
78.311404477182364
 31
0.0
 12
176.9709164189357
 22
78.31140447718235
 32
0.0
 13
176.9709164189357
 23
78.31140447718235
 33
0.0
210
0.0
220
0.0
230
1.0
  0
SOLID
  5
778
  8
DRG
  6
CONTINUOUS
 62
     7
 10
165.4162645291251
 20
86.855763084496886
 30
0.0
 11
153.2899770207527
 21
82.583583780839575
 31
0.0
 12
176.9709164189357
 22
86.855763084496857
 32
0.0
 13
176.9709164189357
 23
86.855763084496857
 33
0.0
210
0.0
220
0.0
230
1.0
  0
SOLID
  5
779
  8
DRG
  6
CONTINUOUS
 62
     7
 10
19.213209596850209
 20
88.041563830032288
 30
0.0
 11
7.7802673214059723
 21
62.115696081838671
 31
0.0
 12
18.821661727211438
 22
85.569427875032716
 32
0.0
 13
18.821661727211438
 23
85.569427875032716
 33
0.0
210
0.0
220
0.0
230
1.0
  0
SOLID
  5
77A
  8
DRG
  6
CONTINUOUS
 62
     7
 10
130.4425595849963
 20
88.041563830032288
 30
0.0
 11
119.0096173095521
 21
62.115696081838678
 31
0.0
 12
130.05101171535759
 22
85.569427875032716
 32
0.0
 13
130.05101171535759
 23
85.569427875032716
 33
0.0
  0
SOLID
  5
77B
  8
DRG
  6
CONTINUOUS
 62
     7
 10
29.83814289966584
 20
90.096301702044016
 30
0.0
 11
29.538681326817759
 21
81.496816718755596
 31
0.0
 12
40.662987260112992
 22
81.496816718755866
 32
0.0
 13
40.662987260112992
 23
81.496816718755866
 33
0.0
210
0.0
220
0.0
230
1.0
  0
SOLID
  5
77C
  8
DRG
  6
CONTINUOUS
 62
     7
 10
85.849782736700035
 20
90.096301702044045
 30
0.0
 11
85.550321163851976
 21
81.496816718755767
 31
0.0
 12
96.674627097147194
 22
81.496816718756293
 32
0.0
 13
96.674627097147194
 23
81.496816718756293
 33
0.0
210
0.0
220
0.0
230
1.0
  0
SOLID
  5
77D
  8
DRG
  6
CONTINUOUS
 62
     7
 10
115.6618367640986
 20
90.096337111694325
 30
0.0
 11
104.83699487280531
 21
81.496816718755184
 31
0.0
 12
115.9613008061006
 22
81.496816718755412
 32
0.0
 13
115.9613008061006
 23
81.496816718755412
 33
0.0
210
0.0
220
0.0
230
1.0
  0
SOLID
  5
77E
  8
DRG
  6
CONTINUOUS
 62
     7
 10
59.650196927064421
 20
90.096337111694368
 30
0.0
 11
48.825355035771203
 21
81.496816718755184
 31
0.0
 12
59.9496609690664
 22
81.49681671875544
 32
0.0
 13
59.9496609690664
 23
81.49681671875544
 33
0.0
210
0.0
220
0.0
230
1.0
  0
SOLID
  5
77F
  8
DRG
  6
CONTINUOUS
 62
     7
 10
40.882971825549703
 20
90.337990088334166
 30
0.0
 11
29.83814289966584
 21
90.096301702044016
 31
0.0
 12
40.662987260112992
 22
81.496816718755866
 32
0.0
 13
40.662987260112992
 23
81.496816718755866
 33
0.0
  0
SOLID
  5
780
  8
DRG
  6
CONTINUOUS
 62
     7
 10
48.605370470334456
 20
90.337990088334735
 30
0.0
 11
48.825355035771203
 21
81.496816718755184
 31
0.0
 12
59.650196927064421
 22
90.096337111694368
 32
0.0
 13
59.650196927064421
 23
90.096337111694368
 33
0.0
210
0.0
220
0.0
230
1.0
  0
SOLID
  5
781
  8
DRG
  6
CONTINUOUS
 62
     7
 10
104.6170103073686
 20
90.337990088334735
 30
0.0
 11
104.83699487280531
 21
81.496816718755184
 31
0.0
 12
115.6618367640986
 22
90.096337111694325
 32
0.0
 13
115.6618367640986
 23
90.096337111694325
 33
0.0
210
0.0
220
0.0
230
1.0
  0
SOLID
  5
782
  8
DRG
  6
CONTINUOUS
 62
     7
 10
96.894611662583884
 20
90.337990088335033
 30
0.0
 11
85.849782736700035
 21
90.096301702044045
 31
0.0
 12
96.674627097147194
 22
81.496816718756293
 32
0.0
 13
96.674627097147194
 23
81.496816718756293
 33
0.0
210
0.0
220
0.0
230
1.0
  0
SOLID
  5
783
  8
DRG
  6
CONTINUOUS
 62
     7
 10
41.176888123037209
 20
91.815607098073087
 30
0.0
 11
29.83814289966584
 21
90.096301702044016
 31
0.0
 12
40.882971825549703
 22
90.337990088334166
 32
0.0
 13
40.882971825549703
 23
90.337990088334166
 33
0.0
210
0.0
220
0.0
230
1.0
  0
SOLID
  5
784
  8
DRG
  6
CONTINUOUS
 62
     7
 10
48.311454172846773
 20
91.815607098073613
 30
0.0
 11
48.605370470334456
 21
90.337990088334735
 31
0.0
 12
59.650196927064421
 22
90.096337111694368
 32
0.0
 13
59.650196927064421
 23
90.096337111694368
 33
0.0
210
0.0
220
0.0
230
1.0
  0
SOLID
  5
785
  8
DRG
  6
CONTINUOUS
 62
     7
 10
104.3230940098811
 20
91.815607098073656
 30
0.0
 11
104.6170103073686
 21
90.337990088334735
 31
0.0
 12
115.6618367640986
 22
90.096337111694325
 32
0.0
 13
115.6618367640986
 23
90.096337111694325
 33
0.0
210
0.0
220
0.0
230
1.0
  0
SOLID
  5
786
  8
DRG
  6
CONTINUOUS
 62
     7
 10
97.188527960071553
 20
91.815607098073897
 30
0.0
 11
85.849782736700035
 21
90.096301702044045
 31
0.0
 12
96.894611662583884
 22
90.337990088335033
 32
0.0
 13
96.894611662583884
 23
90.337990088335033
 33
0.0
210
0.0
220
0.0
230
1.0
  0
SOLID
  5
787
  8
DRG
  6
CONTINUOUS
 62
     7
 10
42.013890923565327
 20
93.068270312710808
 30
0.0
 11
29.83814289966584
 21
90.096301702044016
 31
0.0
 12
41.176888123037209
 22
91.815607098073087
 32
0.0
 13
41.176888123037209
 23
91.815607098073087
 33
0.0
210
0.0
220
0.0
230
1.0
  0
SOLID
  5
788
  8
DRG
  6
CONTINUOUS
 62
     7
 10
47.474451372318462
 20
93.068270312711235
 30
0.0
 11
48.311454172846773
 21
91.815607098073613
 31
0.0
 12
59.650196927064421
 22
90.096337111694368
 32
0.0
 13
59.650196927064421
 23
90.096337111694368
 33
0.0
210
0.0
220
0.0
230
1.0
  0
SOLID
  5
789
  8
DRG
  6
CONTINUOUS
 62
     7
 10
103.48609120935291
 20
93.068270312711363
 30
0.0
 11
104.3230940098811
 21
91.815607098073656
 31
0.0
 12
115.6618367640986
 22
90.096337111694325
 32
0.0
 13
115.6618367640986
 23
90.096337111694325
 33
0.0
210
0.0
220
0.0
230
1.0
  0
SOLID
  5
78A
  8
DRG
  6
CONTINUOUS
 62
     7
 10
98.025530760599821
 20
93.068270312711576
 30
0.0
 11
85.849782736700035
 21
90.096301702044045
 31
0.0
 12
97.188527960071553
 22
91.815607098073897
 32
0.0
 13
97.188527960071553
 23
91.815607098073897
 33
0.0
  0
SOLID
  5
78B
  8
DRG
  6
CONTINUOUS
 62
     7
 10
30.24703298419708
 20
93.202130243274198
 30
0.0
 11
29.83814289966584
 21
90.096301702044016
 31
0.0
 12
42.013890923565327
 22
93.068270312710808
 32
0.0
 13
42.013890923565327
 23
93.068270312710808
 33
0.0
210
0.0
220
0.0
230
1.0
  0
SOLID
  5
78C
  8
DRG
  6
CONTINUOUS
 62
     7
 10
86.258672821231272
 20
93.202130243274198
 30
0.0
 11
85.849782736700035
 21
90.096301702044045
 31
0.0
 12
98.025530760599821
 22
93.068270312711576
 32
0.0
 13
98.025530760599821
 23
93.068270312711576
 33
0.0
210
0.0
220
0.0
230
1.0
  0
SOLID
  5
78D
  8
DRG
  6
CONTINUOUS
 62
     7
 10
115.2529390423413
 20
93.202158745844599
 30
0.0
 11
103.48609120935291
 21
93.068270312711363
 31
0.0
 12
115.6618367640986
 22
90.096337111694325
 32
0.0
 13
115.6618367640986
 23
90.096337111694325
 33
0.0
  0
SOLID
  5
78E
  8
DRG
  6
CONTINUOUS
 62
     7
 10
59.241299205307143
 20
93.202158745844642
 30
0.0
 11
47.474451372318462
 21
93.068270312711235
 31
0.0
 12
59.650196927064421
 22
90.096337111694368
 32
0.0
 13
59.650196927064421
 23
90.096337111694368
 33
0.0
210
0.0
220
0.0
230
1.0
  0
SOLID
  5
78F
  8
DRG
  6
CONTINUOUS
 62
     7
 10
43.266554138202949
 20
93.905273113239119
 30
0.0
 11
30.24703298419708
 21
93.202130243274198
 31
0.0
 12
42.013890923565327
 22
93.068270312710808
 32
0.0
 13
42.013890923565327
 23
93.068270312710808
 33
0.0
210
0.0
220
0.0
230
1.0
  0
SOLID
  5
790
  8
DRG
  6
CONTINUOUS
 62
     7
 10
46.221788157680713
 20
93.90527311323936
 30
0.0
 11
47.474451372318462
 21
93.068270312711235
 31
0.0
 12
59.241299205307143
 22
93.202158745844642
 32
0.0
 13
59.241299205307143
 23
93.202158745844642
 33
0.0
210
0.0
220
0.0
230
1.0
  0
SOLID
  5
791
  8
DRG
  6
CONTINUOUS
 62
     7
 10
102.2334279947152
 20
93.905273113239616
 30
0.0
 11
103.48609120935291
 21
93.068270312711363
 31
0.0
 12
115.2529390423413
 22
93.202158745844599
 32
0.0
 13
115.2529390423413
 23
93.202158745844599
 33
0.0
210
0.0
220
0.0
230
1.0
  0
SOLID
  5
792
  8
DRG
  6
CONTINUOUS
 62
     7
 10
99.278193975237528
 20
93.905273113239744
 30
0.0
 11
86.258672821231272
 21
93.202130243274198
 31
0.0
 12
98.025530760599821
 22
93.068270312711576
 32
0.0
 13
98.025530760599821
 23
93.068270312711576
 33
0.0
210
0.0
220
0.0
230
1.0
  0
SOLID
  5
793
  8
DRG
  6
CONTINUOUS
 62
     7
 10
44.744171147941813
 20
94.199189410726845
 30
0.0
 11
30.24703298419708
 21
93.202130243274198
 31
0.0
 12
43.266554138202949
 22
93.905273113239119
 32
0.0
 13
43.266554138202949
 23
93.905273113239119
 33
0.0
210
0.0
220
0.0
230
1.0
  0
SOLID
  5
794
  8
DRG
  6
CONTINUOUS
 62
     7
 10
44.744171147941813
 20
94.199189410726845
 30
0.0
 11
46.221788157680713
 21
93.90527311323936
 31
0.0
 12
59.241299205307143
 22
93.202158745844642
 32
0.0
 13
59.241299205307143
 23
93.202158745844642
 33
0.0
210
0.0
220
0.0
230
1.0
  0
SOLID
  5
795
  8
DRG
  6
CONTINUOUS
 62
     7
 10
100.75581098497641
 20
94.199189410727286
 30
0.0
 11
86.258672821231272
 21
93.202130243274198
 31
0.0
 12
99.278193975237528
 22
93.905273113239744
 32
0.0
 13
99.278193975237528
 23
93.905273113239744
 33
0.0
210
0.0
220
0.0
230
1.0
  0
SOLID
  5
796
  8
DRG
  6
CONTINUOUS
 62
     7
 10
100.75581098497641
 20
94.199189410727286
 30
0.0
 11
102.2334279947152
 21
93.905273113239616
 31
0.0
 12
115.2529390423413
 22
93.202158745844599
 32
0.0
 13
115.2529390423413
 23
93.202158745844599
 33
0.0
210
0.0
220
0.0
230
1.0
  0
SOLID
  5
797
  8
DRG
  6
CONTINUOUS
 62
     7
 10
77.482556033578931
 20
94.593352860836134
 30
0.0
 11
67.331191210151701
 21
68.89733173546756
 31
0.0
 12
77.482556033578931
 22
72.876055965300111
 32
0.0
 13
77.482556033578931
 23
72.876055965300111
 33
0.0
210
0.0
220
0.0
230
1.0
  0
SOLID
  5
798
  8
DRG
  6
CONTINUOUS
 62
     7
 10
67.331191210151687
 20
94.593352860836134
 30
0.0
 11
77.482556033578931
 21
94.593352860836134
 31
0.0
 12
84.553623006881026
 22
94.593352860836134
 32
0.0
 13
84.553623006881026
 23
94.593352860836134
 33
0.0
210
0.0
220
0.0
230
1.0
  0
SOLID
  5
799
  8
DRG
  6
CONTINUOUS
 62
     7
 10
67.331191210151687
 20
94.593352860836134
 30
0.0
 11
67.331191210151701
 21
68.89733173546756
 31
0.0
 12
77.482556033578931
 22
94.593352860836134
 32
0.0
 13
77.482556033578931
 23
94.593352860836134
 33
0.0
210
0.0
220
0.0
230
1.0
  0
SOLID
  5
79A
  8
DRG
  6
CONTINUOUS
 62
     7
 10
87.457477891286857
 20
96.096301702043917
 30
0.0
 11
86.258672821231272
 21
93.202130243274198
 31
0.0
 12
100.75581098497641
 22
94.199189410727286
 32
0.0
 13
100.75581098497641
 23
94.199189410727286
 33
0.0
  0
SOLID
  5
79B
  8
DRG
  6
CONTINUOUS
 62
     7
 10
31.445838054252661
 20
96.096301702043917
 30
0.0
 11
30.24703298419708
 21
93.202130243274198
 31
0.0
 12
44.744171147941813
 22
94.199189410726845
 32
0.0
 13
44.744171147941813
 23
94.199189410726845
 33
0.0
210
0.0
220
0.0
230
1.0
  0
SOLID
  5
79C
  8
DRG
  6
CONTINUOUS
 62
     7
 10
114.0541298063271
 20
96.096322145803441
 30
0.0
 11
87.457477891286857
 21
96.096301702043917
 31
0.0
 12
100.75581098497641
 22
94.199189410727286
 32
0.0
 13
100.75581098497641
 23
94.199189410727286
 33
0.0
210
0.0
220
0.0
230
1.0
  0
SOLID
  5
79D
  8
DRG
  6
CONTINUOUS
 62
     7
 10
114.0541298063271
 20
96.096322145803441
 30
0.0
 11
100.75581098497641
 21
94.199189410727286
 31
0.0
 12
115.2529390423413
 22
93.202158745844599
 32
0.0
 13
115.2529390423413
 23
93.202158745844599
 33
0.0
210
0.0
220
0.0
230
1.0
  0
SOLID
  5
79E
  8
DRG
  6
CONTINUOUS
 62
     7
 10
58.042489969292951
 20
96.09632214580347
 30
0.0
 11
31.445838054252661
 21
96.096301702043917
 31
0.0
 12
44.744171147941813
 22
94.199189410726845
 32
0.0
 13
44.744171147941813
 23
94.199189410726845
 33
0.0
210
0.0
220
0.0
230
1.0
  0
SOLID
  5
79F
  8
DRG
  6
CONTINUOUS
 62
     7
 10
58.042489969292951
 20
96.09632214580347
 30
0.0
 11
44.744171147941813
 21
94.199189410726845
 31
0.0
 12
59.241299205307143
 22
93.202158745844642
 32
0.0
 13
59.241299205307143
 23
93.202158745844642
 33
0.0
210
0.0
220
0.0
230
1.0
  0
SOLID
  5
7A0
  8
DRG
  6
CONTINUOUS
 62
     7
 10
130.05101171535759
 20
97.915857504065855
 30
0.0
 11
138.05101171535759
 21
93.569427875032716
 31
0.0
 12
139.4206293992797
 22
93.56942787503273
 32
0.0
 13
139.4206293992797
 23
93.56942787503273
 33
0.0
210
0.0
220
0.0
230
1.0
  0
SOLID
  5
7A1
  8
DRG
  6
CONTINUOUS
 62
     7
 10
130.05101171535759
 20
97.915857504065855
 30
0.0
 11
135.57887576035799
 21
93.177880005393945
 31
0.0
 12
138.05101171535759
 22
93.569427875032716
 32
0.0
 13
138.05101171535759
 23
93.569427875032716
 33
0.0
  0
SOLID
  5
7A2
  8
DRG
  6
CONTINUOUS
 62
     7
 10
130.05101171535759
 20
97.915857504065855
 30
0.0
 11
133.3487296970178
 21
92.041563830032302
 31
0.0
 12
135.57887576035799
 22
93.177880005393945
 32
0.0
 13
135.57887576035799
 23
93.177880005393945
 33
0.0
  0
SOLID
  5
7A3
  8
DRG
  6
CONTINUOUS
 62
     7
 10
130.05101171535759
 20
97.915857504065855
 30
0.0
 11
131.57887576035799
 21
90.271709893372503
 31
0.0
 12
133.3487296970178
 22
92.041563830032302
 32
0.0
 13
133.3487296970178
 23
92.041563830032302
 33
0.0
210
0.0
220
0.0
230
1.0
  0
SOLID
  5
7A4
  8
DRG
  6
CONTINUOUS
 62
     7
 10
130.05101171535759
 20
97.915857504065855
 30
0.0
 11
130.4425595849963
 21
88.041563830032288
 31
0.0
 12
131.57887576035799
 22
90.271709893372503
 32
0.0
 13
131.57887576035799
 23
90.271709893372503
 33
0.0
  0
SOLID
  5
7A5
  8
DRG
  6
CONTINUOUS
 62
     7
 10
130.05101171535759
 20
97.915857504065855
 30
0.0
 11
119.0096173095521
 21
62.115696081838678
 31
0.0
 12
130.4425595849963
 22
88.041563830032288
 32
0.0
 13
130.4425595849963
 23
88.041563830032288
 33
0.0
210
0.0
220
0.0
230
1.0
  0
SOLID
  5
7A6
  8
DRG
  6
CONTINUOUS
 62
     7
 10
18.821661727211438
 20
97.915857504065912
 30
0.0
 11
26.821661727211438
 21
93.569427875032716
 31
0.0
 12
28.191279411133561
 22
93.56942787503273
 32
0.0
 13
28.191279411133561
 23
93.56942787503273
 33
0.0
  0
SOLID
  5
7A7
  8
DRG
  6
CONTINUOUS
 62
     7
 10
18.821661727211438
 20
97.915857504065912
 30
0.0
 11
24.349525772211869
 21
93.177880005393945
 31
0.0
 12
26.821661727211438
 22
93.569427875032716
 32
0.0
 13
26.821661727211438
 23
93.569427875032716
 33
0.0
210
0.0
220
0.0
230
1.0
  0
SOLID
  5
7A8
  8
DRG
  6
CONTINUOUS
 62
     7
 10
18.821661727211438
 20
97.915857504065912
 30
0.0
 11
22.119379708871659
 21
92.041563830032274
 31
0.0
 12
24.349525772211869
 22
93.177880005393945
 32
0.0
 13
24.349525772211869
 23
93.177880005393945
 33
0.0
210
0.0
220
0.0
230
1.0
  0
SOLID
  5
7A9
  8
DRG
  6
CONTINUOUS
 62
     7
 10
18.821661727211438
 20
97.915857504065912
 30
0.0
 11
20.349525772211859
 21
90.271709893372503
 31
0.0
 12
22.119379708871659
 22
92.041563830032274
 32
0.0
 13
22.119379708871659
 23
92.041563830032274
 33
0.0
210
0.0
220
0.0
230
1.0
  0
SOLID
  5
7AA
  8
DRG
  6
CONTINUOUS
 62
     7
 10
18.821661727211438
 20
97.915857504065912
 30
0.0
 11
19.213209596850209
 21
88.041563830032288
 31
0.0
 12
20.349525772211859
 22
90.271709893372503
 32
0.0
 13
20.349525772211859
 23
90.271709893372503
 33
0.0
210
0.0
220
0.0
230
1.0
  0
SOLID
  5
7AB
  8
DRG
  6
CONTINUOUS
 62
     7
 10
18.821661727211438
 20
97.915857504065912
 30
0.0
 11
7.7802673214059723
 21
62.115696081838671
 31
0.0
 12
19.213209596850209
 22
88.041563830032288
 32
0.0
 13
19.213209596850209
 23
88.041563830032288
 33
0.0
210
0.0
220
0.0
230
1.0
  0
SOLID
  5
7AC
  8
DRG
  6
CONTINUOUS
 62
     7
 10
89.364501362461553
 20
98.581583076282442
 30
0.0
 11
87.457477891286857
 21
96.096301702043917
 31
0.0
 12
114.0541298063271
 22
96.096322145803441
 32
0.0
 13
114.0541298063271
 23
96.096322145803441
 33
0.0
  0
SOLID
  5
7AD
  8
DRG
  6
CONTINUOUS
 62
     7
 10
33.352861525427372
 20
98.581583076282442
 30
0.0
 11
31.445838054252661
 21
96.096301702043917
 31
0.0
 12
58.042489969292951
 22
96.09632214580347
 32
0.0
 13
58.042489969292951
 23
96.09632214580347
 33
0.0
210
0.0
220
0.0
230
1.0
  0
SOLID
  5
7AE
  8
DRG
  6
CONTINUOUS
 62
     7
 10
112.14710561917811
 20
98.581595595475122
 30
0.0
 11
89.364501362461553
 21
98.581583076282442
 31
0.0
 12
114.0541298063271
 22
96.096322145803441
 32
0.0
 13
114.0541298063271
 23
96.096322145803441
 33
0.0
210
0.0
220
0.0
230
1.0
  0
SOLID
  5
7AF
  8
DRG
  6
CONTINUOUS
 62
     7
 10
56.135465782143967
 20
98.581595595475136
 30
0.0
 11
33.352861525427372
 21
98.581583076282442
 31
0.0
 12
58.042489969292951
 22
96.09632214580347
 32
0.0
 13
58.042489969292951
 23
96.09632214580347
 33
0.0
210
0.0
220
0.0
230
1.0
  0
SOLID
  5
7B0
  8
DRG
  6
CONTINUOUS
 62
     7
 10
131.90017275248141
 20
99.844187280346816
 30
0.0
 11
130.05101171535759
 21
97.915857504065855
 31
0.0
 12
139.4206293992797
 22
93.56942787503273
 32
0.0
 13
139.4206293992797
 23
93.56942787503273
 33
0.0
210
0.0
220
0.0
230
1.0
  0
SOLID
  5
7B1
  8
DRG
  6
CONTINUOUS
 62
     7
 10
20.670822764335242
 20
99.844187280346901
 30
0.0
 11
18.821661727211438
 21
97.915857504065912
 31
0.0
 12
28.191279411133561
 22
93.56942787503273
 32
0.0
 13
28.191279411133561
 23
93.56942787503273
 33
0.0
  0
SOLID
  5
7B2
  8
DRG
  6
CONTINUOUS
 62
     7
 10
35.838142899665918
 20
100.488606547457
 30
0.0
 11
33.352861525427372
 21
98.581583076282442
 31
0.0
 12
56.135465782143967
 22
98.581595595475136
 32
0.0
 13
56.135465782143967
 23
98.581595595475136
 33
0.0
210
0.0
220
0.0
230
1.0
  0
SOLID
  5
7B3
  8
DRG
  6
CONTINUOUS
 62
     7
 10
91.849782736700107
 20
100.488606547457
 30
0.0
 11
89.364501362461553
 21
98.581583076282442
 31
0.0
 12
112.14710561917811
 22
98.581595595475122
 32
0.0
 13
112.14710561917811
 23
98.581595595475122
 33
0.0
210
0.0
220
0.0
230
1.0
  0
SOLID
  5
7B4
  8
DRG
  6
CONTINUOUS
 62
     7
 10
109.6618265422623
 20
100.4886124490604
 30
0.0
 11
91.849782736700107
 21
100.488606547457
 31
0.0
 12
112.14710561917811
 22
98.581595595475122
 32
0.0
 13
112.14710561917811
 23
98.581595595475122
 33
0.0
  0
SOLID
  5
7B5
  8
DRG
  6
CONTINUOUS
 62
     7
 10
53.650186705228109
 20
100.4886124490604
 30
0.0
 11
35.838142899665918
 21
100.488606547457
 31
0.0
 12
56.135465782143967
 22
98.581595595475136
 32
0.0
 13
56.135465782143967
 23
98.581595595475136
 33
0.0
210
0.0
220
0.0
230
1.0
  0
SOLID
  5
7B6
  8
DRG
  6
CONTINUOUS
 62
     7
 10
134.18475166795781
 20
101.22930512597181
 30
0.0
 11
131.90017275248141
 21
99.844187280346816
 31
0.0
 12
139.4206293992797
 22
93.56942787503273
 32
0.0
 13
139.4206293992797
 23
93.56942787503273
 33
0.0
210
0.0
220
0.0
230
1.0
  0
SOLID
  5
7B7
  8
DRG
  6
CONTINUOUS
 62
     7
 10
22.955401679811722
 20
101.2293051259719
 30
0.0
 11
20.670822764335242
 21
99.844187280346901
 31
0.0
 12
28.191279411133561
 22
93.56942787503273
 32
0.0
 13
28.191279411133561
 23
93.56942787503273
 33
0.0
210
0.0
220
0.0
230
1.0
  0
SOLID
  5
7B8
  8
DRG
  6
CONTINUOUS
 62
     7
 10
38.732314358435637
 20
101.68741161751259
 30
0.0
 11
35.838142899665918
 21
100.488606547457
 31
0.0
 12
53.650186705228109
 22
100.4886124490604
 32
0.0
 13
53.650186705228109
 23
100.4886124490604
 33
0.0
  0
SOLID
  5
7B9
  8
DRG
  6
CONTINUOUS
 62
     7
 10
94.743954195469826
 20
101.68741161751259
 30
0.0
 11
91.849782736700107
 21
100.488606547457
 31
0.0
 12
109.6618265422623
 22
100.4886124490604
 32
0.0
 13
109.6618265422623
 23
100.4886124490604
 33
0.0
  0
SOLID
  5
7BA
  8
DRG
  6
CONTINUOUS
 62
     7
 10
50.756019767830537
 20
101.68741314495981
 30
0.0
 11
38.732314358435637
 21
101.68741161751259
 31
0.0
 12
53.650186705228109
 22
100.4886124490604
 32
0.0
 13
53.650186705228109
 23
100.4886124490604
 33
0.0
210
0.0
220
0.0
230
1.0
  0
SOLID
  5
7BB
  8
DRG
  6
CONTINUOUS
 62
     7
 10
106.7676596048647
 20
101.68741314495981
 30
0.0
 11
94.743954195469826
 21
101.68741161751259
 31
0.0
 12
109.6618265422623
 22
100.4886124490604
 32
0.0
 13
109.6618265422623
 23
100.4886124490604
 33
0.0
210
0.0
220
0.0
230
1.0
  0
SOLID
  5
7BC
  8
DRG
  6
CONTINUOUS
 62
     7
 10
136.74962306925659
 20
101.9771600330952
 30
0.0
 11
134.18475166795781
 21
101.22930512597181
 31
0.0
 12
139.4206293992797
 22
93.56942787503273
 32
0.0
 13
139.4206293992797
 23
93.56942787503273
 33
0.0
210
0.0
220
0.0
230
1.0
  0
SOLID
  5
7BD
  8
DRG
  6
CONTINUOUS
 62
     7
 10
25.520273081110439
 20
101.9771600330952
 30
0.0
 11
22.955401679811722
 21
101.2293051259719
 31
0.0
 12
28.191279411133561
 22
93.56942787503273
 32
0.0
 13
28.191279411133561
 23
93.56942787503273
 33
0.0
210
0.0
220
0.0
230
1.0
  0
SOLID
  5
7BE
  8
DRG
  6
CONTINUOUS
 62
     7
 10
77.482556033578931
 20
101.9948050433795
 30
0.0
 11
62.478989637268569
 21
94.593352860836134
 31
0.0
 12
67.331191210151687
 22
94.593352860836134
 32
0.0
 13
67.331191210151687
 23
94.593352860836134
 33
0.0
210
0.0
220
0.0
230
1.0
  0
SOLID
  5
7BF
  8
DRG
  6
CONTINUOUS
 62
     7
 10
77.482556033578931
 20
101.9948050433795
 30
0.0
 11
67.331191210151687
 21
94.593352860836134
 31
0.0
 12
84.553623006881026
 22
94.593352860836134
 32
0.0
 13
84.553623006881026
 23
94.593352860836134
 33
0.0
210
0.0
220
0.0
230
1.0
  0
SOLID
  5
7C0
  8
DRG
  6
CONTINUOUS
 62
     7
 10
62.478989637268562
 20
101.9948050433795
 30
0.0
 11
62.478989637268569
 21
94.593352860836134
 31
0.0
 12
77.482556033578931
 22
101.9948050433795
 32
0.0
 13
77.482556033578931
 23
101.9948050433795
 33
0.0
  0
SOLID
  5
7C1
  8
DRG
  6
CONTINUOUS
 62
     7
 10
84.553623006881026
 20
101.9948050433795
 30
0.0
 11
77.482556033578931
 21
101.9948050433795
 31
0.0
 12
84.553623006881026
 22
94.593352860836134
 32
0.0
 13
84.553623006881026
 23
94.593352860836134
 33
0.0
210
0.0
220
0.0
230
1.0
  0
SOLID
  5
7C2
  8
DRG
  6
CONTINUOUS
 62
     7
 10
67.331191210151701
 20
101.9948050433795
 30
0.0
 11
62.478989637268562
 21
101.9948050433795
 31
0.0
 12
77.482556033578931
 22
101.9948050433795
 32
0.0
 13
77.482556033578931
 23
101.9948050433795
 33
0.0
210
0.0
220
0.0
230
1.0
  0
SOLID
  5
7C3
  8
DRG
  6
CONTINUOUS
 62
     7
 10
139.4206293992797
 20
102.0369718403325
 30
0.0
 11
136.74962306925659
 21
101.9771600330952
 31
0.0
 12
139.4206293992797
 22
93.56942787503273
 32
0.0
 13
139.4206293992797
 23
93.56942787503273
 33
0.0
210
0.0
220
0.0
230
1.0
  0
SOLID
  5
7C4
  8
DRG
  6
CONTINUOUS
 62
     7
 10
7.7802673214059723
 20
102.0369718403326
 30
0.0
 11
7.7802673214059723
 21
62.115696081838671
 31
0.0
 12
18.821661727211438
 22
97.915857504065912
 32
0.0
 13
18.821661727211438
 23
97.915857504065912
 33
0.0
210
0.0
220
0.0
230
1.0
  0
SOLID
  5
7C5
  8
DRG
  6
CONTINUOUS
 62
     7
 10
18.821661727211438
 20
102.0369718403326
 30
0.0
 11
7.7802673214059723
 21
102.0369718403326
 31
0.0
 12
18.821661727211438
 22
97.915857504065912
 32
0.0
 13
18.821661727211438
 23
97.915857504065912
 33
0.0
  0
SOLID
  5
7C6
  8
DRG
  6
CONTINUOUS
 62
     7
 10
142.11987082690661
 20
62.115696081838678
 30
0.0
 11
153.2899770207527
 21
102.0369718403326
 31
0.0
 12
142.11987082690661
 22
102.0369718403326
 32
0.0
 13
142.11987082690661
 23
102.0369718403326
 33
0.0
  0
SOLID
  5
7C7
  8
DRG
  6
CONTINUOUS
 62
     7
 10
153.2899770207527
 20
102.0369718403326
 30
0.0
 11
142.11987082690661
 21
62.115696081838678
 31
0.0
 12
153.2899770207527
 22
62.115696081838678
 32
0.0
 13
153.2899770207527
 23
62.115696081838678
 33
0.0
210
0.0
220
0.0
230
1.0
  0
SOLID
  5
7C8
  8
DRG
  6
CONTINUOUS
 62
     7
 10
130.05101171535759
 20
102.0369718403326
 30
0.0
 11
119.0096173095521
 21
62.115696081838678
 31
0.0
 12
130.05101171535759
 22
97.915857504065855
 32
0.0
 13
130.05101171535759
 23
97.915857504065855
 33
0.0
210
0.0
220
0.0
230
1.0
  0
SOLID
  5
7C9
  8
DRG
  6
CONTINUOUS
 62
     7
 10
165.4162645291251
 20
86.855763084496886
 30
0.0
 11
171.38205787173379
 21
102.0369718403326
 31
0.0
 12
160.9346181585602
 22
102.0369718403326
 32
0.0
 13
160.9346181585602
 23
102.0369718403326
 33
0.0
210
0.0
220
0.0
230
1.0
  0
SOLID
  5
7CA
  8
DRG
  6
CONTINUOUS
 62
     7
 10
160.9346181585602
 20
102.0369718403326
 30
0.0
 11
153.2899770207527
 21
82.583583780839575
 31
0.0
 12
165.4162645291251
 22
86.855763084496886
 32
0.0
 13
165.4162645291251
 23
86.855763084496886
 33
0.0
  0
SOLID
  5
7CB
  8
DRG
  6
CONTINUOUS
 62
     7
 10
119.0096173095521
 20
102.0369718403326
 30
0.0
 11
119.0096173095521
 21
62.115696081838678
 31
0.0
 12
130.05101171535759
 22
102.0369718403326
 32
0.0
 13
130.05101171535759
 23
102.0369718403326
 33
0.0
210
0.0
220
0.0
230
1.0
  0
SOLID
  5
7CC
  8
DRG
  6
CONTINUOUS
 62
     7
 10
28.191279411133561
 20
102.0369718403326
 30
0.0
 11
25.520273081110439
 21
101.9771600330952
 31
0.0
 12
28.191279411133561
 22
93.56942787503273
 32
0.0
 13
28.191279411133561
 23
93.56942787503273
 33
0.0
  0
SOLID
  5
7CD
  8
DRG
  6
CONTINUOUS
 62
     7
 10
50.756019767830537
 20
101.68741314495981
 30
0.0
 11
47.650196927116667
 21
102.0963017020437
 31
0.0
 12
41.838142899665847
 22
102.0963017020437
 32
0.0
 13
41.838142899665847
 23
102.0963017020437
 33
0.0
210
0.0
220
0.0
230
1.0
  0
SOLID
  5
7CE
  8
DRG
  6
CONTINUOUS
 62
     7
 10
41.838142899665847
 20
102.0963017020437
 30
0.0
 11
38.732314358435637
 21
101.68741161751259
 31
0.0
 12
50.756019767830537
 22
101.68741314495981
 32
0.0
 13
50.756019767830537
 23
101.68741314495981
 33
0.0
210
0.0
220
0.0
230
1.0
  0
SOLID
  5
7CF
  8
DRG
  6
CONTINUOUS
 62
     7
 10
106.7676596048647
 20
101.68741314495981
 30
0.0
 11
103.66183676415081
 21
102.0963017020437
 31
0.0
 12
97.849782736700035
 22
102.0963017020437
 32
0.0
 13
97.849782736700035
 23
102.0963017020437
 33
0.0
210
0.0
220
0.0
230
1.0
  0
SOLID
  5
7D0
  8
DRG
  6
CONTINUOUS
 62
     7
 10
97.849782736700035
 20
102.0963017020437
 30
0.0
 11
94.743954195469826
 21
101.68741161751259
 31
0.0
 12
106.7676596048647
 22
101.68741314495981
 32
0.0
 13
106.7676596048647
 23
101.68741314495981
 33
0.0
210
0.0
220
0.0
230
1.0
  0
SOLID
  5
7D1
  8
DRG
  6
CONTINUOUS
 62
     7
 10
77.482556033578931
 20
107.1280725498991
 30
0.0
 11
67.331191210151701
 21
101.9948050433795
 31
0.0
 12
77.482556033578931
 22
101.9948050433795
 32
0.0
 13
77.482556033578931
 23
101.9948050433795
 33
0.0
  0
SOLID
  5
7D2
  8
DRG
  6
CONTINUOUS
 62
     7
 10
67.331191210151701
 20
107.1280725498991
 30
0.0
 11
67.331191210151701
 21
101.9948050433795
 31
0.0
 12
77.482556033578931
 22
107.1280725498991
 32
0.0
 13
77.482556033578931
 23
107.1280725498991
 33
0.0
210
0.0
220
0.0
230
1.0
  0
ENDBLK
  5
7D4
  8
0
  0
ENDSEC
  0
SECTION
  2
ENTITIES
  0
LINE
  5
31
  8
BORT
 39
4.3200000000000003
 10
1800.0
 20
72.0
 30
0.0
 11
374.39999999999992
 21
72.0
 31
0.0
  0
LINE
  5
32
  8
BORT
 39
4.3200000000000003
 10
1800.0
 20
0.0
 30
0.0
 11
0.0
 21
0.0
 31
0.0
  0
LINE
  5
35
  8
BORT
 39
4.3200000000000003
 10
374.39999999999992
 20
235.1999999999999
 30
0.0
 11
0.0
 21
235.1999999999999
 31
0.0
  0
LINE
  5
36
  8
BORT
 39
4.3200000000000003
 10
374.39999999999992
 20
268.80000000000001
 30
0.0
 11
0.0
 21
268.80000000000001
 31
0.0
  0
LINE
  5
37
  8
BORT
 39
4.3200000000000003
 10
374.39999999999992
 20
201.59999999999999
 30
0.0
 11
0.0
 21
201.59999999999999
 31
0.0
  0
LINE
  5
38
  8
BORT
 39
4.3200000000000003
 10
374.39999999999992
 20
201.59999999999999
 30
0.0
 11
0.0
 21
201.59999999999999
 31
0.0
  0
TEXT
  5
39
  8
BORT
 10
9.8857142857142826
 20
212.40000000000001
 30
0.0
 40
12.0
  1
ISSUE
 72
     4
 11
33.600000000000001
 21
218.40000000000001
 31
0.0
  0
LINE
  5
3F
  8
BORT
 39
4.3200000000000003
 10
0.0
 20
0.0
 30
0.0
 11
0.0
 21
369.60000000000002
 31
0.0
  0
TEXT
  5
40
  8
BORT
 10
29.028571428571428
 20
246.0
 30
0.0
 40
12.0
  1
A
 72
     4
 11
33.600000000000001
 21
252.0
 31
0.0
  0
LINE
  5
41
  8
BORT
 39
4.3200000000000003
 10
67.200000000000003
 20
201.59999999999999
 30
0.0
 11
67.200000000000003
 21
369.60000000000002
 31
0.0
  0
TEXT
  5
42
  8
BORT
 10
151.37142857142851
 20
246.0
 30
0.0
 40
12.0
  1
ORIGINAL ISSUE
 72
     4
 11
220.7999999999999
 21
252.0
 31
0.0
  0
TEXT
  5
43
  8
BORT
 10
162.7999999999999
 20
212.40000000000001
 30
0.0
 40
12.0
  1
ALTERATIONS
 72
     4
 11
220.7999999999999
 21
218.40000000000001
 31
0.0
  0
LINE
  5
44
  8
BORT
 39
4.3200000000000003
 10
374.39999999999992
 20
201.59999999999999
 30
0.0
 11
374.39999999999992
 21
0.0
 31
0.0
  0
LINE
  5
45
  8
BORT
 39
4.3200000000000003
 10
374.39999999999992
 20
369.59999999999991
 30
0.0
 11
374.39999999999992
 21
201.59999999999999
 31
0.0
  0
TEXT
  5
46
  8
BORT
 10
878.27347162999297
 20
41.249844894977187
 30
0.0
 40
24.0
  1
OUTLINE DETAILS OF IS19
 72
     4
 11
1110.8449002014211
 21
53.249844894977201
 31
0.0
  0
TEXT
  5
47
  8
BORT
 10
450.82086551051589
 20
29.444277415275341
 30
0.0
 40
14.39999999999999
  1
EXEECO LTD   C   1996
  0
CIRCLE
  5
48
  8
BORT
 10
629.17127752297188
 20
36.45908769679027
 30
0.0
 40
13.57151939153113
  0
LINE
  5
49
  8
BORT
 39
4.3200000000000003
 10
840.0
 20
72.0
 30
0.0
 11
840.0
 21
0.0
 31
0.0
  0
LINE
  5
4A
  8
BORT
 39
4.3200000000000003
 10
1800.0
 20
110.39999999999991
 30
0.0
 11
1382.399999999999
 21
110.39999999999991
 31
0.0
  0
LINE
  5
4B
  8
BORT
 39
4.3200000000000003
 10
1382.399999999999
 20
148.7999999999999
 30
0.0
 11
1800.0
 21
148.7999999999999
 31
0.0
  0
TEXT
  5
4C
  8
BORT
 10
1436.0
 20
21.600000000000001
 30
0.0
 40
33.600000000000001
  1
PUB\IS19CD
 72
     4
 11
1584.0
 21
36.0
 31
0.0
  0
TEXT
  5
4D
  8
BORT
 10
1390.001771223431
 20
84.778599164623515
 30
0.0
 40
12.0
  1
CHECKED:-
  0
TEXT
  5
4E
  8
BORT
 10
1390.695329330076
 20
122.39999999999991
 30
0.0
 40
12.0
  1
DRAWN:-
  0
TEXT
  5
4F
  8
BORT
 10
906.84490020142175
 20
10.730892116884529
 30
0.0
 40
24.0
  1
ISO & USA STANDARD
 72
     4
 11
1110.8449002014211
 21
22.73089211688454
 31
0.0
  0
LINE
  5
50
  8
BORT
 39
4.3200000000000003
 10
1382.4000000000001
 20
148.7999999999999
 30
0.0
 11
1382.4000000000001
 21
72.0
 31
0.0
  0
LINE
  5
51
  8
BORT
 39
4.3200000000000003
 10
1368.0
 20
72.0
 30
0.0
 11
1368.0
 21
0.0
 31
0.0
  0
TEXT
  5
52
  8
BORT
 10
1525.974699881689
 20
123.59999999999989
 30
0.0
 40
12.0
  1
S.W.   10.9.96
 72
     4
 11
1591.6889855959751
 21
129.59999999999999
 31
0.0
  0
LINE
  5
53
  8
BORT
 39
4.3200000000000003
 10
1800.0
 20
148.7999999999999
 30
0.0
 11
1800.0
 21
0.0
 31
0.0
  0
LINE
  5
54
  8
BORT
 39
4.3200000000000003
 10
1694.399999999999
 20
148.7999999999999
 30
0.0
 11
1694.399999999999
 21
72.0
 31
0.0
  0
TEXT
  5
55
  8
BORT
 10
1730.380429161534
 20
84.0
 30
0.0
 40
12.0
  1
1:2.4
  0
TEXT
  5
56
  8
BORT
 10
1717.8870583094699
 20
122.39999999999991
 30
0.0
 40
12.0
  1
SCALE
  0
LINE
  5
57
  8
DRG
 10
1524.438369722465
 20
1358.5606011775419
 30
0.0
 11
1469.240932862725
 21
1157.850994958397
 31
0.0
  0
ARC
  5
58
  8
DRG
 10
1734.6345308170301
 20
1300.7542532466459
 30
0.0
 40
128.0
 50
90.0
 51
180.0
  0
ARC
  5
59
  8
DRG
 10
1734.6345308170301
 20
1300.7542532466459
 30
0.0
 40
45.0
 50
90.0
 51
180.0
  0
LINE
  5
5A
  8
DRG
 10
1674.6345308170301
 20
1403.7493987633179
 30
0.0
 11
1674.6345308170301
 21
1286.4319147843521
 31
0.0
  0
LINE
  5
5B
  8
CRS
 10
1734.6345308170301
 20
1673.5774319421071
 30
0.0
 11
1734.6345308170301
 21
1270.634528990025
 31
0.0
  0
ARC
  5
5C
  8
DRG2
 10
1734.6345308170301
 20
925.85425324664652
 30
0.0
 40
350.0
 50
89.999999999999957
 51
270.0
  0
LINE
  5
5D
  8
CRS
 10
1755.494812739609
 20
925.85425324664652
 30
0.0
 11
1431.3482677957941
 21
925.85425324664652
 31
0.0
  0
LINE
  5
5E
  8
DRG
 10
1595.1674364563639
 20
1246.8666043962451
 30
0.0
 11
1636.3988239045671
 21
1147.3289992016321
 31
0.0
  0
LINE
  5
5F
  8
CRS
 10
1759.65900891858
 20
1300.7542532466459
 30
0.0
 11
1598.677990500847
 21
1300.7542532466459
 31
0.0
  0
ARC
  5
60
  8
DRG
 10
1734.6345308170301
 20
925.85425324664652
 30
0.0
 40
352.49999999999989
 50
99.528370682469671
 51
270.0
  0
LINE
  5
61
  8
CRS
 10
1388.1605012884279
 20
925.85425324664652
 30
0.0
 11
1361.505609071974
 21
925.85425324664652
 31
0.0
  0
LINE
  5
62
  8
CRS
 10
1409.6345308170301
 20
922.85425324664641
 30
0.0
 11
1409.6345308170301
 21
928.85425324664652
 31
0.0
  0
POLYLINE
  5
63
  8
DRG2
 66
     1
 10
0.0
 20
0.0
 30
0.0
 70
     1
  0
VERTEX
  5
5F2
  8
DRG2
 10
1405.5930789327019
 20
932.85425324664664
 30
0.0
  0
VERTEX
  5
5F3
  8
DRG2
 10
1401.5516270483749
 20
925.85425324664652
 30
0.0
  0
VERTEX
  5
5F4
  8
DRG2
 10
1405.5930789327019
 20
918.85425324664652
 30
0.0
  0
VERTEX
  5
5F5
  8
DRG2
 10
1413.675982701357
 20
918.85425324664652
 30
0.0
  0
VERTEX
  5
5F6
  8
DRG2
 10
1417.717434585684
 20
925.85425324664652
 30
0.0
  0
VERTEX
  5
5F7
  8
DRG2
 10
1413.675982701357
 20
932.85425324664664
 30
0.0
  0
SEQEND
  5
5F8
  8
DRG2
  0
CIRCLE
  5
6B
  8
DRG2
 10
1409.6345308170301
 20
925.85425324664652
 30
0.0
 40
11.164999999999999
  0
CIRCLE
  5
6C
  8
DRG2
 10
1409.6345308170301
 20
925.85425324664652
 30
0.0
 40
12.16499999999999
  0
LINE
  5
6D
  8
CRS
 10
1409.6345308170301
 20
919.85425324664652
 30
0.0
 11
1409.6345308170301
 21
912.42594571820882
 31
0.0
  0
LINE
  5
6E
  8
CRS
 10
1406.6345308170301
 20
925.85425324664652
 30
0.0
 11
1412.6345308170301
 21
925.85425324664652
 31
0.0
  0
LINE
  5
6F
  8
CRS
 10
1403.6345308170301
 20
925.85425324664652
 30
0.0
 11
1396.2062232885919
 21
925.85425324664652
 31
0.0
  0
LINE
  5
70
  8
CRS
 10
1409.6345308170301
 20
931.85425324664641
 30
0.0
 11
1409.6345308170301
 21
939.28256077508411
 31
0.0
  0
LINE
  5
71
  8
CRS
 10
1415.6345308170301
 20
925.85425324664652
 30
0.0
 11
1423.0628383454671
 21
925.85425324664652
 31
0.0
  0
CIRCLE
  5
72
  8
DRG2
 10
1504.8248269314031
 20
696.04454936101843
 30
0.0
 40
11.164999999999999
  0
CIRCLE
  5
73
  8
DRG2
 10
1504.8248269314031
 20
696.04454936101843
 30
0.0
 40
12.16499999999999
  0
LINE
  5
74
  8
CRS
 10
1510.824826931402
 20
696.04454936101843
 30
0.0
 11
1518.2531344598401
 21
696.04454936101843
 31
0.0
  0
LINE
  5
75
  8
CRS
 10
1504.8248269314031
 20
702.04454936101843
 30
0.0
 11
1504.8248269314031
 21
709.47285688945635
 31
0.0
  0
LINE
  5
76
  8
CRS
 10
1498.8248269314031
 20
696.04454936101843
 30
0.0
 11
1491.3965194029649
 21
696.04454936101843
 31
0.0
  0
POLYLINE
  5
77
  8
DRG2
 66
     1
 10
0.0
 20
0.0
 30
0.0
 70
     1
  0
VERTEX
  5
5F9
  8
DRG2
 10
1500.783375047075
 20
703.04454936101843
 30
0.0
  0
VERTEX
  5
5FA
  8
DRG2
 10
1496.741923162748
 20
696.04454936101843
 30
0.0
  0
VERTEX
  5
5FB
  8
DRG2
 10
1500.783375047075
 20
689.04454936101843
 30
0.0
  0
VERTEX
  5
5FC
  8
DRG2
 10
1508.8662788157301
 20
689.04454936101843
 30
0.0
  0
VERTEX
  5
5FD
  8
DRG2
 10
1512.9077307000571
 20
696.04454936101843
 30
0.0
  0
VERTEX
  5
5FE
  8
DRG2
 10
1508.8662788157301
 20
703.04454936101843
 30
0.0
  0
SEQEND
  5
5FF
  8
DRG2
  0
LINE
  5
7F
  8
CRS
 10
1504.8248269314031
 20
693.04454936101843
 30
0.0
 11
1504.8248269314031
 21
699.04454936101843
 31
0.0
  0
LINE
  5
80
  8
CRS
 10
1504.8248269314031
 20
690.04454936101843
 30
0.0
 11
1504.8248269314031
 21
682.61624183258095
 31
0.0
  0
LINE
  5
81
  8
CRS
 10
1501.824826931402
 20
696.04454936101843
 30
0.0
 11
1507.824826931402
 21
696.04454936101843
 31
0.0
  0
CIRCLE
  5
82
  8
DRG2
 10
1504.824826931402
 20
1155.663957132273
 30
0.0
 40
11.164999999999999
  0
CIRCLE
  5
83
  8
DRG2
 10
1504.824826931402
 20
1155.663957132273
 30
0.0
 40
12.16499999999999
  0
LINE
  5
84
  8
CRS
 10
1510.824826931402
 20
1155.663957132273
 30
0.0
 11
1518.2531344598401
 21
1155.663957132273
 31
0.0
  0
LINE
  5
85
  8
CRS
 10
1498.824826931402
 20
1155.663957132273
 30
0.0
 11
1491.396519402964
 21
1155.663957132273
 31
0.0
  0
POLYLINE
  5
86
  8
DRG2
 66
     1
 10
0.0
 20
0.0
 30
0.0
 70
     1
  0
VERTEX
  5
600
  8
DRG2
 10
1500.783375047075
 20
1162.663957132273
 30
0.0
  0
VERTEX
  5
601
  8
DRG2
 10
1496.7419231627471
 20
1155.663957132273
 30
0.0
  0
VERTEX
  5
602
  8
DRG2
 10
1500.783375047075
 20
1148.663957132273
 30
0.0
  0
VERTEX
  5
603
  8
DRG2
 10
1508.8662788157289
 20
1148.663957132273
 30
0.0
  0
VERTEX
  5
604
  8
DRG2
 10
1512.9077307000571
 20
1155.663957132273
 30
0.0
  0
VERTEX
  5
605
  8
DRG2
 10
1508.8662788157289
 20
1162.663957132273
 30
0.0
  0
SEQEND
  5
606
  8
DRG2
  0
LINE
  5
8E
  8
CRS
 10
1504.824826931402
 20
1161.663957132273
 30
0.0
 11
1504.824826931402
 21
1169.092264660711
 31
0.0
  0
LINE
  5
8F
  8
CRS
 10
1504.824826931402
 20
1152.6639571322739
 30
0.0
 11
1504.824826931402
 21
1158.6639571322739
 31
0.0
  0
LINE
  5
90
  8
CRS
 10
1504.824826931402
 20
1149.663957132273
 30
0.0
 11
1504.824826931402
 21
1142.235649603836
 31
0.0
  0
LINE
  5
91
  8
CRS
 10
1501.824826931402
 20
1155.663957132273
 30
0.0
 11
1507.824826931402
 21
1155.663957132273
 31
0.0
  0
LINE
  5
92
  8
CRS
 10
1734.6345308170301
 20
1223.3565401981889
 30
0.0
 11
1734.6345308170301
 21
618.37560040323001
 31
0.0
  0
LINE
  5
93
  8
CRS
 10
1728.6345308170301
 20
600.85425324664698
 30
0.0
 11
1721.2062232885919
 21
600.85425324664698
 31
0.0
  0
LINE
  5
94
  8
CRS
 10
1734.6345308170301
 20
581.4126200686311
 30
0.0
 11
1734.6345308170301
 21
556.58747408859131
 31
0.0
  0
LINE
  5
95
  8
CRS
 10
1731.6345308170301
 20
600.85425324664698
 30
0.0
 11
1737.6345308170301
 21
600.85425324664698
 31
0.0
  0
POLYLINE
  5
96
  8
DRG2
 66
     1
 10
0.0
 20
0.0
 30
0.0
  0
VERTEX
  5
607
  8
DRG2
 10
1734.6345308170301
 20
607.85425324664686
 30
0.0
  0
VERTEX
  5
608
  8
DRG2
 10
1730.5930789327019
 20
607.85425324664686
 30
0.0
  0
SEQEND
  5
609
  8
DRG2
  0
POLYLINE
  5
9A
  8
DRG2
 66
     1
 10
0.0
 20
0.0
 30
0.0
  0
VERTEX
  5
60A
  8
DRG2
 10
1730.5930789327019
 20
607.85425324664686
 30
0.0
  0
VERTEX
  5
60B
  8
DRG2
 10
1726.5516270483749
 20
600.85425324664698
 30
0.0
  0
VERTEX
  5
60C
  8
DRG2
 10
1730.5930789327019
 20
593.85425324664698
 30
0.0
  0
VERTEX
  5
60D
  8
DRG2
 10
1734.6345308170301
 20
593.85425324664698
 30
0.0
  0
SEQEND
  5
60E
  8
DRG2
  0
LINE
  5
A0
  8
CRS
 10
1734.6345308170301
 20
606.85425324664686
 30
0.0
 11
1734.6345308170301
 21
614.28256077508445
 31
0.0
  0
LINE
  5
A1
  8
CRS
 10
1734.6345308170301
 20
597.85425324664698
 30
0.0
 11
1734.6345308170301
 21
603.85425324664686
 31
0.0
  0
LINE
  5
A2
  8
CRS
 10
1734.6345308170301
 20
594.85425324664686
 30
0.0
 11
1734.6345308170301
 21
587.42594571820905
 31
0.0
  0
ARC
  5
A3
  8
DRG2
 10
1734.6345308170301
 20
600.85425324664698
 30
0.0
 40
11.164999999999999
 50
90.0
 51
270.0
  0
ARC
  5
A4
  8
DRG2
 10
1734.6345308170301
 20
600.85425324664698
 30
0.0
 40
12.16499999999999
 50
90.0
 51
270.0
  0
LINE
  5
A5
  8
CRS
 10
1728.6345308170301
 20
1250.8542532466461
 30
0.0
 11
1721.2062232885919
 21
1250.8542532466461
 31
0.0
  0
ARC
  5
A6
  8
DRG
 10
1734.6345308170301
 20
1300.7542532466459
 30
0.0
 40
30.0
 50
90.0
 51
237.39946001174411
  0
LINE
  5
A7
  8
DRG
 10
1606.253929359103
 20
1251.458954025522
 30
0.0
 11
1647.485599122572
 21
1151.920667287375
 31
0.0
  0
ARC
  5
A8
  8
DRG
 10
1658.6345308170301
 20
1286.4319147843521
 30
0.0
 40
16.0
 50
281.90218608636002
 51
0.0
  0
LINE
  5
A9
  8
DRG
 10
1606.6345308170301
 20
1300.7542532466459
 30
0.0
 11
1606.6345308170289
 21
1254.293364803111
 31
0.0
  0
ARC
  5
AA
  8
DRG
 10
1673.6345308170301
 20
1289.2703370954489
 30
0.0
 40
16.0
 50
279.52837068246998
 51
0.0
  0
LINE
  5
AB
  8
DRG
 10
1689.6345308170301
 20
1300.7542532466459
 30
0.0
 11
1689.6345308170301
 21
1289.2703370954489
 31
0.0
  0
LINE
  5
AC
  8
CRS
 10
1731.6345308170301
 20
1250.8542532466461
 30
0.0
 11
1737.6345308170301
 21
1250.8542532466461
 31
0.0
  0
POLYLINE
  5
AD
  8
DRG2
 66
     1
 10
0.0
 20
0.0
 30
0.0
  0
VERTEX
  5
60F
  8
DRG2
 10
1734.6345308170301
 20
1257.8542532466461
 30
0.0
  0
VERTEX
  5
610
  8
DRG2
 10
1730.5930789327019
 20
1257.8542532466461
 30
0.0
  0
SEQEND
  5
611
  8
DRG2
  0
POLYLINE
  5
B1
  8
DRG2
 66
     1
 10
0.0
 20
0.0
 30
0.0
  0
VERTEX
  5
612
  8
DRG2
 10
1730.5930789327019
 20
1257.8542532466461
 30
0.0
  0
VERTEX
  5
613
  8
DRG2
 10
1726.5516270483749
 20
1250.8542532466461
 30
0.0
  0
VERTEX
  5
614
  8
DRG2
 10
1730.5930789327019
 20
1243.8542532466461
 30
0.0
  0
VERTEX
  5
615
  8
DRG2
 10
1734.6345308170301
 20
1243.8542532466461
 30
0.0
  0
SEQEND
  5
616
  8
DRG2
  0
LINE
  5
B7
  8
CRS
 10
1734.6345308170301
 20
1244.8542532466461
 30
0.0
 11
1734.6345308170301
 21
1237.4259457182079
 31
0.0
  0
LINE
  5
B8
  8
CRS
 10
1734.6345308170301
 20
1247.854253246647
 30
0.0
 11
1734.6345308170301
 21
1253.8542532466461
 31
0.0
  0
LINE
  5
B9
  8
CRS
 10
1734.6345308170301
 20
1256.8542532466461
 30
0.0
 11
1734.6345308170301
 21
1264.282560775084
 31
0.0
  0
ARC
  5
BA
  8
DRG2
 10
1734.6345308170301
 20
1250.8542532466461
 30
0.0
 40
11.164999999999999
 50
90.0
 51
270.0
  0
ARC
  5
BB
  8
DRG2
 10
1734.6345308170301
 20
1250.8542532466461
 30
0.0
 40
12.16499999999999
 50
90.0
 51
270.0
  0
LINE
  5
BC
  8
DRG
 10
1653.6605468949731
 20
1585.635375695626
 30
0.0
 11
1548.8205466590471
 21
1414.759355287463
 31
0.0
  0
ARC
  5
BD
  8
DRG
 10
1734.6345308170301
 20
1300.7542532466459
 30
0.0
 40
218.0
 50
148.469042165102
 51
164.6231396305684
  0
ARC
  5
BE
  8
DRG
 10
1734.6345308170301
 20
1535.9542532466471
 30
0.0
 40
40.0
 50
90.0
 51
270.0
  0
LINE
  5
BF
  8
DRG
 10
1679.6345308170301
 20
1475.9542532466471
 30
0.0
 11
1722.6345308170301
 21
1475.9542532466471
 31
0.0
  0
LINE
  5
C0
  8
DRG
 10
1679.6345308170301
 20
1595.954253246646
 30
0.0
 11
1734.6345308170301
 21
1595.954253246646
 31
0.0
  0
ARC
  5
C1
  8
DRG
 10
1734.6345308170301
 20
1535.9542532466471
 30
0.0
 40
95.0
 50
90.0
 51
148.46904216510211
  0
LINE
  5
C2
  8
CRS
 10
1760.0683192268809
 20
1535.9542532466471
 30
0.0
 11
1642.1669729826881
 21
1535.9542532466471
 31
0.0
  0
LINE
  5
C3
  8
DRG
 10
1734.6345308170301
 20
1608.4542532466471
 30
0.0
 11
1680.1345308170301
 21
1608.4542532466471
 31
0.0
  0
LINE
  5
C4
  8
DRG
 10
1722.6345308170301
 20
1463.4542532466471
 30
0.0
 11
1680.1345308170301
 21
1463.4542532466471
 31
0.0
  0
LINE
  5
C5
  8
DRG
 10
1674.6345308170301
 20
1590.954253246646
 30
0.0
 11
1674.6345308170301
 21
1480.9542532466471
 31
0.0
  0
LINE
  5
C6
  8
DRG
 10
1662.1345308170301
 20
1590.4542532466471
 30
0.0
 11
1662.1345308170301
 21
1481.4542532466471
 31
0.0
  0
ARC
  5
C7
  8
DRG
 10
1680.1345308170301
 20
1481.4542532466471
 30
0.0
 40
18.0
 50
180.0
 51
270.0
  0
ARC
  5
C8
  8
DRG
 10
1690.6345308170301
 20
1403.7493987633179
 30
0.0
 40
16.0
 50
113.1323963992976
 51
180.0
  0
CIRCLE
  5
C9
  8
DRG2
 10
1685.1370561339711
 20
1486.4567785635891
 30
0.0
 40
9.1349999999999998
  0
CIRCLE
  5
CA
  8
DRG2
 10
1685.1370561339711
 20
1486.4567785635891
 30
0.0
 40
8.1349999999999998
  0
LINE
  5
CB
  8
CRS
  6
BYBLOCK
 10
1691.1370561339711
 20
1486.4567785635891
 30
0.0
 11
1698.3870561339711
 21
1486.4567785635891
 31
0.0
  0
POLYLINE
  5
CC
  8
DRG2
 66
     1
 10
0.0
 20
0.0
 30
0.0
 70
     1
  0
VERTEX
  5
617
  8
DRG2
 10
1682.250304788023
 20
1481.4567785635891
 30
0.0
  0
VERTEX
  5
618
  8
DRG2
 10
1679.363553442075
 20
1486.4567785635891
 30
0.0
  0
VERTEX
  5
619
  8
DRG2
 10
1682.250304788023
 20
1491.4567785635891
 30
0.0
  0
VERTEX
  5
61A
  8
DRG2
 10
1688.023807479919
 20
1491.4567785635891
 30
0.0
  0
VERTEX
  5
61B
  8
DRG2
 10
1690.9105588258669
 20
1486.4567785635891
 30
0.0
  0
VERTEX
  5
61C
  8
DRG2
 10
1688.023807479919
 20
1481.4567785635891
 30
0.0
  0
SEQEND
  5
61D
  8
DRG2
  0
ARC
  5
D4
  8
DRG
 10
1679.6345308170301
 20
1480.9542532466471
 30
0.0
 40
5.0
 50
180.0
 51
270.0
  0
LINE
  5
D5
  8
CRS
  6
BYBLOCK
 10
1685.1370561339711
 20
1480.4567785635891
 30
0.0
 11
1685.1370561339711
 21
1473.2067785635879
 31
0.0
  0
LINE
  5
D6
  8
CRS
  6
BYBLOCK
 10
1679.1370561339711
 20
1486.4567785635891
 30
0.0
 11
1671.8870561339711
 21
1486.4567785635891
 31
0.0
  0
LINE
  5
D7
  8
CRS
  6
BYBLOCK
 10
1685.1370561339711
 20
1489.4567785635891
 30
0.0
 11
1685.1370561339711
 21
1483.4567785635891
 31
0.0
  0
LINE
  5
D8
  8
CRS
  6
BYBLOCK
 10
1682.1370561339711
 20
1486.4567785635891
 30
0.0
 11
1688.1370561339711
 21
1486.4567785635891
 31
0.0
  0
LINE
  5
D9
  8
CRS
  6
BYBLOCK
 10
1685.1370561339711
 20
1492.656778563588
 30
0.0
 11
1685.1370561339711
 21
1499.906778563588
 31
0.0
  0
ARC
  5
DA
  8
DRG
 10
1680.1345308170301
 20
1590.4542532466471
 30
0.0
 40
18.0
 50
90.0
 51
180.0
  0
LINE
  5
DB
  8
CRS
  6
BYBLOCK
 10
1691.1370561339711
 20
1585.4517279297049
 30
0.0
 11
1698.3870561339711
 21
1585.4517279297049
 31
0.0
  0
CIRCLE
  5
DC
  8
DRG2
 10
1685.1370561339711
 20
1585.4517279297049
 30
0.0
 40
8.1349999999999998
  0
CIRCLE
  5
DD
  8
DRG2
 10
1685.1370561339711
 20
1585.4517279297049
 30
0.0
 40
9.1349999999999998
  0
ARC
  5
DE
  8
DRG
 10
1679.6345308170301
 20
1590.954253246646
 30
0.0
 40
5.0
 50
90.0
 51
180.0
  0
LINE
  5
DF
  8
CRS
  6
BYBLOCK
 10
1679.1370561339711
 20
1585.4517279297049
 30
0.0
 11
1671.8870561339711
 21
1585.4517279297049
 31
0.0
  0
LINE
  5
E0
  8
CRS
  6
BYBLOCK
 10
1685.1370561339711
 20
1591.4517279297049
 30
0.0
 11
1685.1370561339711
 21
1598.7017279297049
 31
0.0
  0
LINE
  5
E1
  8
CRS
  6
BYBLOCK
 10
1685.1370561339711
 20
1579.4517279297049
 30
0.0
 11
1685.1370561339711
 21
1572.201727929704
 31
0.0
  0
LINE
  5
E2
  8
CRS
  6
BYBLOCK
 10
1682.1370561339711
 20
1585.4517279297049
 30
0.0
 11
1688.1370561339711
 21
1585.4517279297049
 31
0.0
  0
POLYLINE
  5
E3
  8
DRG2
 66
     1
 10
0.0
 20
0.0
 30
0.0
 70
     1
  0
VERTEX
  5
61E
  8
DRG2
 10
1682.250304788023
 20
1590.4517279297049
 30
0.0
  0
VERTEX
  5
61F
  8
DRG2
 10
1679.363553442075
 20
1585.4517279297049
 30
0.0
  0
VERTEX
  5
620
  8
DRG2
 10
1682.250304788023
 20
1580.4517279297049
 30
0.0
  0
VERTEX
  5
621
  8
DRG2
 10
1688.023807479919
 20
1580.4517279297049
 30
0.0
  0
VERTEX
  5
622
  8
DRG2
 10
1690.9105588258669
 20
1585.4517279297049
 30
0.0
  0
VERTEX
  5
623
  8
DRG2
 10
1688.023807479919
 20
1590.4517279297049
 30
0.0
  0
SEQEND
  5
624
  8
DRG2
  0
LINE
  5
EB
  8
CRS
  6
BYBLOCK
 10
1685.1370561339711
 20
1582.4517279297049
 30
0.0
 11
1685.1370561339711
 21
1588.4517279297049
 31
0.0
  0
LINE
  5
EC
  8
DRG
 10
1728.6345308170301
 20
1457.4542532466471
 30
0.0
 11
1728.6345308170301
 21
1434.2158582122711
 31
0.0
  0
ARC
  5
ED
  8
DRG
 10
1722.6345308170301
 20
1434.2158582122711
 30
0.0
 40
6.0
 50
275.1378482490374
 51
0.0
  0
LINE
  5
EE
  8
DRG
 10
1722.6345308170301
 20
1475.9542532466471
 30
0.0
 11
1734.6345308170301
 21
1475.9542532466471
 31
0.0
  0
ARC
  5
EF
  8
DRG
 10
1722.6345308170301
 20
1457.4542532466471
 30
0.0
 40
6.0
 50
0.0
 51
90.0
  0
LINE
  5
F0
  8
DRG
 10
1734.6345308170301
 20
1463.4542532466471
 30
0.0
 11
1722.6345308170301
 21
1463.4542532466471
 31
0.0
  0
ARC
  5
F1
  8
DRG
 10
771.1842706857542
 20
1352.560601177543
 30
0.0
 40
6.0
 50
90.0
 51
180.0
  0
LINE
  5
F2
  8
DRG
 10
799.1842706857542
 20
1412.7542532466471
 30
0.0
 11
799.1842706857542
 21
1351.7542532466459
 31
0.0
  0
LINE
  5
F3
  8
DRG
 10
608.18427068574783
 20
1614.454253246646
 30
0.0
 11
608.1842706857642
 21
1100.663355557974
 31
0.0
  0
ARC
  5
F4
  8
DRG
 10
446.1842706857542
 20
1356.7542532466471
 30
0.0
 40
16.0
 50
270.0
 51
0.0000000000000382
  0
LINE
  5
F5
  8
DRG
 10
462.18427068575329
 20
1614.454253246646
 30
0.0
 11
462.18427068575693
 21
805.81374864642294
 31
0.0
  0
LINE
  5
F6
  8
DRG
 10
447.18427068575369
 20
1458.9821172916461
 30
0.0
 11
447.18427068575409
 21
1346.7542532466459
 31
0.0
  0
LINE
  5
F7
  8
DRG
 10
820.1842706857542
 20
575.85425324664675
 30
0.0
 11
820.1842706857542
 21
807.11129698191769
 31
0.0
  0
LINE
  5
F8
  8
DRG
 10
805.18427068575465
 20
807.11129698191769
 30
0.0
 11
805.184270685755
 21
573.35425324664675
 31
0.0
  0
LINE
  5
F9
  8
DRG
 10
765.18427068575465
 20
807.11129698191769
 30
0.0
 11
765.18427068575511
 21
578.73237387034192
 31
0.0
  0
LINE
  5
FA
  8
DRG
 10
592.184270685755
 20
1088.663355557974
 30
0.0
 11
592.184270685755
 21
625.82925324664654
 31
0.0
  0
ARC
  5
FB
  8
DRG
 10
610.18427068575511
 20
625.82925324664654
 30
0.0
 40
18.0
 50
180.0
 51
270.0
  0
LINE
  5
FC
  8
DRG
 10
610.18427068575511
 20
607.82925324664654
 30
0.0
 11
735.18427068575556
 21
607.82925324664654
 31
0.0
  0
LINE
  5
FD
  8
DRG
 10
771.15195583506784
 20
573.35425324664675
 30
0.0
 11
805.184270685755
 21
573.35425324664675
 31
0.0
  0
ARC
  5
FE
  8
DRG
 10
735.18427068575556
 20
577.82925324664654
 30
0.0
 40
30.0
 50
2.4278393632853388
 51
90.0
  0
ARC
  5
FF
  8
DRG
 10
771.15195583506784
 20
579.35425324664675
 30
0.0
 40
6.0
 50
182.42783936328539
 51
270.0
  0
LINE
  5
100
  8
DRG
 10
820.1842706857542
 20
575.85425324664675
 30
0.0
 11
805.18427068575409
 21
575.85425324664675
 31
0.0
  0
LINE
  5
101
  8
DRG
 10
805.18427068575409
 20
581.82027865043085
 30
0.0
 11
805.18427068575409
 21
592.65425324664659
 31
0.0
  0
LINE
  5
102
  8
DRG2
 10
835.1842706857542
 20
588.68425324664679
 30
0.0
 11
820.1842706857542
 21
588.68425324664679
 31
0.0
  0
LINE
  5
103
  8
CRS
 10
837.29235590843746
 20
600.85425324664675
 30
0.0
 11
816.77274994088975
 21
600.85425324664675
 31
0.0
  0
LINE
  5
104
  8
DRG2
 10
835.1842706857542
 20
588.68425324664679
 30
0.0
 11
836.1842706857542
 21
589.6842532466469
 31
0.0
  0
LINE
  5
105
  8
DRG2
 10
836.1842706857542
 20
612.02425324664682
 30
0.0
 11
835.1842706857542
 21
613.02425324664682
 31
0.0
  0
LINE
  5
106
  8
DRG2
 10
835.1842706857542
 20
613.02425324664682
 30
0.0
 11
823.99976368852447
 21
613.02425324664682
 31
0.0
  0
LINE
  5
107
  8
DRG2
 10
835.1842706857542
 20
588.68425324664679
 30
0.0
 11
835.1842706857542
 21
613.02425324664682
 31
0.0
  0
LINE
  5
108
  8
DRG2
 10
836.1842706857542
 20
589.6842532466469
 30
0.0
 11
836.1842706857542
 21
612.02425324664682
 31
0.0
  0
ARC
  5
109
  8
DRG
 10
602.1842706857642
 20
1100.663355557974
 30
0.0
 40
6.0
 50
270.0
 51
0.0000000000020483
  0
ARC
  5
10A
  8
DRG
 10
567.184270685755
 20
750.85425324664629
 30
0.0
 40
25.0
 50
0.0
 51
90.0
  0
LINE
  5
10B
  8
DRG
 10
447.184270685755
 20
1081.8542532466461
 30
0.0
 11
447.18427068575409
 21
1254.7542532466459
 31
0.0
  0
ARC
  5
10C
  8
DRG
 10
456.18427068575511
 20
1081.8542532466461
 30
0.0
 40
6.0
 50
270.0
 51
0.0
  0
ARC
  5
10D
  8
DRG
 10
441.18427068575511
 20
1081.8542532466461
 30
0.0
 40
6.0
 50
269.99999999999977
 51
0.0
  0
LINE
  5
10E
  8
DRG
 10
440.1842706857542
 20
1260.7542532466459
 30
0.0
 11
440.1842706857542
 21
1275.7442532466459
 31
0.0
  0
ARC
  5
10F
  8
DRG
 10
446.1842706857542
 20
1244.7542532466459
 30
0.0
 40
16.0
 50
359.99999999999989
 51
90.0
  0
LINE
  5
110
  8
DRG
 10
440.1842706857542
 20
1260.7542532466459
 30
0.0
 11
446.1842706857542
 21
1260.7542532466459
 31
0.0
  0
ARC
  5
111
  8
DRG
 10
441.1842706857542
 20
1254.7542532466459
 30
0.0
 40
6.0
 50
359.99999999999989
 51
90.0
  0
LINE
  5
112
  8
DRG
 10
440.1842706857542
 20
1260.7542532466459
 30
0.0
 11
441.1842706857542
 21
1260.7542532466459
 31
0.0
  0
LINE
  5
113
  8
DRG
 10
440.1842706857546
 20
1325.7642532466459
 30
0.0
 11
440.1842706857542
 21
1300.7542532466459
 31
0.0
  0
LINE
  5
114
  8
DRG
 10
440.1842706857542
 20
1275.7442532466459
 30
0.0
 11
440.1842706857542
 21
1300.7542532466459
 31
0.0
  0
LINE
  5
115
  8
DRG
 10
440.1842706857542
 20
1340.7542532466459
 30
0.0
 11
446.1842706857542
 21
1340.7542532466459
 31
0.0
  0
ARC
  5
116
  8
DRG
 10
441.1842706857542
 20
1346.7542532466459
 30
0.0
 40
6.0
 50
270.0
 51
0.0000000000000382
  0
LINE
  5
117
  8
DRG
 10
440.1842706857542
 20
1340.7542532466459
 30
0.0
 11
441.1842706857542
 21
1340.7542532466459
 31
0.0
  0
LINE
  5
118
  8
DRG
 10
440.1842706857542
 20
1340.7542532466459
 30
0.0
 11
440.1842706857542
 21
1325.7642532466459
 31
0.0
  0
ARC
  5
119
  8
DRG
 10
598.18427068575511
 20
1088.663355557974
 30
0.0
 40
6.0
 50
90.000000000000057
 51
180.0
  0
LINE
  5
11A
  8
DRG2
 10
835.1842706857542
 20
708.21454936101964
 30
0.0
 11
820.1842706857542
 21
708.21454936101941
 31
0.0
  0
LINE
  5
11B
  8
DRG2
 10
835.1842706857542
 20
683.87454936101972
 30
0.0
 11
820.1842706857542
 21
683.87454936101938
 31
0.0
  0
LINE
  5
11C
  8
CRS
 10
837.29235590843746
 20
696.04454936101945
 30
0.0
 11
816.77274994088975
 21
696.04454936101945
 31
0.0
  0
LINE
  5
11D
  8
DRG2
 10
835.1842706857542
 20
683.87454936101972
 30
0.0
 11
836.1842706857542
 21
684.87454936101972
 31
0.0
  0
LINE
  5
11E
  8
DRG2
 10
836.1842706857542
 20
707.21454936101964
 30
0.0
 11
835.1842706857542
 21
708.21454936101964
 31
0.0
  0
LINE
  5
11F
  8
DRG2
 10
836.1842706857542
 20
684.87454936101972
 30
0.0
 11
836.1842706857542
 21
707.21454936101964
 31
0.0
  0
LINE
  5
120
  8
DRG2
 10
835.1842706857542
 20
683.87454936101972
 30
0.0
 11
835.1842706857542
 21
708.21454936101964
 31
0.0
  0
LINE
  5
121
  8
DRG
 10
820.1842706857542
 20
1275.8542532466461
 30
0.0
 11
820.1842706857542
 21
1046.4261206469621
 31
0.0
  0
LINE
  5
122
  8
DRG
 10
765.1842706857542
 20
1352.560601177543
 30
0.0
 11
765.18427068575443
 21
1046.4261206469621
 31
0.0
  0
LINE
  5
123
  8
DRG
 10
805.18427068575409
 20
1331.6202786504309
 30
0.0
 11
805.18427068575409
 21
1046.4261206469621
 31
0.0
  0
LINE
  5
124
  8
CRS
 10
837.29235590843746
 20
1155.663957132273
 30
0.0
 11
816.77274994088975
 21
1155.663957132273
 31
0.0
  0
LINE
  5
125
  8
DRG2
 10
835.1842706857542
 20
1143.493957132273
 30
0.0
 11
820.1842706857542
 21
1143.493957132273
 31
0.0
  0
LINE
  5
126
  8
DRG2
 10
835.1842706857542
 20
1167.833957132274
 30
0.0
 11
820.1842706857542
 21
1167.833957132274
 31
0.0
  0
LINE
  5
127
  8
DRG2
 10
835.1842706857542
 20
1167.833957132274
 30
0.0
 11
835.1842706857542
 21
1143.493957132273
 31
0.0
  0
LINE
  5
128
  8
DRG2
 10
836.1842706857542
 20
1144.493957132273
 30
0.0
 11
835.1842706857542
 21
1143.493957132273
 31
0.0
  0
LINE
  5
129
  8
DRG2
 10
835.1842706857542
 20
1167.833957132274
 30
0.0
 11
836.1842706857542
 21
1166.833957132274
 31
0.0
  0
LINE
  5
12A
  8
DRG2
 10
836.1842706857542
 20
1166.833957132274
 30
0.0
 11
836.1842706857542
 21
1144.493957132273
 31
0.0
  0
LINE
  5
12B
  8
DRG
 10
805.18427068575409
 20
1269.8882278428621
 30
0.0
 11
805.18427068575409
 21
1259.0542532466461
 31
0.0
  0
LINE
  5
12C
  8
DRG2
 10
835.1842706857542
 20
1263.0242532466459
 30
0.0
 11
820.1842706857542
 21
1263.0242532466459
 31
0.0
  0
LINE
  5
12D
  8
CRS
 10
837.29235590843746
 20
1250.8542532466461
 30
0.0
 11
816.77274994088975
 21
1250.8542532466461
 31
0.0
  0
LINE
  5
12E
  8
DRG2
 10
835.1842706857542
 20
1238.684253246646
 30
0.0
 11
823.99976368852447
 21
1238.684253246646
 31
0.0
  0
LINE
  5
12F
  8
DRG2
 10
835.1842706857542
 20
1263.0242532466459
 30
0.0
 11
836.1842706857542
 21
1262.0242532466459
 31
0.0
  0
LINE
  5
130
  8
DRG2
 10
836.1842706857542
 20
1239.684253246646
 30
0.0
 11
835.1842706857542
 21
1238.684253246646
 31
0.0
  0
LINE
  5
131
  8
DRG2
 10
836.1842706857542
 20
1262.0242532466459
 30
0.0
 11
836.1842706857542
 21
1239.684253246646
 31
0.0
  0
LINE
  5
132
  8
DRG2
 10
835.1842706857542
 20
1263.0242532466459
 30
0.0
 11
835.1842706857542
 21
1238.684253246646
 31
0.0
  0
LINE
  5
133
  8
DRG
 10
820.1842706857542
 20
1275.8542532466461
 30
0.0
 11
805.18427068575409
 21
1275.8542532466461
 31
0.0
  0
ARC
  5
134
  8
DRG
 10
805.18427068575409
 20
1351.7542532466459
 30
0.0
 40
6.0
 50
180.0
 51
270.0
  0
LINE
  5
135
  8
DRG
 10
805.18427068575409
 20
1345.7542532466471
 30
0.0
 11
805.18427068575409
 21
1331.6202786504309
 31
0.0
  0
ARC
  5
136
  8
DRG
 10
594.18427068575375
 20
1616.954253246646
 30
0.0
 40
14.0
 50
0.0
 51
90.0
  0
ARC
  5
137
  8
DRG
 10
624.1842706857542
 20
1444.7542532466471
 30
0.0
 40
16.0
 50
180.0
 51
270.0
  0
LINE
  5
138
  8
DRG
 10
476.18427068575329
 20
1630.954253246646
 30
0.0
 11
594.18427068575375
 21
1630.954253246646
 31
0.0
  0
LINE
  5
139
  8
DRG
 10
430.18427068575329
 20
1595.954253246646
 30
0.0
 11
430.18427068575329
 21
1475.954253246646
 31
0.0
  0
LINE
  5
13A
  8
DRG
 10
445.18427068575318
 20
1589.454253246646
 30
0.0
 11
445.18427068575318
 21
1482.454253246646
 31
0.0
  0
ARC
  5
13B
  8
DRG
 10
456.18427068575369
 20
1457.454253246646
 30
0.0
 40
6.0
 50
0.0000000000000509
 51
90.0
  0
LINE
  5
13C
  8
DRG
 10
445.18427068575318
 20
1482.454253246646
 30
0.0
 11
445.18427068575318
 21
1463.454253246646
 31
0.0
  0
LINE
  5
13D
  8
DRG
 10
430.18427068575329
 20
1475.954253246646
 30
0.0
 11
445.18427068575318
 21
1475.954253246646
 31
0.0
  0
LINE
  5
13E
  8
DRG
 10
445.18427068575318
 20
1463.454253246646
 30
0.0
 11
456.18427068575369
 21
1463.454253246646
 31
0.0
  0
ARC
  5
13F
  8
DRG
 10
441.18427068575369
 20
1458.9821172916461
 30
0.0
 40
6.0
 50
0.0000000000000509
 51
48.189685104225767
  0
ARC
  5
140
  8
DRG
 10
456.18427068575369
 20
1614.454253246646
 30
0.0
 40
6.0
 50
270.0
 51
0.0
  0
LINE
  5
141
  8
DRG
 10
430.18427068575329
 20
1595.954253246646
 30
0.0
 11
445.18427068575318
 21
1595.954253246646
 31
0.0
  0
LINE
  5
142
  8
DRG
 10
445.18427068575318
 20
1608.4542532466471
 30
0.0
 11
456.18427068575369
 21
1608.454253246646
 31
0.0
  0
LINE
  5
143
  8
DRG
 10
445.18427068575318
 20
1608.4542532466471
 30
0.0
 11
445.18427068575318
 21
1589.454253246646
 31
0.0
  0
ARC
  5
144
  8
DRG
 10
476.18427068575329
 20
1616.954253246646
 30
0.0
 40
14.0
 50
90.0
 51
180.0
  0
LINE
  5
145
  8
DRG
 10
462.18427068575369
 20
1616.954253246646
 30
0.0
 11
462.18427068575369
 21
1614.454253246646
 31
0.0
  0
LINE
  5
146
  8
DRG
 10
624.1842706857542
 20
1428.7542532466471
 30
0.0
 11
783.1842706857542
 21
1428.7542532466471
 31
0.0
  0
LINE
  5
147
  8
DRG
 10
646.18427068575284
 20
1575.954253246646
 30
0.0
 11
646.18427068575465
 21
1495.954253246646
 31
0.0
  0
LINE
  5
148
  8
DRG
 10
640.18427068575227
 20
1595.954253246646
 30
0.0
 11
640.18427068575511
 21
1475.954253246646
 31
0.0
  0
LINE
  5
149
  8
DRG
 10
625.18427068575375
 20
1589.454253246646
 30
0.0
 11
625.18427068575375
 21
1482.4542532466471
 31
0.0
  0
LINE
  5
14A
  8
DRG
 10
623.18427068575375
 20
1458.982117291647
 30
0.0
 11
623.18427068575409
 21
1434.7542532466459
 31
0.0
  0
ARC
  5
14B
  8
DRG
 10
629.1842706857542
 20
1434.7542532466459
 30
0.0
 40
6.0
 50
180.0
 51
270.0
  0
LINE
  5
14C
  8
DRG
 10
625.18427068575511
 20
1475.954253246646
 30
0.0
 11
640.18427068575511
 21
1475.954253246646
 31
0.0
  0
LINE
  5
14D
  8
CRS
 10
635.13166819711057
 20
1486.456778563587
 30
0.0
 11
659.75244041993665
 21
1486.456778563587
 31
0.0
  0
LINE
  5
14E
  8
DRG
 10
625.18427068575375
 20
1482.4542532466471
 30
0.0
 11
625.18427068575375
 21
1463.454253246646
 31
0.0
  0
LINE
  5
14F
  8
DRG
 10
614.18427068575375
 20
1463.454253246646
 30
0.0
 11
625.18427068575375
 21
1463.454253246646
 31
0.0
  0
ARC
  5
150
  8
DRG
 10
614.18427068575375
 20
1457.454253246646
 30
0.0
 40
6.0
 50
90.0
 51
180.0
  0
ARC
  5
151
  8
DRG
 10
629.18427068575375
 20
1458.982117291647
 30
0.0
 40
6.0
 50
131.8103148957795
 51
180.0
  0
LINE
  5
152
  8
DRG2
 10
651.18427068575284
 20
1495.5867785635869
 30
0.0
 11
651.18427068575284
 21
1477.3267785635869
 31
0.0
  0
LINE
  5
153
  8
DRG2
 10
652.18427068575284
 20
1494.5867785635869
 30
0.0
 11
652.18427068575284
 21
1478.3267785635869
 31
0.0
  0
LINE
  5
154
  8
DRG2
 10
640.18427068575284
 20
1477.3267785635869
 30
0.0
 11
651.18427068575284
 21
1477.3267785635869
 31
0.0
  0
LINE
  5
155
  8
DRG2
 10
652.18427068575284
 20
1478.3267785635869
 30
0.0
 11
651.18427068575284
 21
1477.3267785635869
 31
0.0
  0
LINE
  5
156
  8
DRG2
 10
640.18427068575284
 20
1495.5867785635869
 30
0.0
 11
651.18427068575284
 21
1495.5867785635869
 31
0.0
  0
LINE
  5
157
  8
DRG
 10
640.18427068575465
 20
1495.954253246646
 30
0.0
 11
646.18427068575465
 21
1495.954253246646
 31
0.0
  0
LINE
  5
158
  8
DRG2
 10
651.18427068575284
 20
1495.5867785635869
 30
0.0
 11
652.18427068575284
 21
1494.5867785635869
 31
0.0
  0
ARC
  5
159
  8
DRG
 10
614.18427068575375
 20
1614.454253246646
 30
0.0
 40
6.0
 50
180.0
 51
270.0
  0
LINE
  5
15A
  8
DRG
 10
625.18427068575227
 20
1595.954253246646
 30
0.0
 11
640.18427068575227
 21
1595.954253246646
 31
0.0
  0
LINE
  5
15B
  8
CRS
 10
635.13166819711057
 20
1585.451727929704
 30
0.0
 11
659.75244041993665
 21
1585.451727929704
 31
0.0
  0
LINE
  5
15C
  8
DRG
 10
614.18427068575375
 20
1608.454253246646
 30
0.0
 11
625.18427068575375
 21
1608.454253246646
 31
0.0
  0
LINE
  5
15D
  8
DRG
 10
625.18427068575375
 20
1608.454253246646
 30
0.0
 11
625.18427068575375
 21
1589.454253246646
 31
0.0
  0
LINE
  5
15E
  8
DRG2
 10
640.18427068575284
 20
1594.5817279297039
 30
0.0
 11
651.18427068575284
 21
1594.5817279297039
 31
0.0
  0
LINE
  5
15F
  8
DRG2
 10
640.18427068575284
 20
1576.3217279297039
 30
0.0
 11
651.18427068575284
 21
1576.3217279297039
 31
0.0
  0
LINE
  5
160
  8
DRG
 10
640.18427068575284
 20
1575.954253246646
 30
0.0
 11
646.18427068575284
 21
1575.954253246646
 31
0.0
  0
LINE
  5
161
  8
DRG2
 10
651.18427068575284
 20
1594.5817279297039
 30
0.0
 11
652.18427068575284
 21
1593.5817279297039
 31
0.0
  0
LINE
  5
162
  8
DRG2
 10
652.18427068575284
 20
1577.3217279297039
 30
0.0
 11
651.18427068575284
 21
1576.3217279297039
 31
0.0
  0
LINE
  5
163
  8
DRG2
 10
652.18427068575284
 20
1593.5817279297039
 30
0.0
 11
652.18427068575284
 21
1577.3217279297039
 31
0.0
  0
LINE
  5
164
  8
DRG2
 10
651.18427068575284
 20
1594.5817279297039
 30
0.0
 11
651.18427068575284
 21
1576.3217279297039
 31
0.0
  0
LINE
  5
165
  8
DRG
 10
608.18427068575375
 20
1616.954253246646
 30
0.0
 11
608.18427068575375
 21
1614.454253246646
 31
0.0
  0
ARC
  5
166
  8
DRG
 10
783.1842706857542
 20
1412.7542532466471
 30
0.0
 40
16.0
 50
0.0
 51
90.0
  0
LINE
  5
167
  8
CRS
 10
414.30276081331567
 20
925.85425324664675
 30
0.0
 11
478.9261517611294
 21
925.85425324664675
 31
0.0
  0
LINE
  5
168
  8
CRS
 10
425.87579847539422
 20
1300.7542532466459
 30
0.0
 11
818.24495560390596
 21
1300.7542532466459
 31
0.0
  0
LINE
  5
169
  8
DRG
 10
425.1842706857546
 20
1036.1042532466461
 30
0.0
 11
425.18427068575511
 21
925.85425324664652
 31
0.0
  0
LINE
  5
16A
  8
DRG
 10
425.1842706857546
 20
775.85425324664629
 30
0.0
 11
567.184270685755
 21
775.85425324664629
 31
0.0
  0
LINE
  5
16B
  8
DRG
 10
425.1842706857546
 20
815.60425324664629
 30
0.0
 11
425.18427068575511
 21
925.85425324664652
 31
0.0
  0
LINE
  5
16C
  8
CRS
 10
419.55672125893079
 20
793.35425324664675
 30
0.0
 11
451.71562268647949
 21
793.35425324664675
 31
0.0
  0
LINE
  5
16D
  8
HID
 10
425.1842706857546
 20
815.47425324664675
 30
0.0
 11
449.68427068575511
 21
815.47425324664675
 31
0.0
  0
LINE
  5
16E
  8
DRG
 10
425.1842706857546
 20
775.85425324664629
 30
0.0
 11
425.1842706857546
 21
815.60425324664629
 31
0.0
  0
LINE
  5
16F
  8
CRS
 10
419.55672125893079
 20
1058.3542532466461
 30
0.0
 11
451.71562268647949
 21
1058.3542532466461
 31
0.0
  0
LINE
  5
170
  8
DRG
 10
425.1842706857546
 20
1075.8542532466461
 30
0.0
 11
456.18427068575511
 21
1075.8542532466461
 31
0.0
  0
LINE
  5
171
  8
HID
 10
425.1842706857546
 20
1036.2342532466459
 30
0.0
 11
449.68427068575511
 21
1036.2342532466459
 31
0.0
  0
LINE
  5
172
  8
DRG
 10
425.1842706857546
 20
1075.8542532466461
 30
0.0
 11
425.1842706857546
 21
1036.1042532466461
 31
0.0
  0
LINE
  5
173
  8
DRG
 10
246.43427068575321
 20
1510.9542532466471
 30
0.0
 11
424.18427068575318
 21
1510.954253246646
 31
0.0
  0
LINE
  5
174
  8
DRG
 10
246.43427068575281
 20
1560.9542532466471
 30
0.0
 11
424.18427068575318
 21
1560.954253246646
 31
0.0
  0
LINE
  5
175
  8
CRS
 10
237.59682757713779
 20
1535.954253246646
 30
0.0
 11
653.48457736866965
 21
1535.954253246646
 31
0.0
  0
LINE
  5
176
  8
DRG
 10
246.43427068575281
 20
1560.9542532466471
 30
0.0
 11
246.43427068575321
 21
1510.9542532466471
 31
0.0
  0
LINE
  5
177
  8
DRG
 10
244.93427068575281
 20
1559.4542532466471
 30
0.0
 11
244.93427068575329
 21
1512.4542532466471
 31
0.0
  0
LINE
  5
178
  8
DRG
 10
246.43427068575281
 20
1560.9542532466471
 30
0.0
 11
244.93427068575281
 21
1559.4542532466471
 31
0.0
  0
LINE
  5
179
  8
DRG
 10
249.93427068575321
 20
1564.354253246647
 30
0.0
 11
329.93427068575329
 21
1564.354253246647
 31
0.0
  0
LINE
  5
17A
  8
DRG
 10
249.93427068575321
 20
1564.354253246647
 30
0.0
 11
249.93427068575321
 21
1560.9542532466471
 31
0.0
  0
LINE
  5
17B
  8
DRG
 10
329.93427068575329
 20
1564.354253246647
 30
0.0
 11
329.93427068575329
 21
1560.9542532466471
 31
0.0
  0
LINE
  5
17C
  8
DRG
 10
424.18427068575318
 20
1575.954253246646
 30
0.0
 11
424.18427068575318
 21
1495.954253246646
 31
0.0
  0
LINE
  5
17D
  8
DRG2
 10
430.18427068575329
 20
1495.5867785635869
 30
0.0
 11
419.18427068575318
 21
1495.5867785635869
 31
0.0
  0
LINE
  5
17E
  8
DRG2
 10
430.18427068575329
 20
1477.3267785635869
 30
0.0
 11
419.18427068575318
 21
1477.3267785635869
 31
0.0
  0
LINE
  5
17F
  8
DRG
 10
424.18427068575318
 20
1495.954253246646
 30
0.0
 11
430.18427068575329
 21
1495.954253246646
 31
0.0
  0
LINE
  5
180
  8
CRS
 10
435.23687317439538
 20
1486.456778563587
 30
0.0
 11
410.61610095156948
 21
1486.456778563587
 31
0.0
  0
LINE
  5
181
  8
DRG2
 10
419.18427068575318
 20
1477.3267785635869
 30
0.0
 11
419.18427068575318
 21
1495.5867785635869
 31
0.0
  0
LINE
  5
182
  8
DRG2
 10
418.18427068575329
 20
1478.3267785635869
 30
0.0
 11
418.18427068575329
 21
1494.5867785635869
 31
0.0
  0
LINE
  5
183
  8
DRG2
 10
419.18427068575318
 20
1477.3267785635869
 30
0.0
 11
418.18427068575329
 21
1478.3267785635869
 31
0.0
  0
LINE
  5
184
  8
DRG2
 10
418.18427068575329
 20
1494.5867785635869
 30
0.0
 11
419.18427068575318
 21
1495.5867785635869
 31
0.0
  0
LINE
  5
185
  8
DRG2
 10
430.18427068575329
 20
1594.5817279297039
 30
0.0
 11
419.18427068575318
 21
1594.5817279297039
 31
0.0
  0
LINE
  5
186
  8
DRG2
 10
430.18427068575329
 20
1576.3217279297039
 30
0.0
 11
419.18427068575318
 21
1576.3217279297039
 31
0.0
  0
LINE
  5
187
  8
DRG
 10
424.18427068575318
 20
1575.954253246646
 30
0.0
 11
430.18427068575329
 21
1575.954253246646
 31
0.0
  0
LINE
  5
188
  8
CRS
 10
435.23687317439538
 20
1585.451727929704
 30
0.0
 11
410.61610095156948
 21
1585.451727929704
 31
0.0
  0
LINE
  5
189
  8
DRG2
 10
418.18427068575329
 20
1593.5817279297039
 30
0.0
 11
419.18427068575318
 21
1594.5817279297039
 31
0.0
  0
LINE
  5
18A
  8
DRG2
 10
419.18427068575318
 20
1576.3217279297039
 30
0.0
 11
418.18427068575329
 21
1577.3217279297039
 31
0.0
  0
LINE
  5
18B
  8
DRG2
 10
418.18427068575329
 20
1577.3217279297039
 30
0.0
 11
418.18427068575329
 21
1593.5817279297039
 31
0.0
  0
LINE
  5
18C
  8
DRG2
 10
419.18427068575318
 20
1576.3217279297039
 30
0.0
 11
419.18427068575318
 21
1594.5817279297039
 31
0.0
  0
LINE
  5
18D
  8
DRG
 10
1072.4842706857539
 20
1143.870886502164
 30
0.0
 11
1072.4842706857539
 21
707.83761999112903
 31
0.0
  0
ARC
  5
18E
  8
DRG
 10
1734.6345308170301
 20
925.85425324664652
 30
0.0
 40
85.0
 50
90.0
 51
270.0
  0
ARC
  5
18F
  8
DRG
 10
1656.94453081703
 20
738.30425324664657
 30
0.0
 40
35.0
 50
149.62021309420689
 51
345.377572377077
  0
ARC
  5
190
  8
DRG
 10
1616.398000393295
 20
762.07353743017052
 30
0.0
 40
12.0
 50
329.62021309420652
 51
54.173738910308323
  0
ARC
  5
191
  8
DRG
 10
1734.6345308170301
 20
925.85425324664652
 30
0.0
 40
190.0
 50
260.82404656097549
 51
270.0
  0
ARC
  5
192
  8
DRG
 10
1702.4222209029699
 20
726.43919090179611
 30
0.0
 40
12.0
 50
80.824046560975347
 51
165.37757237707731
  0
ARC
  5
193
  8
DRG
 10
1734.6345308170301
 20
925.85425324664652
 30
0.0
 40
170.0
 50
90.0
 51
270.0
  0
ARC
  5
194
  8
DRG
 10
1570.8538150005541
 20
807.61772282291145
 30
0.0
 40
12.0
 50
35.826261089691222
 51
120.3797869057931
  0
ARC
  5
195
  8
DRG
 10
1547.0845308170301
 20
848.16425324664658
 30
0.0
 40
35.0
 50
104.6224276229227
 51
300.37978690579331
  0
ARC
  5
196
  8
DRG
 10
1535.219468472179
 20
893.64194333258661
 30
0.0
 40
12.0
 50
284.62242762292311
 51
9.1759534390246564
  0
ARC
  5
197
  8
DRG
 10
1734.6345308170301
 20
925.85425324664652
 30
0.0
 40
190.0
 50
215.82626108969151
 51
234.17373891030849
  0
ARC
  5
198
  8
DRG
 10
1570.8538150005541
 20
1044.0907836703809
 30
0.0
 40
12.0
 50
239.6202130942068
 51
324.17373891030871
  0
ARC
  5
199
  8
DRG
 10
1547.0845308170301
 20
1003.544253246646
 30
0.0
 40
35.0
 50
59.62021309420669
 51
255.3775723770772
  0
ARC
  5
19A
  8
DRG
 10
1535.219468472179
 20
958.0665631607061
 30
0.0
 40
12.0
 50
350.82404656097532
 51
75.377572377076859
  0
ARC
  5
19B
  8
DRG
 10
1734.6345308170301
 20
925.85425324664652
 30
0.0
 40
190.0
 50
170.8240465609754
 51
189.17595343902451
  0
ARC
  5
19C
  8
DRG
 10
1656.94453081703
 20
1113.404253246646
 30
0.0
 40
35.0
 50
14.622427622922659
 51
210.3797869057932
  0
ARC
  5
19D
  8
DRG
 10
1616.398000393295
 20
1089.6349690631221
 30
0.0
 40
12.0
 50
305.82626108969163
 51
30.379786905793431
  0
LINE
  5
19E
  8
CRS
 10
1635.9180891138001
 20
1113.769845876855
 30
0.0
 11
1677.668089113796
 21
1113.769845876855
 31
0.0
  0
LINE
  5
19F
  8
CRS
 10
1656.7930891137989
 20
1092.8948458768559
 30
0.0
 11
1656.7930891137989
 21
1134.644845876853
 31
0.0
  0
ARC
  5
1A0
  8
DRG
 10
1702.4222209029699
 20
1125.2693155914969
 30
0.0
 40
12.0
 50
194.6224276229226
 51
279.17595343902462
  0
ARC
  5
1A1
  8
DRG
 10
1734.6345308170301
 20
925.85425324664652
 30
0.0
 40
190.0
 50
90.0
 51
99.175953439024525
  0
ARC
  5
1A2
  8
DRG
 10
1734.6345308170301
 20
925.85425324664652
 30
0.0
 40
190.0
 50
125.8262610896915
 51
144.1737389103084
  0
ARC
  5
1A3
  8
DRG
 10
1630.8555774531981
 20
1145.0328243869931
 30
0.0
 40
6.0
 50
309.51765343016729
 51
22.50076715092175
  0
ARC
  5
1A4
  8
DRG
 10
1653.028845573941
 20
1154.216842102014
 30
0.0
 40
6.0
 50
202.50076715092189
 51
275.48035860648901
  0
LINE
  5
1A5
  8
DRG
 10
1413.618445046362
 20
1065.312751289898
 30
0.0
 11
1513.15783587599
 21
1024.083747039057
 31
0.0
  0
LINE
  5
1A6
  8
DRG
 10
1409.0263922997001
 20
1054.2261354143541
 30
0.0
 11
1508.565101578235
 21
1012.997413460528
 31
0.0
  0
ARC
  5
1A7
  8
DRG
 10
1515.453862249321
 20
1029.627054976829
 30
0.0
 40
6.0
 50
247.50076715092189
 51
320.48035860648901
  0
ARC
  5
1A8
  8
DRG
 10
1506.2690752049041
 20
1007.454105522755
 30
0.0
 40
6.0
 50
354.5176534301674
 51
67.500767150921746
  0
LINE
  5
1A9
  8
DRG
 10
1409.0298300381539
 20
797.47365178871917
 30
0.0
 11
1508.5681167763009
 21
838.70532155218837
 31
0.0
  0
LINE
  5
1AA
  8
DRG
 10
1413.6221796674311
 20
786.38715888598063
 30
0.0
 11
1513.159784862044
 21
827.61854633418386
 31
0.0
  0
ARC
  5
1AB
  8
DRG
 10
1506.2719419616631
 20
844.24856800355815
 30
0.0
 40
6.0
 50
292.50076715092189
 51
5.480358606489073
  0
ARC
  5
1AC
  8
DRG
 10
1515.4559596766831
 20
822.07529988281442
 30
0.0
 40
6.0
 50
39.517653430167378
 51
112.5007671509217
  0
LINE
  5
1AD
  8
DRG
 10
1595.1760327737779
 20
604.83816747597916
 30
0.0
 11
1636.4050370246191
 21
704.37755830560695
 31
0.0
  0
LINE
  5
1AE
  8
DRG
 10
1606.262648649322
 20
600.24611472931724
 30
0.0
 11
1647.491370603148
 21
699.78482400785197
 31
0.0
  0
ARC
  5
1AF
  8
DRG
 10
1630.861729086846
 20
706.67358467893791
 30
0.0
 40
6.0
 50
337.50076715092189
 51
50.480358606489077
  0
ARC
  5
1B0
  8
DRG
 10
1653.034678540919
 20
697.48879763452078
 30
0.0
 40
6.0
 50
84.517653430167385
 51
157.50076715092169
  0
LINE
  5
1B1
  8
DRG
 10
1072.4842706857539
 20
1143.870886502164
 30
0.0
 11
835.56120005564435
 21
1143.870886502164
 31
0.0
  0
LINE
  5
1B2
  8
DRG
 10
820.1842706857542
 20
1246.866604396243
 30
0.0
 11
866.5965375395607
 21
1147.3351769317201
 31
0.0
  0
LINE
  5
1B3
  8
DRG
 10
1072.4842706857539
 20
1086.743462712858
 30
0.0
 11
830.18427068575409
 21
1086.743462712858
 31
0.0
  0
ARC
  5
1B4
  8
DRG
 10
830.18427068575409
 20
1096.743462712858
 30
0.0
 40
10.0
 50
180.0
 51
270.0
  0
LINE
  5
1B5
  8
DRG
 10
1072.4842706857539
 20
707.83761999112903
 30
0.0
 11
835.56120005564435
 21
707.83761999112903
 31
0.0
  0
LINE
  5
1B6
  8
DRG
 10
1072.4842706857539
 20
764.96504378043448
 30
0.0
 11
830.18427068575409
 21
764.96504378043448
 31
0.0
  0
ARC
  5
1B7
  8
DRG
 10
830.18427068575409
 20
754.9650437804346
 30
0.0
 40
10.0
 50
90.0
 51
179.99999999999989
  0
LINE
  5
1B8
  8
DRG
 10
1080.4842706857539
 20
1040.1542532466469
 30
0.0
 11
1080.4842706857539
 21
811.55425324664679
 31
0.0
  0
LINE
  5
1B9
  8
DRG
 10
1072.4842706857539
 20
1040.1542532466469
 30
0.0
 11
1080.4842706857539
 21
1040.1542532466469
 31
0.0
  0
LINE
  5
1BA
  8
DRG
 10
1072.4842706857539
 20
811.55425324664679
 30
0.0
 11
1080.4842706857539
 21
811.55425324664679
 31
0.0
  0
LINE
  5
1BB
  8
HID
 10
784.13427068575436
 20
1035.604253246642
 30
0.0
 11
921.13427068575447
 21
1035.6042532466431
 31
0.0
  0
LINE
  5
1BC
  8
HID
 10
784.13427068575436
 20
816.10425324664334
 30
0.0
 11
921.13427068575447
 21
816.10425324664345
 31
0.0
  0
LINE
  5
1BD
  8
HID
 10
749.88427068575436
 20
1035.494253246643
 30
0.0
 11
749.88427068575402
 21
816.21425324664335
 31
0.0
  0
LINE
  5
1BE
  8
HID
 10
780.13427068575402
 20
816.21425324664358
 30
0.0
 11
749.88427068575402
 21
816.21425324664335
 31
0.0
  0
LINE
  5
1BF
  8
HID
 10
780.13427068575436
 20
817.45425324664336
 30
0.0
 11
749.88427068575436
 21
817.45425324664336
 31
0.0
  0
LINE
  5
1C0
  8
HID
 10
784.13427068575436
 20
817.85425324664334
 30
0.0
 11
780.13427068575436
 21
817.85425324664334
 31
0.0
  0
LINE
  5
1C1
  8
HID
 10
780.13427068575402
 20
816.21425324664358
 30
0.0
 11
780.13427068575436
 21
817.85425324664334
 31
0.0
  0
LINE
  5
1C2
  8
HID
 10
784.13427068575436
 20
816.10425324664334
 30
0.0
 11
784.13427068575436
 21
817.85425324664334
 31
0.0
  0
LINE
  5
1C3
  8
HID
 10
780.13427068575402
 20
1035.494253246643
 30
0.0
 11
749.88427068575436
 21
1035.494253246643
 31
0.0
  0
LINE
  5
1C4
  8
HID
 10
780.13427068575436
 20
1034.254253246643
 30
0.0
 11
749.88427068575436
 21
1034.254253246643
 31
0.0
  0
LINE
  5
1C5
  8
HID
 10
784.13427068575436
 20
1035.604253246642
 30
0.0
 11
784.13427068575436
 21
1033.8542532466431
 31
0.0
  0
LINE
  5
1C6
  8
HID
 10
780.13427068575402
 20
1035.494253246643
 30
0.0
 11
780.13427068575436
 21
1033.8542532466431
 31
0.0
  0
LINE
  5
1C7
  8
HID
 10
784.13427068575436
 20
1033.8542532466431
 30
0.0
 11
780.13427068575436
 21
1033.8542532466431
 31
0.0
  0
LINE
  5
1C8
  8
HID
 10
1039.6342706857531
 20
1035.6042532466431
 30
0.0
 11
1039.6342706857531
 21
816.10425324664345
 31
0.0
  0
LINE
  5
1C9
  8
HID
 10
961.08427068575338
 20
816.10425324664345
 30
0.0
 11
1039.6342706857531
 21
816.10425324664345
 31
0.0
  0
LINE
  5
1CA
  8
HID
 10
921.13427068575447
 20
816.10425324664345
 30
0.0
 11
921.1342706857539
 21
793.47425324664323
 31
0.0
  0
LINE
  5
1CB
  8
HID
 10
921.1342706857539
 20
793.47425324664323
 30
0.0
 11
961.08427068575372
 21
793.47425324664346
 31
0.0
  0
LINE
  5
1CC
  8
HID
 10
961.08427068575429
 20
1035.6042532466431
 30
0.0
 11
1039.6342706857531
 21
1035.6042532466431
 31
0.0
  0
LINE
  5
1CD
  8
HID
 10
921.1342706857539
 20
1058.234253246643
 30
0.0
 11
961.08427068575429
 21
1058.234253246643
 31
0.0
  0
LINE
  5
1CE
  8
HID
 10
921.13427068575447
 20
1058.234253246643
 30
0.0
 11
921.13427068575447
 21
1035.6042532466431
 31
0.0
  0
TEXT
  5
1CF
  8
DIM
 10
49.212205016178451
 20
1572.0341171692601
 30
0.0
 40
12.0
  1
(%%c1.969" -0.002")
 50
90.0
 72
     4
 11
44.06934787332132
 21
1655.176974312117
 31
0.0
  0
TEXT
  5
1D0
  8
DIM
 10
21.269347873321699
 20
1588.5845364980389
 30
0.0
 40
12.0
  1
%%C50.00 -0.05
 50
90.0
 72
     4
 11
15.269347873321699
 21
1650.870250783754
 31
0.0
  0
SOLID
  5
1D1
  8
DIM
 10
27.33654787332155
 20
1524.9510532466461
 30
0.0
 11
32.002147873321363
 21
1524.9510532466461
 31
0.0
 12
29.66934787332168
 22
1510.954253246646
 32
0.0
 13
29.66934787332168
 23
1510.954253246646
 33
0.0
  0
LINE
  5
1D2
  8
DIM
 10
29.66934787332168
 20
1741.348036907764
 30
0.0
 11
29.66934787332168
 21
1510.954253246646
 31
0.0
  0
LINE
  5
1D3
  8
DIM
 10
241.63427068575299
 20
1560.954253246646
 30
0.0
 11
24.869347873321502
 21
1560.954253246646
 31
0.0
  0
LINE
  5
1D4
  8
DIM
 10
241.63427068575299
 20
1510.954253246646
 30
0.0
 11
24.869347873321502
 21
1510.954253246646
 31
0.0
  0
SOLID
  5
1D5
  8
DIM
 10
27.33654787332155
 20
1546.957453246647
 30
0.0
 11
32.002147873321363
 21
1546.957453246647
 31
0.0
 12
29.66934787332168
 22
1560.954253246646
 32
0.0
 13
29.66934787332168
 23
1560.954253246646
 33
0.0
  0
TEXT
  5
1D6
  8
DIM
 10
190.70428760070851
 20
1666.2797781858189
 30
0.0
 40
12.0
  1
5
 72
     1
 11
194.70428760070851
 21
1672.279778185818
 31
0.0
 73
     2
  0
LINE
  5
1D7
  8
DIM
 10
244.93427068575281
 20
1657.8797781858179
 30
0.0
 11
161.9746758298802
 21
1657.8797781858179
 31
0.0
  0
LINE
  5
1D8
  8
DIM
 10
249.93427068575241
 20
1567.2008243933869
 30
0.0
 11
249.93427068575241
 21
1663.5913686441399
 31
0.0
  0
SOLID
  5
1D9
  8
DIM
 10
263.93107068575267
 20
1660.2125781858181
 30
0.0
 11
263.93107068575267
 21
1655.546978185818
 31
0.0
 12
249.93427068575241
 22
1657.8797781858179
 32
0.0
 13
249.93427068575241
 23
1657.8797781858179
 33
0.0
  0
SOLID
  5
1DA
  8
DIM
 10
230.9374706857524
 20
1660.2125781858181
 30
0.0
 11
230.9374706857524
 21
1655.546978185818
 31
0.0
 12
244.9342706857523
 22
1657.8797781858179
 32
0.0
 13
244.9342706857523
 23
1657.8797781858179
 33
0.0
  0
LINE
  5
1DB
  8
DIM
 10
249.93427068575241
 20
1657.8797781858179
 30
0.0
 11
278.73427068575251
 21
1657.8797781858179
 31
0.0
  0
LINE
  5
1DC
  8
DIM
 10
244.93427068575281
 20
1564.2542532466471
 30
0.0
 11
244.93427068575281
 21
1725.5595990961251
 31
0.0
  0
LINE
  5
1DD
  8
DIM
 10
445.18427068575318
 20
1613.2542532466471
 30
0.0
 11
445.18427068575318
 21
1778.0842052479329
 31
0.0
  0
LINE
  5
1DE
  8
DIM
 10
244.93427068575281
 20
1720.9368413586899
 30
0.0
 11
445.18427068575318
 21
1720.9368413586899
 31
0.0
  0
SOLID
  5
1DF
  8
DIM
 10
258.93107068575267
 20
1723.26964135869
 30
0.0
 11
258.93107068575267
 21
1718.60404135869
 31
0.0
 12
244.93427068575281
 22
1720.9368413586899
 32
0.0
 13
244.93427068575281
 23
1720.9368413586899
 33
0.0
  0
SOLID
  5
1E0
  8
DIM
 10
431.18747068575328
 20
1723.26964135869
 30
0.0
 11
431.18747068575328
 21
1718.60404135869
 31
0.0
 12
445.18427068575318
 22
1720.9368413586899
 32
0.0
 13
445.18427068575318
 23
1720.9368413586899
 33
0.0
  0
TEXT
  5
1E1
  8
DIM
 10
329.63069925718139
 20
1729.33684135869
 30
0.0
 40
12.0
  1
200
 72
     1
 11
345.05927068575278
 21
1735.33684135869
 31
0.0
 73
     2
  0
LINE
  5
1E2
  8
DIM
 10
430.18427068575329
 20
1600.7542532466459
 30
0.0
 11
430.18427068575329
 21
1662.6797781858179
 31
0.0
  0
LINE
  5
1E3
  8
DIM
 10
430.18427068575329
 20
1657.8797781858191
 30
0.0
 11
345.9618883342855
 21
1657.8797781858179
 31
0.0
  0
LINE
  5
1E4
  8
DIM
 10
445.18427068575318
 20
1657.8797781858179
 30
0.0
 11
473.98427068575342
 21
1657.8797781858179
 31
0.0
  0
SOLID
  5
1E5
  8
DIM
 10
416.1874706857534
 20
1660.2125781858181
 30
0.0
 11
416.1874706857534
 21
1655.546978185818
 31
0.0
 12
430.18427068575329
 22
1657.8797781858179
 32
0.0
 13
430.18427068575329
 23
1657.8797781858179
 33
0.0
  0
SOLID
  5
1E6
  8
DIM
 10
459.18107068575318
 20
1660.2125781858181
 30
0.0
 11
459.18107068575318
 21
1655.546978185818
 31
0.0
 12
445.18427068575318
 22
1657.8797781858179
 32
0.0
 13
445.18427068575318
 23
1657.8797781858179
 33
0.0
  0
TEXT
  5
1E7
  8
DIM
 10
367.9403863121637
 20
1666.2797781858189
 30
0.0
 40
12.0
  1
15
 72
     1
 11
376.51181488359219
 21
1672.279778185818
 31
0.0
 73
     2
  0
LINE
  5
1E8
  8
DIM
 10
1072.4842706857539
 20
1148.670886502164
 30
0.0
 11
1072.4842706857539
 21
1778.0842052479329
 31
0.0
  0
LINE
  5
1E9
  8
DIM
 10
445.18427068575318
 20
1773.2842052479341
 30
0.0
 11
1072.4842706857521
 21
1773.284205247933
 31
0.0
  0
SOLID
  5
1EA
  8
DIM
 10
459.18107068575318
 20
1775.617005247934
 30
0.0
 11
459.18107068575318
 21
1770.951405247934
 31
0.0
 12
445.18427068575318
 22
1773.2842052479341
 32
0.0
 13
445.18427068575318
 23
1773.2842052479341
 33
0.0
  0
SOLID
  5
1EB
  8
DIM
 10
1058.487470685752
 20
1775.617005247934
 30
0.0
 11
1058.487470685752
 21
1770.951405247934
 31
0.0
 12
1072.4842706857521
 22
1773.2842052479341
 32
0.0
 13
1072.4842706857521
 23
1773.2842052479341
 33
0.0
  0
TEXT
  5
1EC
  8
DIM
 10
744.02918149811751
 20
1781.684205247934
 30
0.0
 40
12.0
  1
627
 72
     4
 11
759.45775292668895
 21
1787.684205247934
 31
0.0
  0
LINE
  5
1ED
  8
DIM
 10
652.18427068575284
 20
1598.3817279297041
 30
0.0
 11
652.18427068575284
 21
1647.0018618643539
 31
0.0
  0
LINE
  5
1EE
  8
DIM
 10
640.18427068575227
 20
1642.201861864354
 30
0.0
 11
611.38427068575209
 21
1642.201861864354
 31
0.0
  0
LINE
  5
1EF
  8
DIM
 10
666.58427068575259
 20
1642.201861864354
 30
0.0
 11
693.78523256855169
 21
1642.201861864354
 31
0.0
  0
LINE
  5
1F0
  8
DIM
 10
693.78523256855169
 20
1642.201861864354
 30
0.0
 11
738.8499153694961
 21
1642.201861864354
 31
0.0
  0
SOLID
  5
1F1
  8
DIM
 10
626.18747068575215
 20
1644.5346618643539
 30
0.0
 11
626.18747068575215
 21
1639.8690618643541
 31
0.0
 12
640.18427068575227
 22
1642.201861864354
 32
0.0
 13
640.18427068575227
 23
1642.201861864354
 33
0.0
  0
SOLID
  5
1F2
  8
DIM
 10
666.18107068575273
 20
1644.5346618643539
 30
0.0
 11
666.18107068575273
 21
1639.8690618643541
 31
0.0
 12
652.18427068575284
 22
1642.201861864354
 32
0.0
 13
652.18427068575284
 23
1642.201861864354
 33
0.0
  0
TEXT
  5
1F3
  8
DIM
 10
697.38523256855194
 20
1650.6018618643541
 30
0.0
 40
12.0
  1
12
 72
     1
 11
705.95666113998038
 21
1656.6018618643541
 31
0.0
 73
     2
  0
LINE
  5
1F4
  8
DIM
 10
640.18427068575227
 20
1600.7542532466459
 30
0.0
 11
640.18427068575227
 21
1710.1657603256131
 31
0.0
  0
LINE
  5
1F5
  8
DIM
 10
640.18427068575227
 20
1705.3657603256131
 30
0.0
 11
1072.4842706857521
 21
1705.3657603256131
 31
0.0
  0
SOLID
  5
1F6
  8
DIM
 10
654.18107068575216
 20
1707.698560325613
 30
0.0
 11
654.18107068575216
 21
1703.032960325613
 31
0.0
 12
640.18427068575227
 22
1705.3657603256131
 32
0.0
 13
640.18427068575227
 23
1705.3657603256131
 33
0.0
  0
SOLID
  5
1F7
  8
DIM
 10
1058.487470685752
 20
1707.698560325613
 30
0.0
 11
1058.487470685752
 21
1703.032960325613
 31
0.0
 12
1072.4842706857521
 22
1705.3657603256131
 32
0.0
 13
1072.4842706857521
 23
1705.3657603256131
 33
0.0
  0
TEXT
  5
1F8
  8
DIM
 10
841.17404342066948
 20
1713.765760325613
 30
0.0
 40
12.0
  1
432
 72
     4
 11
856.60261484924104
 21
1719.765760325613
 31
0.0
  0
LINE
  5
1F9
  8
DIM
 10
836.1842706857542
 20
1266.8242532466461
 30
0.0
 11
836.1842706857542
 21
1503.857297376798
 31
0.0
  0
LINE
  5
1FA
  8
DIM
 10
836.18427068575397
 20
1499.057297376798
 30
0.0
 11
1072.4842706857521
 21
1499.057297376798
 31
0.0
  0
SOLID
  5
1FB
  8
DIM
 10
850.18107068575398
 20
1501.3900973767979
 30
0.0
 11
850.18107068575398
 21
1496.7244973767979
 31
0.0
 12
836.1842706857542
 22
1499.057297376798
 32
0.0
 13
836.1842706857542
 23
1499.057297376798
 33
0.0
  0
SOLID
  5
1FC
  8
DIM
 10
1058.487470685752
 20
1501.3900973767979
 30
0.0
 11
1058.487470685752
 21
1496.7244973767979
 31
0.0
 12
1072.4842706857521
 22
1499.057297376798
 32
0.0
 13
1072.4842706857521
 23
1499.057297376798
 33
0.0
  0
TEXT
  5
1FD
  8
DIM
 10
938.55467224267454
 20
1507.4572973767979
 30
0.0
 40
12.0
  1
236
 72
     4
 11
953.69752938553165
 21
1513.4572973767979
 31
0.0
  0
TEXT
  5
1FE
  8
DIM
 10
50.229271223483011
 20
1082.8942938910641
 30
0.0
 40
11.995200000000001
  1
45%%d OFFSET FROM CENTRE LINE
  0
TEXT
  5
1FF
  8
DIM
 10
50.229271223483011
 20
1124.020693891064
 30
0.0
 40
11.995200000000001
  1
4 HOLES TAPPED M10x16
  0
TEXT
  5
200
  8
DIM
 10
50.229271223483011
 20
1103.457493891063
 30
0.0
 40
11.995200000000001
  1
(0.63") DEEP EQUALLY SPACED
  0
LINE
  5
201
  8
DIM
 10
499.8849447035135
 20
759.27871428108506
 30
0.0
 11
499.8849447035135
 21
817.45425324664336
 31
0.0
  0
TEXT
  5
202
  8
DIM
 10
506.15366067586069
 20
475.49759816958328
 30
0.0
 40
11.995200000000001
  1
MAX. PERMISSIBLE O/D OF
 50
90.0
  0
TEXT
  5
203
  8
DIM
 10
526.71686067586074
 20
475.49759816958328
 30
0.0
 40
11.995200000000001
  1
VALVE SPINDLE LOCKNUT
 50
90.0
  0
TEXT
  5
204
  8
DIM
 10
485.59046067586081
 20
475.49759816958328
 30
0.0
 40
11.995200000000001
  1
%%C216 (%%c8.50") ROOT OF SPLINE
 50
90.0
  0
LINE
  5
205
  8
DIM
 10
414.89792518551428
 20
1036.2342532466459
 30
0.0
 11
226.3560016546225
 21
1036.2342532466459
 31
0.0
  0
LINE
  5
206
  8
DIM
 10
228.3560016546225
 20
1036.2342532466459
 30
0.0
 11
228.3560016546225
 21
815.47425324664641
 31
0.0
  0
TEXT
  5
207
  8
DIM
 10
220.6448016546222
 20
905.00545324664665
 30
0.0
 40
11.995200000000001
  1
%%C220
 50
90.0
 72
     4
 11
214.64720165462219
 21
925.85425324664652
 31
0.0
  0
TEXT
  5
208
  8
DIM
 10
1179.559588415864
 20
1398.9470437176819
 30
0.0
 40
11.995200000000001
  1

  0
TEXT
  5
209
  8
DIM
 10
1329.371910826668
 20
1312.0836810995779
 30
0.0
 40
11.995200000000001
  1
SEE TABLE FOR
  0
TEXT
  5
20A
  8
DIM
 10
1329.371910826668
 20
1291.520481099579
 30
0.0
 40
11.995200000000001
  1
HOLES DIA.
  0
LINE
  5
20B
  8
DIM
 10
1597.785815461953
 20
1650.8218625156319
 30
0.0
 11
1577.5356212292579
 21
1650.8218625156319
 31
0.0
  0
TEXT
  5
20C
  8
DIM
 10
1149.9445163293569
 20
1208.8611777267149
 30
0.0
 40
12.0
  1
CENTRES ON %%C650 (%%c25.59") P.C.
  0
TEXT
  5
20D
  8
DIM
 10
1149.9445163293569
 20
1229.432606298144
 30
0.0
 40
12.0
  1
SCREWS EQUALLY SPACED ON
  0
TEXT
  5
20E
  8
DIM
 10
1149.9445163293569
 20
1250.004034869572
 30
0.0
 40
12.0
  1
8 OFF M16 BASEPLATE SECURING
  0
TEXT
  5
20F
  8
DIM
 10
1569.725099211166
 20
517.88241685818241
 30
0.0
 40
11.995200000000001
  1
%%C705
 72
     4
 11
1590.5738992111651
 21
523.88001685818244
 31
0.0
  0
LINE
  5
210
  8
DIM
 10
1382.1345308170301
 20
510.17121685818211
 30
0.0
 11
1773.4515893796411
 21
510.17121685818211
 31
0.0
  0
LINE
  5
211
  8
DIM
 10
1382.1345308170301
 20
897.36743238806832
 30
0.0
 11
1382.1345308170301
 21
508.17121685818199
 31
0.0
  0
SOLID
  5
212
  8
DIM
 10
1396.13373081703
 20
512.50441685818225
 30
0.0
 11
1396.13373081703
 21
507.8380168581823
 31
0.0
 12
1382.1345308170301
 22
510.17121685818211
 32
0.0
 13
1382.1345308170301
 23
510.17121685818211
 33
0.0
  0
SOLID
  5
213
  8
DIM
 10
1753.453189379642
 20
512.50441685818225
 30
0.0
 11
1753.453189379642
 21
507.8380168581823
 31
0.0
 12
1767.4523893796411
 22
510.17121685818211
 32
0.0
 13
1767.4523893796411
 23
510.17121685818211
 33
0.0
  0
SOLID
  5
214
  8
DIM
 10
1767.4523893796411
 20
512.50441685818225
 30
0.0
 11
1767.4523893796411
 21
507.8380168581823
 31
0.0
 12
1781.4515893796411
 22
510.17121685818211
 32
0.0
 13
1781.4515893796411
 23
510.17121685818211
 33
0.0
  0
LINE
  5
215
  8
DIM
 10
1769.980071504976
 20
889.29766808680768
 30
0.0
 11
1559.8110490888671
 21
1106.667712974383
 31
0.0
  0
SOLID
  5
216
  8
DIM
 10
1577.254556269598
 20
1085.269891859459
 30
0.0
 11
1580.6092992907879
 21
1088.5134991448399
 31
0.0
 12
1569.2011059240499
 22
1096.955924565721
 32
0.0
 13
1569.2011059240499
 23
1096.955924565721
 33
0.0
  0
SOLID
  5
217
  8
DIM
 10
1754.7355385016431
 20
907.94181498363025
 30
0.0
 11
1751.8598801601461
 21
905.16142128794991
 31
0.0
 12
1761.638890417935
 22
897.92464311129879
 32
0.0
 13
1761.638890417935
 23
897.92464311129879
 33
0.0
  0
SOLID
  5
218
  8
DIM
 10
1763.0767195886849
 20
899.31483995913834
 30
0.0
 11
1760.2010612471879
 21
896.53444626345811
 31
0.0
 12
1769.980071504978
 22
889.29766808680699
 32
0.0
 13
1769.980071504978
 23
889.29766808680699
 33
0.0
  0
TEXT
  5
219
  8
DIM
 10
130.8372557736142
 20
1406.4148504377861
 30
0.0
 40
12.0
  1
4 OFF M16 SCREWS ON 
  0
TEXT
  5
21A
  8
DIM
 10
130.8372557736142
 20
1385.8434218663581
 30
0.0
 40
12.0
  1
%%C154 (%%c6.06") P.C. FOR
  0
LINE
  5
21B
  8
DIM
 10
379.60120456773302
 20
1391.995607672575
 30
0.0
 11
363.89729033444291
 21
1391.995607672575
 31
0.0
  0
SOLID
  5
21C
  8
DIM
 10
410.73209275630228
 20
1474.3812905739539
 30
0.0
 11
415.05128766804569
 21
1472.61709708276
 31
0.0
 12
418.18427068575369
 22
1486.4567785635879
 32
0.0
 13
418.18427068575369
 23
1486.4567785635879
 33
0.0
  0
LINE
  5
21D
  8
DIM
 10
418.18427068575352
 20
1486.456778563587
 30
0.0
 11
379.60120456773302
 21
1391.995607672575
 31
0.0
  0
SOLID
  5
21E
  8
DIM
 10
226.0232016546224
 20
829.47105324664653
 30
0.0
 11
230.68880165462221
 21
829.47105324664653
 31
0.0
 12
228.3560016546225
 22
815.47425324664641
 32
0.0
 13
228.3560016546225
 23
815.47425324664641
 33
0.0
  0
SOLID
  5
21F
  8
DIM
 10
226.0232016546224
 20
1022.2374532466461
 30
0.0
 11
230.68880165462221
 21
1022.2374532466461
 31
0.0
 12
228.3560016546225
 22
1036.2342532466459
 32
0.0
 13
228.3560016546225
 23
1036.2342532466459
 33
0.0
  0
SOLID
  5
220
  8
DIM
 10
414.700912825047
 20
1067.922097957384
 30
0.0
 11
412.16449604646772
 21
1064.004909207385
 31
0.0
 12
425.1842706857546
 22
1058.3542532466461
 32
0.0
 13
425.1842706857546
 23
1058.3542532466461
 33
0.0
  0
LINE
  5
221
  8
DIM
 10
413.43270443575739
 20
1065.963503582384
 30
0.0
 11
362.21232021035888
 21
1099.129186996186
 31
0.0
  0
LINE
  5
222
  8
DIM
 10
362.21232021035888
 20
1099.129186996186
 30
0.0
 11
349.06712281791391
 21
1099.129186996186
 31
0.0
  0
SOLID
  5
223
  8
DIM
 10
1494.3942637040459
 20
1179.7731881487241
 30
0.0
 11
1498.8249387543719
 21
1181.238417269441
 31
0.0
 12
1501.005288591361
 22
1167.213777558105
 32
0.0
 13
1501.005288591361
 23
1167.213777558105
 33
0.0
  0
LINE
  5
224
  8
DIM
 10
1501.0052885913601
 20
1167.2137775581059
 30
0.0
 11
1478.7235217064811
 21
1234.5911366469641
 31
0.0
  0
LINE
  5
225
  8
DIM
 10
1453.501429787287
 20
1234.5911366469641
 30
0.0
 11
1478.7235217064811
 21
1234.5911366469641
 31
0.0
  0
ARC
  5
226
  8
DIM
 10
1734.6345308170301
 20
925.85425324664652
 30
0.0
 40
238.0
 50
115.61668062541089
 51
135.0167532752908
  0
LINE
  5
227
  8
DIM
 10
1089.2359858920399
 20
1040.1542532466469
 30
0.0
 11
1110.5037640214391
 21
1040.1542532466469
 31
0.0
  0
LINE
  5
228
  8
DIM
 10
1089.2359858920411
 20
811.55425324664679
 30
0.0
 11
1246.0291869678049
 21
811.55425324664679
 31
0.0
  0
LINE
  5
229
  8
DIM
 10
1244.0291869678049
 20
1026.154253246646
 30
0.0
 11
1244.0291869678049
 21
825.55425324664668
 31
0.0
  0
SOLID
  5
22A
  8
DIM
 10
1241.695853634471
 20
1026.154253246646
 30
0.0
 11
1246.3625203011379
 21
1026.154253246646
 31
0.0
 12
1244.0291869678049
 22
1040.1542532466469
 32
0.0
 13
1244.0291869678049
 23
1040.1542532466469
 33
0.0
  0
SOLID
  5
22B
  8
DIM
 10
1241.695853634471
 20
825.55425324664668
 30
0.0
 11
1246.3625203011379
 21
825.55425324664668
 31
0.0
 12
1244.0291869678049
 22
811.55425324664679
 32
0.0
 13
1244.0291869678049
 23
811.55425324664679
 33
0.0
  0
TEXT
  5
22C
  8
DIM
 10
1235.0291869678049
 20
855.28282467521785
 30
0.0
 40
12.0
  1
SEE TABLE FOR
 50
90.0
 72
     4
 11
1229.0291869678049
 21
925.85425324664652
 31
0.0
  0
LINE
  5
22D
  8
DIM
 10
742.38427068575425
 20
1034.254253246643
 30
0.0
 11
493.81632270853061
 21
1034.254253246643
 31
0.0
  0
LINE
  5
22E
  8
DIM
 10
742.38427068575425
 20
817.45425324664336
 30
0.0
 11
493.81632270853061
 21
817.45425324664336
 31
0.0
  0
LINE
  5
22F
  8
DIM
 10
499.8849447035135
 20
1020.254253246643
 30
0.0
 11
499.8849447035135
 21
831.45425324664336
 31
0.0
  0
SOLID
  5
230
  8
DIM
 10
497.55161137018058
 20
1020.254253246643
 30
0.0
 11
502.2182780368471
 21
1020.254253246643
 31
0.0
 12
499.8849447035135
 22
1034.254253246643
 32
0.0
 13
499.8849447035135
 23
1034.254253246643
 33
0.0
  0
SOLID
  5
231
  8
DIM
 10
497.55161137018058
 20
831.45425324664336
 30
0.0
 11
502.2182780368471
 21
831.45425324664336
 31
0.0
 12
499.8849447035135
 22
817.45425324664336
 32
0.0
 13
499.8849447035135
 23
817.45425324664336
 33
0.0
  0
LINE
  5
232
  8
DIM
 10
414.33946686257872
 20
815.47425324664641
 30
0.0
 11
226.3560016546225
 21
815.47425324664641
 31
0.0
  0
LINE
  5
233
  8
DIM
 10
425.1842706857546
 20
768.35425324664629
 30
0.0
 11
425.1842706857546
 21
412.427234570547
 31
0.0
  0
LINE
  5
234
  8
DIM
 10
1072.4842706857539
 20
700.33761999112903
 30
0.0
 11
1072.4842706857539
 21
412.427234570547
 31
0.0
  0
LINE
  5
235
  8
DIM
 10
439.1842706857546
 20
414.42723457054711
 30
0.0
 11
1058.4842706857539
 21
414.42723457054711
 31
0.0
  0
SOLID
  5
236
  8
DIM
 10
439.1842706857546
 20
416.76056790388031
 30
0.0
 11
439.1842706857546
 21
412.09390123721357
 31
0.0
 12
425.1842706857546
 22
414.42723457054711
 32
0.0
 13
425.1842706857546
 23
414.42723457054711
 33
0.0
  0
SOLID
  5
237
  8
DIM
 10
1058.4842706857539
 20
416.76056790388031
 30
0.0
 11
1058.4842706857539
 21
412.09390123721357
 31
0.0
 12
1072.4842706857539
 22
414.42723457054711
 32
0.0
 13
1072.4842706857539
 23
414.42723457054711
 33
0.0
  0
TEXT
  5
238
  8
DIM
 10
733.37932288308775
 20
423.42723457054711
 30
0.0
 40
12.0
  1
647
 72
     4
 11
748.80789431165931
 21
429.42723457054711
 31
0.0
  0
LINE
  5
239
  8
DIM
 10
763.88427068575447
 20
1006.265735440165
 30
0.0
 11
1025.6342706857531
 21
1006.265735440165
 31
0.0
  0
SOLID
  5
23A
  8
DIM
 10
763.88427068575447
 20
1008.5990687734979
 30
0.0
 11
763.88427068575447
 21
1003.932402106831
 31
0.0
 12
749.88427068575436
 22
1006.265735440165
 32
0.0
 13
749.88427068575436
 23
1006.265735440165
 33
0.0
  0
SOLID
  5
23B
  8
DIM
 10
1025.6342706857531
 20
1008.5990687734979
 30
0.0
 11
1025.6342706857531
 21
1003.932402106831
 31
0.0
 12
1039.6342706857531
 22
1006.265735440165
 32
0.0
 13
1039.6342706857531
 23
1006.265735440165
 33
0.0
  0
TEXT
  5
23C
  8
DIM
 10
879.65586620828526
 20
1015.265735440165
 30
0.0
 40
12.0
  1
290
 72
     4
 11
895.08443763685682
 21
1021.265735440165
 31
0.0
  0
LINE
  5
23D
  8
DIM
 10
763.88427068575425
 20
510.17121685818211
 30
0.0
 11
1058.4842706857539
 21
510.17121685818211
 31
0.0
  0
SOLID
  5
23E
  8
DIM
 10
763.88427068575425
 20
512.50455019151525
 30
0.0
 11
763.88427068575425
 21
507.83788352484879
 31
0.0
 12
749.88427068575425
 22
510.17121685818211
 32
0.0
 13
749.88427068575425
 23
510.17121685818211
 33
0.0
  0
SOLID
  5
23F
  8
DIM
 10
1058.4842706857539
 20
512.50455019151525
 30
0.0
 11
1058.4842706857539
 21
507.83788352484879
 31
0.0
 12
1072.4842706857539
 22
510.17121685818211
 32
0.0
 13
1072.4842706857539
 23
510.17121685818211
 33
0.0
  0
TEXT
  5
240
  8
DIM
 10
895.77793470367249
 20
519.17121685818211
 30
0.0
 40
12.0
  1
323
 72
     4
 11
911.20650613224393
 21
525.17121685818199
 31
0.0
  0
LINE
  5
241
  8
DIM
 10
1080.4842706857539
 20
804.05425324664668
 30
0.0
 11
1080.4842706857539
 21
508.17121685818199
 31
0.0
  0
LINE
  5
242
  8
DIM
 10
1058.4842706857539
 20
510.17121685818211
 30
0.0
 11
1044.4842706857539
 21
510.17121685818211
 31
0.0
  0
LINE
  5
243
  8
DIM
 10
1094.4842706857539
 20
510.17121685818211
 30
0.0
 11
1161.047187961201
 21
510.17121685818211
 31
0.0
  0
LINE
  5
244
  8
DIM
 10
1161.047187961201
 20
510.17121685818211
 30
0.0
 11
1080.4842706857539
 21
510.17121685818211
 31
0.0
  0
SOLID
  5
245
  8
DIM
 10
1058.4842706857539
 20
512.50455019151525
 30
0.0
 11
1058.4842706857539
 21
507.83788352484879
 31
0.0
 12
1072.4842706857539
 22
510.17121685818211
 32
0.0
 13
1072.4842706857539
 23
510.17121685818211
 33
0.0
  0
SOLID
  5
246
  8
DIM
 10
1094.4842706857539
 20
512.50455019151525
 30
0.0
 11
1094.4842706857539
 21
507.83788352484879
 31
0.0
 12
1080.4842706857539
 22
510.17121685818211
 32
0.0
 13
1080.4842706857539
 23
510.17121685818211
 33
0.0
  0
TEXT
  5
247
  8
DIM
 10
1126.377660191527
 20
519.17121685818211
 30
0.0
 40
12.0
  1
8
 72
     1
 11
1130.3776601915281
 21
525.17121685818199
 31
0.0
 73
     2
  0
SOLID
  5
248
  8
DIM
 10
1642.735582884914
 20
1140.233908075794
 30
0.0
 11
1638.7972555191529
 21
1137.7304394145419
 31
0.0
 12
1648.2768251857899
 22
1127.167191647884
 32
0.0
 13
1648.2768251857899
 23
1127.167191647884
 33
0.0
  0
LINE
  5
249
  8
DIM
 10
1640.7664192020341
 20
1138.982173745168
 30
0.0
 11
1533.2781273312221
 21
1308.07719295826
 31
0.0
  0
LINE
  5
24A
  8
DIM
 10
1533.2781273312221
 20
1308.07719295826
 30
0.0
 11
1483.8401635200551
 21
1308.07719295826
 31
0.0
  0
SOLID
  5
24B
  8
DIM
 10
1669.3340316322949
 20
1602.572470110189
 30
0.0
 11
1666.6211939518689
 21
1598.775327829811
 31
0.0
 12
1679.3690396332181
 22
1592.535385928722
 32
0.0
 13
1679.3690396332181
 23
1592.535385928722
 33
0.0
  0
LINE
  5
24C
  8
DIM
 10
1667.977612792082
 20
1600.67389897
 30
0.0
 11
1597.785815461953
 21
1650.8218625156319
 31
0.0
  0
ARC
  5
24D
  8
DRG
 10
456.18427068575693
 20
805.81374864642271
 30
0.0
 40
6.0
 50
270.0
 51
0.0000000000020483
  0
TEXT
  5
24E
  8
DIM
 10
1265.0291869678049
 20
873.85425324664675
 30
0.0
 40
12.0
  1
SPIGOT DIA.
 50
90.0
 72
     4
 11
1259.0291869678049
 21
925.85425324664675
 31
0.0
  0
ARC
  5
24F
  8
DRG
 10
872.03438426178081
 20
1149.870886502164
 30
0.0
 40
6.0
 50
205.0000000000002
 51
270.0
  0
LINE
  5
250
  8
DRG
 10
820.1842706857542
 20
604.84190209704946
 30
0.0
 11
866.5965375395607
 21
704.37332956157366
 31
0.0
  0
ARC
  5
251
  8
DRG
 10
872.03438426178081
 20
701.83761999112937
 30
0.0
 40
6.0
 50
90.0
 51
155.00000000000301
  0
LINE
  5
252
  8
HID
 10
961.08427068575429
 20
1058.234253246643
 30
0.0
 11
961.08427068575429
 21
1035.6042532466431
 31
0.0
  0
LINE
  5
253
  8
HID
 10
961.08427068575338
 20
816.10425324664243
 30
0.0
 11
961.08427068575372
 21
793.47425324664346
 31
0.0
  0
LINE
  5
254
  8
DIM
 10
749.88427068575425
 20
805.07490226082734
 30
0.0
 11
749.88427068575425
 21
508.17121685818199
 31
0.0
  0
LINE
  5
255
  8
DIM
 10
1767.5683192268809
 20
1535.9542532466471
 30
0.0
 11
1803.448959092306
 21
1535.9542532466471
 31
0.0
  0
LINE
  5
256
  8
DIM
 10
1762.994812739609
 20
925.85425324664652
 30
0.0
 11
1803.448959092306
 21
925.85425324664652
 31
0.0
  0
LINE
  5
257
  8
DIM
 10
1801.448959092306
 20
1521.9542532466471
 30
0.0
 11
1801.448959092306
 21
939.85425324664641
 31
0.0
  0
SOLID
  5
258
  8
DIM
 10
1799.115625758973
 20
1521.9542532466471
 30
0.0
 11
1803.7822924256391
 21
1521.9542532466471
 31
0.0
 12
1801.448959092306
 22
1535.9542532466471
 32
0.0
 13
1801.448959092306
 23
1535.9542532466471
 33
0.0
  0
SOLID
  5
259
  8
DIM
 10
1799.115625758973
 20
939.85425324664641
 30
0.0
 11
1803.7822924256391
 21
939.85425324664641
 31
0.0
 12
1801.448959092306
 22
925.85425324664652
 32
0.0
 13
1801.448959092306
 23
925.85425324664652
 33
0.0
  0
TEXT
  5
25A
  8
DIM
 10
1792.448959092306
 20
1216.618538960932
 30
0.0
 40
12.0
  1
610
 50
90.0
 72
     1
 11
1786.448959092306
 21
1230.904253246646
 31
0.0
 73
     2
  0
LINE
  5
25B
  8
DIM
 10
1742.1345308170301
 20
1630.9542532466471
 30
0.0
 11
1803.448959092306
 21
1630.9542532466471
 31
0.0
  0
LINE
  5
25C
  8
DIM
 10
1801.448959092306
 20
1549.9542532466471
 30
0.0
 11
1801.448959092306
 21
1616.9542532466471
 31
0.0
  0
SOLID
  5
25D
  8
DIM
 10
1799.115625758973
 20
1549.9542532466471
 30
0.0
 11
1803.7822924256391
 21
1549.9542532466471
 31
0.0
 12
1801.448959092306
 22
1535.9542532466471
 32
0.0
 13
1801.448959092306
 23
1535.9542532466471
 33
0.0
  0
SOLID
  5
25E
  8
DIM
 10
1799.115625758973
 20
1616.9542532466471
 30
0.0
 11
1803.7822924256391
 21
1616.9542532466471
 31
0.0
 12
1801.448959092306
 22
1630.9542532466471
 32
0.0
 13
1801.448959092306
 23
1630.9542532466471
 33
0.0
  0
TEXT
  5
25F
  8
DIM
 10
1792.448959092306
 20
1573.7399675323611
 30
0.0
 40
12.0
  1
95
 50
90.0
 72
     1
 11
1786.448959092306
 21
1583.4542532466471
 31
0.0
 73
     2
  0
LINE
  5
260
  8
CRS
 10
541.4648697402157
 20
925.85425324664675
 30
0.0
 11
1094.1839629608071
 21
925.85425324664675
 31
0.0
  0
TEXT
  5
261
  8
DIM
 10
1210.3669536497989
 20
1624.041898104246
 30
0.0
 40
12.0
  1
THIS SIDE ONLY FOR G30 & ISO F30
  0
TEXT
  5
262
  8
DIM
 10
1210.3669536497989
 20
1645.2487653379769
 30
0.0
 40
12.0
  1
%%C140 (%%c5.51") P.C.
  0
TEXT
  5
263
  8
DIM
 10
1210.3669536497989
 20
1665.8201939094049
 30
0.0
 40
12.0
  1
4 OFF M12 SCREWS EACH SIDE ON
  0
LINE
  5
264
  8
HID
 10
442.92748711866301
 20
1054.1042532466461
 30
0.0
 11
445.18427068575511
 21
1054.1042532466461
 31
0.0
  0
LINE
  5
265
  8
HID
 10
442.92748711866301
 20
1062.6042532466461
 30
0.0
 11
445.18427068575511
 21
1062.6042532466461
 31
0.0
  0
LINE
  5
266
  8
HID
 10
425.18427068575511
 20
1053.3542532466461
 30
0.0
 11
428.81935552869072
 21
1053.3542532466461
 31
0.0
  0
LINE
  5
267
  8
HID
 10
425.18427068575511
 20
1054.1042532466461
 30
0.0
 11
428.4235862864615
 21
1054.1042532466461
 31
0.0
  0
LINE
  5
268
  8
HID
 10
425.18427068575511
 20
1063.3542532466461
 30
0.0
 11
428.81935552869072
 21
1063.3542532466461
 31
0.0
  0
LINE
  5
269
  8
HID
 10
425.18427068575511
 20
1062.6042532466461
 30
0.0
 11
428.4235862864615
 21
1062.6042532466461
 31
0.0
  0
LINE
  5
26A
  8
HID
 10
441.18427068575511
 20
1054.873871490983
 30
0.0
 11
441.18427068575511
 21
1053.3542532466461
 31
0.0
  0
LINE
  5
26B
  8
HID
 10
431.8217957498054
 20
1053.3542532466461
 30
0.0
 11
436.31575455220172
 21
1053.3542532466461
 31
0.0
  0
LINE
  5
26C
  8
HID
 10
438.38793555302931
 20
1053.3542532466461
 30
0.0
 11
441.18427068575511
 21
1053.3542532466461
 31
0.0
  0
LINE
  5
26D
  8
HID
 10
438.56300784370882
 20
1054.1042532466461
 30
0.0
 11
441.82404742062357
 21
1054.1042532466461
 31
0.0
  0
LINE
  5
26E
  8
HID
 10
431.6011068886832
 20
1054.1042532466461
 30
0.0
 11
436.10340081296221
 21
1054.1042532466461
 31
0.0
  0
LINE
  5
26F
  8
HID
 10
431.8217957498054
 20
1063.3542532466461
 30
0.0
 11
436.31575455220172
 21
1063.3542532466461
 31
0.0
  0
LINE
  5
270
  8
HID
 10
431.6011068886832
 20
1062.6042532466461
 30
0.0
 11
436.10340081296221
 21
1062.6042532466461
 31
0.0
  0
LINE
  5
271
  8
HID
 10
438.38793555302931
 20
1063.3542532466461
 30
0.0
 11
441.18427068575511
 21
1063.3542532466461
 31
0.0
  0
LINE
  5
272
  8
HID
 10
438.56300784370882
 20
1062.6042532466461
 30
0.0
 11
441.82404742062357
 21
1062.6042532466461
 31
0.0
  0
LINE
  5
273
  8
HID
 10
441.18427068575511
 20
1061.8346350023101
 30
0.0
 11
441.18427068575511
 21
1063.3542532466461
 31
0.0
  0
LINE
  5
274
  8
HID
 10
441.18427068575511
 20
1059.4814831572901
 30
0.0
 11
441.18427068575511
 21
1060.80513042806
 31
0.0
  0
LINE
  5
275
  8
HID
 10
441.18427068575511
 20
1056.148083799616
 30
0.0
 11
441.18427068575511
 21
1057.8394102971081
 31
0.0
  0
LINE
  5
276
  8
HID
 10
441.18427068575511
 20
1053.3542532466461
 30
0.0
 11
441.18427068575511
 21
1054.7016463613361
 31
0.0
  0
LINE
  5
277
  8
HID
 10
441.18427068575511
 20
1054.873871490983
 30
0.0
 11
441.18427068575511
 21
1053.3542532466461
 31
0.0
  0
LINE
  5
278
  8
HID
 10
446.89874896429501
 20
1059.6346897597421
 30
0.0
 11
447.63800932981121
 21
1058.3542532466461
 31
0.0
  0
LINE
  5
279
  8
HID
 10
445.18427068575511
 20
1062.604253246647
 30
0.0
 11
446.17040942869153
 21
1060.896210840569
 31
0.0
  0
LINE
  5
27A
  8
HID
 10
446.89874896429501
 20
1057.073816733551
 30
0.0
 11
447.63800932981121
 21
1058.3542532466461
 31
0.0
  0
LINE
  5
27B
  8
HID
 10
445.18427068575511
 20
1057.308539561177
 30
0.0
 11
445.18427068575511
 21
1059.4021246036609
 31
0.0
  0
LINE
  5
27C
  8
HID
 10
445.18427068575511
 20
1054.1042532466461
 30
0.0
 11
446.17040942869153
 21
1055.8122956527241
 31
0.0
  0
LINE
  5
27D
  8
HID
 10
445.18427068575511
 20
1061.172809654782
 30
0.0
 11
445.18427068575511
 21
1062.6042532466461
 31
0.0
  0
LINE
  5
27E
  8
HID
 10
445.18427068575511
 20
1054.1042532466461
 30
0.0
 11
445.18427068575511
 21
1055.142862118259
 31
0.0
  0
LINE
  5
27F
  8
HID
 10
445.18427068575511
 20
1054.1042532466461
 30
0.0
 11
446.17040942869153
 21
1055.8122956527241
 31
0.0
  0
LINE
  5
280
  8
HID
 10
442.92748711866301
 20
789.10425324664686
 30
0.0
 11
445.18427068575511
 21
789.10425324664686
 31
0.0
  0
LINE
  5
281
  8
HID
 10
442.92748711866301
 20
797.60425324664686
 30
0.0
 11
445.18427068575511
 21
797.60425324664686
 31
0.0
  0
LINE
  5
282
  8
HID
 10
425.18427068575511
 20
788.35425324664698
 30
0.0
 11
428.81935552869072
 21
788.35425324664698
 31
0.0
  0
LINE
  5
283
  8
HID
 10
425.18427068575511
 20
789.10425324664686
 30
0.0
 11
428.4235862864615
 21
789.10425324664686
 31
0.0
  0
LINE
  5
284
  8
HID
 10
425.18427068575511
 20
797.60425324664686
 30
0.0
 11
428.4235862864615
 21
797.60425324664686
 31
0.0
  0
LINE
  5
285
  8
HID
 10
425.18427068575511
 20
798.35425324664686
 30
0.0
 11
428.81935552869072
 21
798.35425324664686
 31
0.0
  0
LINE
  5
286
  8
HID
 10
441.18427068575511
 20
796.83463500231028
 30
0.0
 11
441.18427068575511
 21
798.35425324664686
 31
0.0
  0
LINE
  5
287
  8
HID
 10
441.18427068575511
 20
798.35425324664686
 30
0.0
 11
441.18427068575511
 21
797.00686013195741
 31
0.0
  0
LINE
  5
288
  8
HID
 10
441.18427068575511
 20
792.22702333600296
 30
0.0
 11
441.18427068575511
 21
790.90337606523326
 31
0.0
  0
LINE
  5
289
  8
HID
 10
441.18427068575511
 20
789.8738714909839
 30
0.0
 11
441.18427068575511
 21
788.35425324664698
 31
0.0
  0
LINE
  5
28A
  8
HID
 10
431.8217957498054
 20
788.35425324664698
 30
0.0
 11
436.31575455220172
 21
788.35425324664698
 31
0.0
  0
LINE
  5
28B
  8
HID
 10
438.38793555302931
 20
788.35425324664698
 30
0.0
 11
441.18427068575511
 21
788.35425324664698
 31
0.0
  0
LINE
  5
28C
  8
HID
 10
438.56300784370882
 20
789.10425324664686
 30
0.0
 11
441.82404742062357
 21
789.10425324664686
 31
0.0
  0
LINE
  5
28D
  8
HID
 10
431.6011068886832
 20
789.10425324664686
 30
0.0
 11
436.10340081296221
 21
789.10425324664686
 31
0.0
  0
LINE
  5
28E
  8
HID
 10
431.6011068886832
 20
797.60425324664686
 30
0.0
 11
436.10340081296221
 21
797.60425324664686
 31
0.0
  0
LINE
  5
28F
  8
HID
 10
438.56300784370882
 20
797.60425324664686
 30
0.0
 11
441.82404742062357
 21
797.60425324664686
 31
0.0
  0
LINE
  5
290
  8
HID
 10
438.38793555302931
 20
798.35425324664686
 30
0.0
 11
441.18427068575511
 21
798.35425324664686
 31
0.0
  0
LINE
  5
291
  8
HID
 10
431.8217957498054
 20
798.35425324664686
 30
0.0
 11
436.31575455220172
 21
798.35425324664686
 31
0.0
  0
LINE
  5
292
  8
HID
 10
441.18427068575511
 20
796.83463500231005
 30
0.0
 11
441.18427068575511
 21
798.35425324664686
 31
0.0
  0
LINE
  5
293
  8
HID
 10
441.18427068575511
 20
795.56042269367731
 30
0.0
 11
441.18427068575511
 21
793.86909619618564
 31
0.0
  0
LINE
  5
294
  8
HID
 10
445.18427068575511
 20
797.60425324664686
 30
0.0
 11
445.18427068575511
 21
796.56564437503425
 31
0.0
  0
LINE
  5
295
  8
HID
 10
445.18427068575511
 20
790.53569683851151
 30
0.0
 11
445.18427068575511
 21
789.10425324664686
 31
0.0
  0
LINE
  5
296
  8
HID
 10
445.18427068575511
 20
794.39996693211617
 30
0.0
 11
445.18427068575511
 21
792.30638188963235
 31
0.0
  0
LINE
  5
297
  8
HID
 10
445.18427068575511
 20
797.60425324664686
 30
0.0
 11
446.17040942869153
 21
795.89621084056921
 31
0.0
  0
LINE
  5
298
  8
HID
 10
445.18427068575511
 20
797.6042532466472
 30
0.0
 11
446.17040942869153
 21
795.89621084056921
 31
0.0
  0
LINE
  5
299
  8
HID
 10
446.89874896429501
 20
794.6346897597424
 30
0.0
 11
447.63800932981121
 21
793.35425324664698
 31
0.0
  0
LINE
  5
29A
  8
HID
 10
445.18427068575511
 20
789.10425324664675
 30
0.0
 11
446.17040942869153
 21
790.81229565272474
 31
0.0
  0
LINE
  5
29B
  8
HID
 10
446.89874896429501
 20
792.07381673355144
 30
0.0
 11
447.63800932981121
 21
793.35425324664698
 31
0.0
  0
TEXT
  5
29C
  8
TXT
 10
818.97142857142865
 20
123.59999999999989
 30
0.0
 40
12.0
  1
8.11:1
 72
     4
 11
842.40000000000009
 21
129.59999999999999
 31
0.0
  0
TEXT
  5
29D
  8
TXT
 10
824.11428571428576
 20
85.199999999999989
 30
0.0
 40
12.0
  1
7.30
 72
     4
 11
842.40000000000009
 21
91.199999999999989
 31
0.0
  0
LINE
  5
29E
  8
DRG2
 10
374.40000000000009
 20
72.0
 30
0.0
 11
1382.4000000000001
 21
72.0
 31
0.0
  0
LINE
  5
29F
  8
DRG2
 10
374.40000000000009
 20
110.40000000000001
 30
0.0
 11
1382.4000000000001
 21
110.40000000000001
 31
0.0
  0
LINE
  5
2A0
  8
DRG2
 10
374.40000000000009
 20
148.7999999999999
 30
0.0
 11
1382.4000000000001
 21
148.7999999999999
 31
0.0
  0
LINE
  5
2A1
  8
DRG2
 10
374.40000000000009
 20
187.19999999999999
 30
0.0
 11
1382.4000000000001
 21
187.19999999999999
 31
0.0
  0
TEXT
  5
2A2
  8
TXT
 10
385.82857142857142
 20
86.057142857142836
 30
0.0
 40
12.0
  1
FACTOR (MECH. ADVANTAGE)
 72
     4
 11
518.40000000000009
 21
91.199999999999989
 31
0.0
  0
TEXT
  5
2A3
  8
TXT
 10
449.5428571428572
 20
161.99999999999989
 30
0.0
 40
12.0
  1
NOMINAL RATIO
 72
     4
 11
518.40000000000009
 21
167.99999999999989
 31
0.0
  0
TEXT
  5
2A4
  8
TXT
 10
460.11428571428581
 20
123.59999999999989
 30
0.0
 40
12.0
  1
EXACT RATIO
 72
     4
 11
518.40000000000009
 21
129.59999999999999
 31
0.0
  0
LINE
  5
2A5
  8
DRG2
 10
374.40000000000009
 20
72.0
 30
0.0
 11
374.40000000000009
 21
187.19999999999999
 31
0.0
  0
TEXT
  5
2A6
  8
TXT
 10
698.97142857142865
 20
123.59999999999989
 30
0.0
 40
12.0
  1
6.11:1
 72
     4
 11
722.40000000000009
 21
129.59999999999999
 31
0.0
  0
TEXT
  5
2A7
  8
TXT
 10
704.11428571428576
 20
85.199999999999989
 30
0.0
 40
12.0
  1
5.50
 72
     4
 11
722.40000000000009
 21
91.199999999999989
 31
0.0
  0
LINE
  5
2A8
  8
DRG2
 10
662.40000000000009
 20
72.0
 30
0.0
 11
662.40000000000009
 21
187.19999999999999
 31
0.0
  0
TEXT
  5
2A9
  8
TXT
 10
710.97142857142865
 20
161.99999999999989
 30
0.0
 40
12.0
  1
6:1
 72
     4
 11
722.40000000000009
 21
167.99999999999989
 31
0.0
  0
LINE
  5
2AA
  8
DRG2
 10
782.39999999999998
 20
72.0
 30
0.0
 11
782.39999999999998
 21
187.19999999999999
 31
0.0
  0
TEXT
  5
2AB
  8
TXT
 10
830.97142857142865
 20
161.99999999999989
 30
0.0
 40
12.0
  1
8:1
 72
     4
 11
842.40000000000009
 21
167.99999999999989
 31
0.0
  0
TEXT
  5
2AC
  8
TXT
 10
1305.542857142857
 20
163.14285714285711
 30
0.0
 40
12.0
  1
24;1
 72
     4
 11
1322.4000000000001
 21
167.99999999999989
 31
0.0
  0
TEXT
  5
2AD
  8
TXT
 10
1299.542857142857
 20
85.199999999999989
 30
0.0
 40
12.0
  1
21.68
 72
     4
 11
1322.4000000000001
 21
91.199999999999989
 31
0.0
  0
TEXT
  5
2AE
  8
TXT
 10
1290.9714285714281
 20
123.59999999999989
 30
0.0
 40
12.0
  1
24.09:1
 72
     4
 11
1322.4000000000001
 21
129.59999999999999
 31
0.0
  0
TEXT
  5
2AF
  8
TXT
 10
1066.4000000000001
 20
161.99999999999989
 30
0.0
 40
12.0
  1
12:1
 72
     4
 11
1082.4000000000001
 21
167.99999999999989
 31
0.0
  0
TEXT
  5
2B0
  8
TXT
 10
1059.542857142857
 20
85.199999999999989
 30
0.0
 40
12.0
  1
10.82
 72
     4
 11
1082.4000000000001
 21
91.199999999999989
 31
0.0
  0
TEXT
  5
2B1
  8
TXT
 10
1052.1142857142861
 20
123.59999999999989
 30
0.0
 40
12.0
  1
12.03:1
 72
     4
 11
1082.4000000000001
 21
129.59999999999999
 31
0.0
  0
TEXT
  5
2B2
  8
TXT
 10
946.39999999999998
 20
161.99999999999989
 30
0.0
 40
12.0
  1
10:1
 72
     4
 11
962.39999999999998
 21
167.99999999999989
 31
0.0
  0
TEXT
  5
2B3
  8
TXT
 10
932.11428571428564
 20
123.59999999999989
 30
0.0
 40
12.0
  1
10.00:1
 72
     4
 11
962.39999999999998
 21
129.59999999999999
 31
0.0
  0
TEXT
  5
2B4
  8
TXT
 10
944.11428571428576
 20
85.199999999999989
 30
0.0
 40
12.0
  1
9.00
 72
     4
 11
962.39999999999998
 21
91.199999999999989
 31
0.0
  0
LINE
  5
2B5
  8
DRG2
 10
902.39999999999998
 20
72.0
 30
0.0
 11
902.39999999999998
 21
187.19999999999999
 31
0.0
  0
LINE
  5
2B6
  8
DRG2
 10
1022.399999999999
 20
72.0
 30
0.0
 11
1022.399999999999
 21
187.19999999999999
 31
0.0
  0
TEXT
  5
2B7
  8
TXT
 10
1186.4000000000001
 20
161.99999999999989
 30
0.0
 40
12.0
  1
15:1
 72
     4
 11
1202.4000000000001
 21
167.99999999999989
 31
0.0
  0
TEXT
  5
2B8
  8
TXT
 10
1173.257142857143
 20
123.59999999999989
 30
0.0
 40
12.0
  1
15.17:1
 72
     4
 11
1202.4000000000001
 21
129.59999999999999
 31
0.0
  0
TEXT
  5
2B9
  8
TXT
 10
1179.542857142857
 20
85.199999999999989
 30
0.0
 40
12.0
  1
13.65
 72
     4
 11
1202.4000000000001
 21
91.199999999999989
 31
0.0
  0
LINE
  5
2BA
  8
DRG2
 10
1142.4000000000001
 20
72.0
 30
0.0
 11
1142.4000000000001
 21
187.19999999999999
 31
0.0
  0
LINE
  5
2BB
  8
DRG2
 10
1262.4000000000001
 20
72.0
 30
0.0
 11
1262.4000000000001
 21
187.19999999999999
 31
0.0
  0
LINE
  5
2BC
  8
DRG2
 10
1382.4000000000001
 20
72.0
 30
0.0
 11
1382.4000000000001
 21
187.19999999999999
 31
0.0
  0
ARC
  5
2BD
  8
DRG
 10
1734.6345308170301
 20
925.85425324664652
 30
0.0
 40
114.3000000000001
 50
90.0
 51
270.0
  0
ARC
  5
2BE
  8
DRG2
 10
1656.793089113798
 20
1113.769845876855
 30
0.0
 40
15.875
 50
72.731488147572477
 51
15.25835978071254
  0
CIRCLE
  5
2BF
  8
DRG2
 10
1656.793089113798
 20
1113.769845876855
 30
0.0
 40
14.084300000000001
  0
LINE
  5
2C0
  8
CRS
 10
1546.7159296918289
 20
982.81343180046406
 30
0.0
 11
1546.7159296918289
 21
1024.56343180046
 31
0.0
  0
LINE
  5
2C1
  8
CRS
 10
1567.590929691828
 20
1003.688431800463
 30
0.0
 11
1525.840929691831
 21
1003.688431800463
 31
0.0
  0
LINE
  5
2C2
  8
CRS
 10
1546.7189381868211
 20
827.13781154341632
 30
0.0
 11
1546.7189381868211
 21
868.88781154341325
 31
0.0
  0
LINE
  5
2C3
  8
CRS
 10
1567.59393818682
 20
848.01281154341598
 30
0.0
 11
1525.8439381868229
 21
848.01281154341575
 31
0.0
  0
LINE
  5
2C4
  8
CRS
 10
1677.6753522632121
 20
737.93565212144586
 30
0.0
 11
1635.9253522632159
 21
737.93565212144586
 31
0.0
  0
LINE
  5
2C5
  8
CRS
 10
1656.8003522632121
 20
758.81065212144415
 30
0.0
 11
1656.8003522632121
 21
717.06065212144745
 31
0.0
  0
ARC
  5
2C6
  8
DRG2
 10
1546.715929691828
 20
1003.688431800463
 30
0.0
 40
15.875
 50
72.731488147572477
 51
15.25835978071254
  0
CIRCLE
  5
2C7
  8
DRG2
 10
1546.715929691828
 20
1003.688431800463
 30
0.0
 40
14.084300000000001
  0
ARC
  5
2C8
  8
DRG2
 10
1546.71893818682
 20
848.01281154341598
 30
0.0
 40
15.875
 50
72.731488147572477
 51
15.25835978071254
  0
CIRCLE
  5
2C9
  8
DRG2
 10
1546.71893818682
 20
848.01281154341598
 30
0.0
 40
14.084300000000001
  0
ARC
  5
2CA
  8
DRG2
 10
1656.8003522632109
 20
737.93565212144586
 30
0.0
 40
15.875
 50
72.731488147572477
 51
15.25835978071254
  0
CIRCLE
  5
2CB
  8
DRG2
 10
1656.8003522632109
 20
737.93565212144586
 30
0.0
 40
14.084300000000001
  0
TEXT
  5
2CC
  8
DIM
 10
1179.559588415864
 20
1337.257443717682
 30
0.0
 40
11.995200000000001
  1

  0
TEXT
  5
2CD
  8
DIM
 10
1821.5918162351629
 20
1553.1685389609329
 30
0.0
 40
12.0
  1
(3.74")
 50
90.0
 72
     4
 11
1816.448959092306
 21
1583.4542532466471
 31
0.0
  0
TEXT
  5
2CE
  8
DIM
 10
1821.5918162351629
 20
1194.904253246646
 30
0.0
 40
12.0
  1
(24.02")
 50
90.0
 72
     4
 11
1816.448959092306
 21
1230.904253246646
 31
0.0
  0
LINE
  5
2CF
  8
DIM
 10
1559.8110490888671
 20
1106.667712974383
 30
0.0
 11
1464.9189610153869
 21
1106.667712974383
 31
0.0
  0
TEXT
  5
2D0
  8
DIM
 10
1464.4110547449891
 20
1087.444563218233
 30
0.0
 40
11.995200000000001
  1
(%%c18.74")
 50
359.9999999999996
 72
     4
 11
1504.6806547449889
 21
1092.585363218232
 31
0.0
  0
TEXT
  5
2D1
  8
DIM
 10
1484.1174547449889
 20
1114.752462730532
 30
0.0
 40
11.995200000000001
  1
%%C476
 50
0.0000000000000799
 72
     4
 11
1504.6806547449889
 21
1120.7500627305319
 31
0.0
  0
TEXT
  5
2D2
  8
DIM
 10
1549.1618992111651
 20
491.32161685818181
 30
0.0
 40
11.995200000000001
  1
(%%c27.76")
 72
     4
 11
1590.5738992111651
 21
496.46241685818171
 31
0.0
  0
TEXT
  5
2D3
  8
DIM
 10
862.51300906542815
 20
986.12287829730815
 30
0.0
 40
12.0
  1
(11.41")
 72
     4
 11
895.08443763685682
 21
991.26573544016537
 31
0.0
  0
TEXT
  5
2D4
  8
DIM
 10
876.34936327510115
 20
490.02835971532483
 30
0.0
 40
12.0
  1
(12.70")
 72
     4
 11
911.20650613224393
 21
495.17121685818199
 31
0.0
  0
TEXT
  5
2D5
  8
DIM
 10
1101.2348030486701
 20
490.02835971532483
 30
0.0
 40
12.0
  1
(0.31")
 72
     4
 11
1130.3776601915281
 21
495.17121685818199
 31
0.0
  0
TEXT
  5
2D6
  8
DIM
 10
712.80789431165931
 20
394.28437742768989
 30
0.0
 40
12.0
  1
(25.48")
 72
     4
 11
748.80789431165931
 21
399.42723457054711
 31
0.0
  0
TEXT
  5
2D7
  8
DIM
 10
247.2056016546226
 20
890.15425324664659
 30
0.0
 40
11.995200000000001
  1
(%%c8.69")
 50
90.0
 72
     4
 11
242.06480165462261
 21
925.85425324664652
 31
0.0
  0
TEXT
  5
2D8
  8
DIM
 10
50.229271223483011
 20
1062.3310938910629
 30
0.0
 40
11.995200000000001
  1
ON %%C265 (%%c10.43") P.C.
  0
TEXT
  5
2D9
  8
DIM
 10
130.8372557736142
 20
1365.271993294929
 30
0.0
 40
12.0
  1
G30 & ISO F30 ONLY
  0
TEXT
  5
2DA
  8
DIM
 10
923.4118150998172
 20
1479.5144402339411
 30
0.0
 40
12.0
  1
(9,30")
 72
     4
 11
953.69752938553165
 21
1484.6572973767979
 31
0.0
  0
TEXT
  5
2DB
  8
DIM
 10
675.67094685426605
 20
1622.659004721497
 30
0.0
 40
12.0
  1
(0.47")
 72
     4
 11
705.95666113998038
 21
1627.8018618643539
 31
0.0
  0
TEXT
  5
2DC
  8
DIM
 10
821.74547199209815
 20
1685.8229031827559
 30
0.0
 40
12.0
  1
(17.02")
 72
     4
 11
856.60261484924104
 21
1690.965760325613
 31
0.0
  0
TEXT
  5
2DD
  8
DIM
 10
346.22610059787792
 20
1638.336921042961
 30
0.0
 40
12.0
  1
(0.59")
 72
     4
 11
376.51181488359219
 21
1643.4797781858181
 31
0.0
  0
TEXT
  5
2DE
  8
DIM
 10
164.41857331499421
 20
1638.336921042961
 30
0.0
 40
12.0
  1
(0.20")
 72
     4
 11
194.70428760070851
 21
1643.4797781858181
 31
0.0
  0
TEXT
  5
2DF
  8
DIM
 10
314.7735564000385
 20
1701.3939842158341
 30
0.0
 40
12.0
  1
(7.88")
 72
     4
 11
345.05927068575278
 21
1706.53684135869
 31
0.0
  0
TEXT
  5
2E0
  8
DIM
 10
723.45775292668895
 20
1753.7413481050769
 30
0.0
 40
12.0
  1
(24.70")
 72
     4
 11
759.45775292668895
 21
1758.884205247934
 31
0.0
  0
TEXT
  5
2E1
  8
TXT
 10
865.71428571428555
 20
2223.3169931290709
 30
0.0
 40
12.0
  1
EXTENSION
 72
     4
 11
911.99999999999989
 21
2229.3169931290709
 31
0.0
  0
TEXT
  5
2E2
  8
TXT
 10
884.57142857142856
 20
2248.5169931290711
 30
0.0
 40
12.0
  1
SHAFT
 72
     4
 11
911.99999999999989
 21
2254.5169931290711
 31
0.0
  0
TEXT
  5
2E3
  8
TXT
 10
902.28571428571433
 20
2184.9169931290712
 30
0.0
 40
12.0
  1
90
 72
     4
 11
911.99999999999989
 21
2190.9169931290712
 31
0.0
  0
TEXT
  5
2E4
  8
TXT
 10
881.71428571428544
 20
2160.5741359862132
 30
0.0
 40
12.0
  1
(3.54")
 72
     4
 11
911.99999999999989
 21
2165.7169931290709
 31
0.0
  0
LINE
  5
2E5
  8
DRG2
 10
396.0
 20
1955.7169931290721
 30
0.0
 11
1800.0
 21
1955.7169931290721
 31
0.0
  0
LINE
  5
2E6
  8
DRG2
 10
396.0
 20
2019.3169931290711
 30
0.0
 11
1800.0
 21
2019.316993129072
 31
0.0
  0
LINE
  5
2E7
  8
DRG2
 10
396.0
 20
2082.9169931290721
 30
0.0
 11
1800.0
 21
2082.9169931290721
 31
0.0
  0
LINE
  5
2E8
  8
DRG2
 10
396.0
 20
2082.9169931290721
 30
0.0
 11
1800.0
 21
2082.9169931290721
 31
0.0
  0
LINE
  5
2E9
  8
DRG2
 10
396.0
 20
2210.116993129071
 30
0.0
 11
1800.0
 21
2210.1169931290719
 31
0.0
  0
LINE
  5
2EA
  8
DRG2
 10
396.0
 20
2146.5169931290711
 30
0.0
 11
1800.0
 21
2146.516993129072
 31
0.0
  0
LINE
  5
2EB
  8
DRG2
 10
396.0
 20
2273.71699312907
 30
0.0
 11
1800.0
 21
2273.7169931290719
 31
0.0
  0
LINE
  5
2EC
  8
DRG2
 10
396.0
 20
2312.116993129071
 30
0.0
 11
1800.0
 21
2312.1169931290719
 31
0.0
  0
LINE
  5
2ED
  8
DRG2
 10
396.0
 20
1892.116993129071
 30
0.0
 11
1800.0
 21
1892.1169931290719
 31
0.0
  0
LINE
  5
2EE
  8
DRG2
 10
396.0
 20
1828.5169931290709
 30
0.0
 11
1800.0
 21
1828.516993129072
 31
0.0
  0
LINE
  5
2EF
  8
DIM
 10
243.2693478733207
 20
2429.8250424034459
 30
0.0
 11
356.0693478733204
 21
2429.8250424034459
 31
0.0
  0
ARC
  5
2F0
  8
DRG
 10
340.16934787332042
 20
2107.0250424034462
 30
0.0
 40
6.0
 50
270.0
 51
0.0
  0
ARC
  5
2F1
  8
DRG
 10
340.16934787332042
 20
2048.225042403446
 30
0.0
 40
6.0
 50
270.0
 51
0.0
  0
ARC
  5
2F2
  8
DRG
 10
340.16934787332042
 20
2021.8250424034461
 30
0.0
 40
6.0
 50
0.0
 51
89.999999999999915
  0
ARC
  5
2F3
  8
DRG
 10
340.16934787332042
 20
1963.0250424034459
 30
0.0
 40
6.0
 50
0.0
 51
90.0
  0
LINE
  5
2F4
  8
CRS
 10
83.693981739288759
 20
2035.0250424034459
 30
0.0
 11
388.03414589692142
 21
2035.0250424034459
 31
0.0
  0
LINE
  5
2F5
  8
DRG
 10
257.66934787332019
 20
2285.8250424034459
 30
0.0
 11
346.16934787332042
 21
2122.0250424034462
 31
0.0
  0
LINE
  5
2F6
  8
DRG
 10
257.66934787332042
 20
1784.225042403446
 30
0.0
 11
346.16934787332042
 21
1948.0250424034459
 31
0.0
  0
LINE
  5
2F7
  8
HID
 10
241.16934787332019
 20
2164.6850424034442
 30
0.0
 11
241.1693478733207
 21
1905.3650424034449
 31
0.0
  0
LINE
  5
2F8
  8
DIM
 10
29.6693478733213
 20
2285.8250424034468
 30
0.0
 11
29.669347873321559
 21
1784.2250424034471
 31
0.0
  0
LINE
  5
2F9
  8
DRG
 10
257.66934787332019
 20
2285.8250424034459
 30
0.0
 11
257.6693478733207
 21
1784.2250424034471
 31
0.0
  0
LINE
  5
2FA
  8
DRG
 10
233.66934787332011
 20
2285.8250424034459
 30
0.0
 11
233.66934787332039
 21
1784.225042403446
 31
0.0
  0
LINE
  5
2FB
  8
DIM
 10
224.49255763598799
 20
1784.225042403446
 30
0.0
 11
27.269347873321291
 21
1784.2250424034471
 31
0.0
  0
SOLID
  5
2FC
  8
DIM
 10
27.269347873321831
 20
1798.625042403447
 30
0.0
 11
32.069347873321838
 21
1798.625042403447
 31
0.0
 12
29.6693478733213
 22
1784.2250424034471
 32
0.0
 13
29.6693478733213
 23
1784.2250424034471
 33
0.0
  0
LINE
  5
2FD
  8
CRS
 10
229.94187921923549
 20
1821.425042403446
 30
0.0
 11
260.24673848654072
 21
1821.425042403446
 31
0.0
  0
LINE
  5
2FE
  8
DRG
 10
233.66934787332039
 20
1784.225042403446
 30
0.0
 11
257.66934787332042
 21
1784.225042403446
 31
0.0
  0
LINE
  5
2FF
  8
HID
 10
233.66934787332201
 20
1807.6250424034461
 30
0.0
 11
257.66934787332212
 21
1807.6250424034461
 31
0.0
  0
LINE
  5
300
  8
HID
 10
233.6693478733207
 20
1905.3650424034449
 30
0.0
 11
241.1693478733207
 21
1905.3650424034449
 31
0.0
  0
LINE
  5
301
  8
HID
 10
233.66934787332201
 20
1835.225042403446
 30
0.0
 11
257.66934787332212
 21
1835.225042403446
 31
0.0
  0
LINE
  5
302
  8
DIM
 10
228.1808235921529
 20
2285.8250424034459
 30
0.0
 11
27.269347873321291
 21
2285.8250424034468
 31
0.0
  0
TEXT
  5
303
  8
DIM
 10
49.375747873321266
 20
1992.4706424034471
 30
0.0
 40
11.995200000000001
  1
SEE TABLE
 50
90.0
 72
     4
 11
43.378147873321268
 21
2040.4514424034469
 31
0.0
  0
TEXT
  5
304
  8
DIM
 10
21.95814787332133
 20
1949.9162424034471
 30
0.0
 40
11.995200000000001
  1
FOR INPUT OPTIONS
 50
90.0
 72
     4
 11
15.96054787332133
 21
2040.4514424034469
 31
0.0
  0
SOLID
  5
305
  8
DIM
 10
27.269347873321831
 20
2271.4250424034458
 30
0.0
 11
32.069347873321838
 21
2271.4250424034458
 31
0.0
 12
29.6693478733213
 22
2285.8250424034468
 32
0.0
 13
29.6693478733213
 23
2285.8250424034468
 33
0.0
  0
LINE
  5
306
  8
DIM
 10
233.6693478733207
 20
2291.6300946649421
 30
0.0
 11
233.6693478733207
 21
2432.225042403446
 31
0.0
  0
LINE
  5
307
  8
DRG
 10
103.4693478733204
 20
2005.0250424034459
 30
0.0
 11
233.66934787332039
 21
2005.0250424034459
 31
0.0
  0
LINE
  5
308
  8
DRG
 10
103.4693478733202
 20
2065.0250424034462
 30
0.0
 11
233.66934787332011
 21
2065.0250424034448
 31
0.0
  0
LINE
  5
309
  8
DRG
 10
107.6693478733204
 20
2069.1050424034461
 30
0.0
 11
227.66934787332039
 21
2069.1050424034461
 31
0.0
  0
LINE
  5
30A
  8
DIM
 10
122.06934787332069
 20
2141.105042403447
 30
0.0
 11
185.9783877228727
 21
2141.105042403447
 31
0.0
  0
TEXT
  5
30B
  8
DIM
 10
128.07373913075571
 20
2122.2554424034461
 30
0.0
 40
11.995200000000001
  1
(0.20")
 72
     4
 11
158.3473391307557
 21
2127.3962424034462
 31
0.0
  0
LINE
  5
30C
  8
DRG
 10
101.66934787332021
 20
2063.225042403446
 30
0.0
 11
101.6693478733204
 21
2006.8250424034461
 31
0.0
  0
LINE
  5
30D
  8
DRG2
 10
103.4693478733202
 20
2065.0250424034462
 30
0.0
 11
103.4693478733204
 21
2005.0250424034459
 31
0.0
  0
LINE
  5
30E
  8
DRG
 10
101.6693478733204
 20
2006.8250424034461
 30
0.0
 11
103.4693478733204
 21
2005.0250424034459
 31
0.0
  0
SOLID
  5
30F
  8
DIM
 10
87.269347873320754
 20
2143.5050424034462
 30
0.0
 11
87.269347873320754
 21
2138.705042403446
 31
0.0
 12
101.6693478733207
 22
2141.105042403447
 32
0.0
 13
101.6693478733207
 23
2141.105042403447
 33
0.0
  0
LINE
  5
310
  8
DIM
 10
87.269347873320754
 20
2141.105042403447
 30
0.0
 11
69.519489719060132
 21
2141.105042403447
 31
0.0
  0
LINE
  5
311
  8
DIM
 10
101.6693478733207
 20
2067.788750716858
 30
0.0
 11
101.6693478733207
 21
2144.7863994315499
 31
0.0
  0
LINE
  5
312
  8
DIM
 10
107.6693478733207
 20
2073.1993961596049
 30
0.0
 11
107.6693478733207
 21
2147.512278121349
 31
0.0
  0
LINE
  5
313
  8
DRG
 10
107.6693478733204
 20
2069.1050424034461
 30
0.0
 11
107.6693478733204
 21
2065.0250424034462
 31
0.0
  0
LINE
  5
314
  8
DRG
 10
103.4693478733202
 20
2065.0250424034462
 30
0.0
 11
101.66934787332021
 21
2063.225042403446
 31
0.0
  0
SOLID
  5
315
  8
DIM
 10
122.06934787332069
 20
2143.5050424034462
 30
0.0
 11
122.06934787332069
 21
2138.705042403446
 31
0.0
 12
107.6693478733207
 22
2141.105042403447
 32
0.0
 13
107.6693478733207
 23
2141.105042403447
 33
0.0
  0
TEXT
  5
316
  8
DIM
 10
154.3489391307557
 20
2148.8162424034458
 30
0.0
 40
11.995200000000001
  1
5
 72
     4
 11
158.3473391307557
 21
2154.813842403446
 31
0.0
  0
LINE
  5
317
  8
DRG
 10
263.66934787332042
 20
2101.0250424034462
 30
0.0
 11
340.16934787332042
 21
2101.0250424034462
 31
0.0
  0
LINE
  5
318
  8
DRG
 10
263.66934787332042
 20
1969.0250424034459
 30
0.0
 11
340.16934787332042
 21
1969.0250424034459
 31
0.0
  0
LINE
  5
319
  8
DRG
 10
263.66934787332042
 20
2027.8250424034461
 30
0.0
 11
340.16934787332042
 21
2027.8250424034461
 31
0.0
  0
LINE
  5
31A
  8
DRG
 10
263.66934787332042
 20
2042.225042403446
 30
0.0
 11
340.16934787332042
 21
2042.225042403446
 31
0.0
  0
ARC
  5
31B
  8
DRG
 10
263.66934787332042
 20
1963.0250424034459
 30
0.0
 40
6.0
 50
90.0
 51
180.0
  0
ARC
  5
31C
  8
DRG
 10
263.66934787332042
 20
2021.825042403447
 30
0.0
 40
6.0
 50
90.0
 51
180.0
  0
LINE
  5
31D
  8
DRG
 10
227.66934787332039
 20
2069.1050424034461
 30
0.0
 11
227.66934787332039
 21
2065.0250424034462
 31
0.0
  0
ARC
  5
31E
  8
DRG
 10
263.66934787332042
 20
2048.225042403446
 30
0.0
 40
6.0
 50
180.0
 51
270.0
  0
ARC
  5
31F
  8
DRG
 10
263.66934787332042
 20
2107.0250424034462
 30
0.0
 40
6.0
 50
180.0
 51
270.0
  0
SOLID
  5
320
  8
DIM
 10
272.06934787332011
 20
2360.225042403446
 30
0.0
 11
272.06934787332011
 21
2355.4250424034458
 31
0.0
 12
257.66934787332019
 22
2357.8250424034459
 32
0.0
 13
257.66934787332019
 23
2357.8250424034459
 33
0.0
  0
LINE
  5
321
  8
CRS
 10
229.9418792192339
 20
2248.625042403447
 30
0.0
 11
260.24673848653879
 21
2248.625042403447
 31
0.0
  0
LINE
  5
322
  8
HID
 10
233.66934787332011
 20
2234.8250424034459
 30
0.0
 11
257.66934787332019
 21
2234.8250424034459
 31
0.0
  0
LINE
  5
323
  8
HID
 10
233.66934787332039
 20
2164.6850424034442
 30
0.0
 11
241.16934787332019
 21
2164.6850424034442
 31
0.0
  0
LINE
  5
324
  8
DRG
 10
233.66934787332011
 20
2285.8250424034459
 30
0.0
 11
257.66934787332019
 21
2285.8250424034459
 31
0.0
  0
LINE
  5
325
  8
HID
 10
233.66934787332011
 20
2262.4250424034458
 30
0.0
 11
257.66934787332019
 21
2262.4250424034458
 31
0.0
  0
LINE
  5
326
  8
DIM
 10
219.2693478733207
 20
2357.8250424034459
 30
0.0
 11
204.86934787332069
 21
2357.8250424034459
 31
0.0
  0
SOLID
  5
327
  8
DIM
 10
219.2693478733207
 20
2360.225042403446
 30
0.0
 11
219.2693478733207
 21
2355.4250424034458
 31
0.0
 12
233.6693478733207
 22
2357.8250424034459
 32
0.0
 13
233.6693478733207
 23
2357.8250424034459
 33
0.0
  0
LINE
  5
328
  8
DIM
 10
257.66934787332019
 20
2291.6300946649421
 30
0.0
 11
257.66934787332019
 21
2360.225042403446
 31
0.0
  0
LINE
  5
329
  8
DIM
 10
272.06934787332011
 20
2357.8250424034459
 30
0.0
 11
336.23607456493971
 21
2357.8250424034459
 31
0.0
  0
TEXT
  5
32A
  8
DIM
 10
274.50329797948808
 20
2338.9754424034459
 30
0.0
 40
11.995200000000001
  1
(0.79")
 72
     4
 11
304.77689797948813
 21
2344.1162424034469
 31
0.0
  0
TEXT
  5
32B
  8
DIM
 10
269.39574787332077
 20
2410.9754424034459
 30
0.0
 40
11.995200000000001
  1
(4.33")
 72
     4
 11
299.66934787332082
 21
2416.116242403446
 31
0.0
  0
SOLID
  5
32C
  8
DIM
 10
248.06934787332071
 20
2432.225042403446
 30
0.0
 11
248.06934787332071
 21
2427.4250424034458
 31
0.0
 12
233.6693478733207
 22
2429.8250424034459
 32
0.0
 13
233.6693478733207
 23
2429.8250424034459
 33
0.0
  0
TEXT
  5
32D
  8
DIM
 10
286.53174787332068
 20
2437.5362424034461
 30
0.0
 40
11.995200000000001
  1
110
 72
     4
 11
299.66934787332082
 21
2443.5338424034462
 31
0.0
  0
TEXT
  5
32E
  8
DIM
 10
295.06649797948808
 20
2365.5362424034461
 30
0.0
 40
11.995200000000001
  1
20
 72
     4
 11
304.77689797948813
 21
2371.5338424034462
 31
0.0
  0
TEXT
  5
32F
  8
TXT
 10
681.71428571428555
 20
1930.5169931290709
 30
0.0
 40
12.0
  1
%%c50.00 -0.05
 72
     4
 11
743.99999999999977
 21
1936.5169931290709
 31
0.0
  0
LINE
  5
330
  8
DRG2
 10
635.99999999999989
 20
1828.5169931290709
 30
0.0
 11
635.99999999999989
 21
2273.71699312907
 31
0.0
  0
LINE
  5
331
  8
DRG2
 10
851.99999999999989
 20
1828.516993129072
 30
0.0
 11
851.99999999999989
 21
2273.7169931290719
 31
0.0
  0
LINE
  5
332
  8
DRG2
 10
516.0
 20
1828.5169931290709
 30
0.0
 11
516.0
 21
2273.71699312907
 31
0.0
  0
LINE
  5
333
  8
DRG2
 10
396.0
 20
1828.5169931290709
 30
0.0
 11
396.0
 21
2312.116993129071
 31
0.0
  0
TEXT
  5
334
  8
TXT
 10
555.14285714285688
 20
1930.5169931290709
 30
0.0
 40
12.0
  1
%%c350
 72
     4
 11
575.99999999999977
 21
1936.5169931290709
 31
0.0
  0
TEXT
  5
335
  8
TXT
 10
421.42857142857139
 20
1917.916993129071
 30
0.0
 40
12.0
  1
ISO F30
 72
     4
 11
456.0
 21
1923.916993129071
 31
0.0
  0
TEXT
  5
336
  8
TXT
 10
422.28571428571422
 20
1866.916993129071
 30
0.0
 40
12.0
  1
ROTORK
 72
     4
 11
456.0
 21
1872.916993129071
 31
0.0
  0
TEXT
  5
337
  8
TXT
 10
440.28571428571428
 20
1841.7169931290709
 30
0.0
 40
12.0
  1
G30
 72
     4
 11
456.0
 21
1847.7169931290709
 31
0.0
  0
TEXT
  5
338
  8
TXT
 10
535.71428571428555
 20
1842.5741359862141
 30
0.0
 40
12.0
  1
(%%c16.46")
 72
     4
 11
575.99999999999977
 21
1847.7169931290709
 31
0.0
  0
TEXT
  5
339
  8
TXT
 10
556.28571428571422
 20
1866.916993129071
 30
0.0
 40
12.0
  1
%%c418
 72
     4
 11
575.99999999999977
 21
1872.916993129071
 31
0.0
  0
TEXT
  5
33A
  8
TXT
 10
535.71428571428555
 20
1906.1741359862131
 30
0.0
 40
12.0
  1
(%%c13.78")
 72
     4
 11
575.99999999999977
 21
1911.3169931290699
 31
0.0
  0
TEXT
  5
33B
  8
TXT
 10
660.85714285714266
 20
1906.1741359862131
 30
0.0
 40
12.0
  1
(%%c1.969" -0.002")
 72
     4
 11
743.99999999999977
 21
1911.3169931290699
 31
0.0
  0
TEXT
  5
33C
  8
TXT
 10
681.71428571428555
 20
1866.916993129071
 30
0.0
 40
12.0
  1
%%c50.00 -0.05
 72
     4
 11
743.99999999999977
 21
1872.916993129071
 31
0.0
  0
TEXT
  5
33D
  8
TXT
 10
660.85714285714266
 20
1842.5741359862141
 30
0.0
 40
12.0
  1
(%%c1.969" -0.002")
 72
     4
 11
743.99999999999977
 21
1847.7169931290709
 31
0.0
  0
LINE
  5
33E
  8
DIM
 10
365.66934787332042
 20
2127.7836702456179
 30
0.0
 11
365.66934787332042
 21
2432.225042403446
 31
0.0
  0
TEXT
  5
33F
  8
TXT
 10
422.85714285714278
 20
2172.3169931290709
 30
0.0
 40
12.0
  1
ISO F16
 72
     4
 11
456.0
 21
2178.3169931290709
 31
0.0
  0
TEXT
  5
340
  8
TXT
 10
421.42857142857139
 20
2045.116993129071
 30
0.0
 40
12.0
  1
ISO F25
 72
     4
 11
456.0
 21
2051.116993129071
 31
0.0
  0
LINE
  5
341
  8
DRG
 10
365.66934787332042
 20
2122.0250424034462
 30
0.0
 11
365.66934787332042
 21
1948.0250424034459
 31
0.0
  0
LINE
  5
342
  8
DRG
 10
346.16934787332042
 20
2122.0250424034462
 30
0.0
 11
346.16934787332042
 21
1948.0250424034459
 31
0.0
  0
LINE
  5
343
  8
DRG
 10
346.16934787332042
 20
1948.0250424034459
 30
0.0
 11
365.66934787332042
 21
1948.0250424034459
 31
0.0
  0
LINE
  5
344
  8
DRG
 10
346.16934787332042
 20
2122.0250424034462
 30
0.0
 11
365.66934787332042
 21
2122.0250424034462
 31
0.0
  0
TEXT
  5
345
  8
TXT
 10
434.85714285714278
 20
1981.5169931290709
 30
0.0
 40
12.0
  1
FA25
 72
     4
 11
456.0
 21
1987.51699312907
 31
0.0
  0
TEXT
  5
346
  8
TXT
 10
436.28571428571422
 20
2108.7169931290709
 30
0.0
 40
12.0
  1
FA16
 72
     4
 11
456.0
 21
2114.7169931290709
 31
0.0
  0
TEXT
  5
347
  8
TXT
 10
540.28571428571422
 20
2096.9741359862142
 30
0.0
 40
12.0
  1
(%%c8.27")
 72
     4
 11
575.99999999999977
 21
2102.116993129071
 31
0.0
  0
TEXT
  5
348
  8
TXT
 10
537.99999999999989
 20
1969.7741359862141
 30
0.0
 40
12.0
  1
(%%c11.81")
 72
     4
 11
575.99999999999977
 21
1974.916993129071
 31
0.0
  0
TEXT
  5
349
  8
TXT
 10
537.99999999999989
 20
2033.374135986214
 30
0.0
 40
12.0
  1
(%%c11.81")
 72
     4
 11
575.99999999999977
 21
2038.5169931290709
 31
0.0
  0
TEXT
  5
34A
  8
TXT
 10
555.14285714285688
 20
1994.116993129071
 30
0.0
 40
12.0
  1
%%c300
 72
     4
 11
575.99999999999977
 21
2000.116993129071
 31
0.0
  0
TEXT
  5
34B
  8
TXT
 10
555.14285714285688
 20
2057.7169931290709
 30
0.0
 40
12.0
  1
%%c300
 72
     4
 11
575.99999999999977
 21
2063.7169931290709
 31
0.0
  0
TEXT
  5
34C
  8
TXT
 10
556.28571428571422
 20
2121.3169931290722
 30
0.0
 40
12.0
  1
%%c210
 72
     4
 11
575.99999999999977
 21
2127.3169931290709
 31
0.0
  0
TEXT
  5
34D
  8
TXT
 10
540.28571428571422
 20
2160.5741359862132
 30
0.0
 40
12.0
  1
(%%c8.27")
 72
     4
 11
575.99999999999977
 21
2165.7169931290709
 31
0.0
  0
TEXT
  5
34E
  8
TXT
 10
556.28571428571422
 20
2184.9169931290712
 30
0.0
 40
12.0
  1
%%c210
 72
     4
 11
575.99999999999977
 21
2190.9169931290712
 31
0.0
  0
TEXT
  5
34F
  8
TXT
 10
548.28571428571422
 20
2224.1741359862131
 30
0.0
 40
12.0
  1
O/DIA.
 72
     4
 11
575.99999999999977
 21
2229.3169931290709
 31
0.0
  0
TEXT
  5
350
  8
TXT
 10
543.71428571428555
 20
2248.5169931290711
 30
0.0
 40
12.0
  1
FLANGE
 72
     4
 11
575.99999999999977
 21
2254.5169931290711
 31
0.0
  0
SOLID
  5
351
  8
DIM
 10
351.2693478733205
 20
2432.225042403446
 30
0.0
 11
351.2693478733205
 21
2427.4250424034458
 31
0.0
 12
365.66934787332042
 22
2429.8250424034459
 32
0.0
 13
365.66934787332042
 23
2429.8250424034459
 33
0.0
  0
TEXT
  5
352
  8
TXT
 10
660.85714285714266
 20
2160.5741359862132
 30
0.0
 40
12.0
  1
(%%c1.575" -0.002")
 72
     4
 11
743.99999999999977
 21
2165.7169931290709
 31
0.0
  0
TEXT
  5
353
  8
TXT
 10
681.71428571428555
 20
2121.3169931290709
 30
0.0
 40
12.0
  1
%%c40.00 -0.05
 72
     4
 11
743.99999999999977
 21
2127.3169931290709
 31
0.0
  0
TEXT
  5
354
  8
TXT
 10
681.71428571428555
 20
2184.9169931290712
 30
0.0
 40
12.0
  1
%%c40.00 -0.05
 72
     4
 11
743.99999999999977
 21
2190.9169931290712
 31
0.0
  0
TEXT
  5
355
  8
TXT
 10
660.85714285714266
 20
2096.9741359862142
 30
0.0
 40
12.0
  1
(%%c1.575" -0.002")
 72
     4
 11
743.99999999999977
 21
2102.116993129071
 31
0.0
  0
TEXT
  5
356
  8
TXT
 10
681.71428571428555
 20
2057.7169931290709
 30
0.0
 40
12.0
  1
%%c50.00 -0.05
 72
     4
 11
743.99999999999977
 21
2063.7169931290709
 31
0.0
  0
TEXT
  5
357
  8
TXT
 10
660.85714285714266
 20
2033.374135986214
 30
0.0
 40
12.0
  1
(%%c1.969" -0.002")
 72
     4
 11
743.99999999999977
 21
2038.5169931290709
 31
0.0
  0
TEXT
  5
358
  8
TXT
 10
660.85714285714266
 20
1969.7741359862141
 30
0.0
 40
12.0
  1
(%%c1.969" -0.002")
 72
     4
 11
743.99999999999977
 21
1974.916993129071
 31
0.0
  0
TEXT
  5
359
  8
TXT
 10
681.71428571428555
 20
1994.116993129071
 30
0.0
 40
12.0
  1
%%c50.00 -0.05
 72
     4
 11
743.99999999999977
 21
2000.116993129071
 31
0.0
  0
TEXT
  5
35A
  8
TXT
 10
716.57142857142844
 20
2248.5169931290711
 30
0.0
 40
12.0
  1
SHAFT
 72
     4
 11
743.99999999999977
 21
2254.5169931290711
 31
0.0
  0
TEXT
  5
35B
  8
TXT
 10
728.85714285714278
 20
2223.3169931290709
 30
0.0
 40
12.0
  1
DIA.
 72
     4
 11
743.99999999999977
 21
2229.3169931290709
 31
0.0
  0
TEXT
  5
35C
  8
TXT
 10
1377.714285714286
 20
2248.5169931290711
 30
0.0
 40
12.0
  1
HOLE DETAILS
 72
     4
 11
1440.0000000000009
 21
2254.5169931290711
 31
0.0
  0
TEXT
  5
35D
  8
TXT
 10
1372.0
 20
2224.1741359862131
 30
0.0
 40
12.0
  1
(OFF CENTRES)
 72
     4
 11
1440.0000000000009
 21
2229.3169931290709
 31
0.0
  0
TEXT
  5
35E
  8
TXT
 10
1329.428571428572
 20
2122.174135986214
 30
0.0
 40
12.0
  1
4 HOLES %%c20.5 (%%c0.81")
 72
     4
 11
1440.0000000000009
 21
2127.3169931290709
 31
0.0
  0
TEXT
  5
35F
  8
TXT
 10
1329.428571428572
 20
2185.7741359862139
 30
0.0
 40
12.0
  1
4 HOLES %%c20.5 (%%c0.81")
 72
     4
 11
1440.0000000000009
 21
2190.9169931290712
 31
0.0
  0
TEXT
  5
360
  8
TXT
 10
1328.0000000000009
 20
2160.5741359862132
 30
0.0
 40
12.0
  1
ON %%c165.0 (%%c6.50") P.C.
 72
     4
 11
1440.0000000000009
 21
2165.7169931290709
 31
0.0
  0
TEXT
  5
361
  8
TXT
 10
1323.428571428572
 20
1906.1741359862131
 30
0.0
 40
12.0
  1
ON %%c298.0 (%%c11.73") P.C.
 72
     4
 11
1440.0000000000009
 21
1911.3169931290699
 31
0.0
  0
TEXT
  5
362
  8
TXT
 10
1329.428571428572
 20
1931.374135986214
 30
0.0
 40
12.0
  1
8 HOLES %%c20.5 (%%c0.81")
 72
     4
 11
1440.0000000000009
 21
1936.5169931290709
 31
0.0
  0
TEXT
  5
363
  8
TXT
 10
1329.428571428572
 20
1994.9741359862139
 30
0.0
 40
12.0
  1
8 HOLES %%c16.5 (%%c0.65")
 72
     4
 11
1440.0000000000009
 21
2000.116993129071
 31
0.0
  0
TEXT
  5
364
  8
TXT
 10
1322.2857142857149
 20
1969.7741359862141
 30
0.0
 40
12.0
  1
ON %%c254.0 (%%c10.00") P.C.
 72
     4
 11
1440.0000000000009
 21
1974.916993129071
 31
0.0
  0
TEXT
  5
365
  8
TXT
 10
1322.2857142857149
 20
2033.374135986214
 30
0.0
 40
12.0
  1
ON %%c254.0 (%%c10.00") P.C.
 72
     4
 11
1440.0000000000009
 21
2038.5169931290709
 31
0.0
  0
TEXT
  5
366
  8
TXT
 10
1329.428571428572
 20
2058.5741359862132
 30
0.0
 40
12.0
  1
8 HOLES %%c16.5 (%%c0.65")
 72
     4
 11
1440.0000000000009
 21
2063.7169931290709
 31
0.0
  0
TEXT
  5
367
  8
TXT
 10
1328.0000000000009
 20
2096.9741359862142
 30
0.0
 40
12.0
  1
ON %%c165.0 (%%c6.50") P.C.
 72
     4
 11
1440.0000000000009
 21
2102.116993129071
 31
0.0
  0
TEXT
  5
368
  8
TXT
 10
1322.2857142857149
 20
1842.5741359862141
 30
0.0
 40
12.0
  1
ON %%c356.0 (%%c14.02") P.C.
 72
     4
 11
1440.0000000000009
 21
1847.7169931290709
 31
0.0
  0
TEXT
  5
369
  8
TXT
 10
1329.428571428572
 20
1867.7741359862141
 30
0.0
 40
12.0
  1
8 HOLES %%c23.0 (%%c0.91")
 72
     4
 11
1440.0000000000009
 21
1872.916993129071
 31
0.0
  0
TEXT
  5
36A
  8
TXT
 10
1238.285714285714
 20
1930.5169931290709
 30
0.0
 40
12.0
  1
6
 72
     4
 11
1242.0
 21
1936.5169931290709
 31
0.0
  0
TEXT
  5
36B
  8
TXT
 10
1014.285714285714
 20
1930.5169931290709
 30
0.0
 40
12.0
  1
%%c230.10 +0.10
 72
     4
 11
1079.9999999999991
 21
1936.5169931290709
 31
0.0
  0
LINE
  5
36C
  8
DRG2
 10
1296.0
 20
1828.516993129072
 30
0.0
 11
1296.0
 21
2273.71699312907
 31
0.0
  0
LINE
  5
36D
  8
DRG2
 10
1188.0000000000009
 20
1828.516993129072
 30
0.0
 11
1188.0
 21
2273.71699312907
 31
0.0
  0
LINE
  5
36E
  8
DRG2
 10
971.99999999999966
 20
1828.516993129072
 30
0.0
 11
971.99999999999966
 21
2273.71699312907
 31
0.0
  0
TEXT
  5
36F
  8
TXT
 10
1015.428571428571
 20
1866.916993129071
 30
0.0
 40
12.0
  1
%%c216.10 +0.10
 72
     4
 11
1079.9999999999991
 21
1872.916993129071
 31
0.0
  0
TEXT
  5
370
  8
TXT
 10
988.28571428571399
 20
1906.1741359862131
 30
0.0
 40
12.0
  1
(%%c9.059" +0.004") 
 72
     4
 11
1079.9999999999991
 21
1911.3169931290699
 31
0.0
  0
TEXT
  5
371
  8
TXT
 10
988.28571428571399
 20
1842.5741359862141
 30
0.0
 40
12.0
  1
(%%c8.508" +0.004") 
 72
     4
 11
1079.9999999999991
 21
1847.7169931290709
 31
0.0
  0
TEXT
  5
372
  8
TXT
 10
1211.7142857142851
 20
1906.174135986214
 30
0.0
 40
12.0
  1
(0.24")
 72
     4
 11
1242.0
 21
1911.3169931290711
 31
0.0
  0
TEXT
  5
373
  8
TXT
 10
1211.7142857142851
 20
1842.5741359862141
 30
0.0
 40
12.0
  1
(0.24")
 72
     4
 11
1242.0
 21
1847.7169931290709
 31
0.0
  0
TEXT
  5
374
  8
TXT
 10
1238.285714285714
 20
1866.916993129071
 30
0.0
 40
12.0
  1
6
 72
     4
 11
1242.0
 21
1872.916993129071
 31
0.0
  0
TEXT
  5
375
  8
TXT
 10
993.142857142857
 20
2286.9169931290712
 30
0.0
 40
12.0
  1
INPUT FLANGE DETAILS
 72
     4
 11
1098.0
 21
2292.9169931290712
 31
0.0
  0
TEXT
  5
376
  8
TXT
 10
989.42857142857133
 20
2160.5741359862132
 30
0.0
 40
12.0
  1
(%%c5.120" +0.002") 
 72
     4
 11
1079.9999999999991
 21
2165.7169931290709
 31
0.0
  0
TEXT
  5
377
  8
TXT
 10
1013.142857142857
 20
2121.3169931290709
 30
0.0
 40
12.0
  1
%%c126.92 +0.05
 72
     4
 11
1079.9999999999991
 21
2127.3169931290709
 31
0.0
  0
TEXT
  5
378
  8
TXT
 10
1013.142857142857
 20
2184.9169931290712
 30
0.0
 40
12.0
  1
%%c130.05 +0.05
 72
     4
 11
1079.9999999999991
 21
2190.9169931290712
 31
0.0
  0
TEXT
  5
379
  8
TXT
 10
1047.4285714285711
 20
2248.5169931290711
 30
0.0
 40
12.0
  1
RECESS
 72
     4
 11
1079.9999999999991
 21
2254.5169931290711
 31
0.0
  0
TEXT
  5
37A
  8
TXT
 10
1014.285714285714
 20
1994.116993129071
 30
0.0
 40
12.0
  1
%%c152.37 +0.10
 72
     4
 11
1079.9999999999991
 21
2000.116993129071
 31
0.0
  0
TEXT
  5
37B
  8
TXT
 10
1014.285714285714
 20
2057.7169931290709
 30
0.0
 40
12.0
  1
%%c200.10 +0.10
 72
     4
 11
1079.9999999999991
 21
2063.7169931290709
 31
0.0
  0
TEXT
  5
37C
  8
TXT
 10
988.28571428571399
 20
1969.7741359862141
 30
0.0
 40
12.0
  1
(%%c5.999" +0.004") 
 72
     4
 11
1079.9999999999991
 21
1974.916993129071
 31
0.0
  0
TEXT
  5
37D
  8
TXT
 10
988.28571428571399
 20
2033.374135986214
 30
0.0
 40
12.0
  1
(%%c7.878" +0.004") 
 72
     4
 11
1079.9999999999991
 21
2038.5169931290709
 31
0.0
  0
TEXT
  5
37E
  8
TXT
 10
988.28571428571399
 20
2096.9741359862142
 30
0.0
 40
12.0
  1
(%%c4.997" +0.002") 
 72
     4
 11
1079.9999999999991
 21
2102.116993129071
 31
0.0
  0
TEXT
  5
37F
  8
TXT
 10
1064.857142857142
 20
2223.3169931290709
 30
0.0
 40
12.0
  1
DIA.
 72
     4
 11
1079.9999999999991
 21
2229.3169931290709
 31
0.0
  0
TEXT
  5
380
  8
TXT
 10
1211.7142857142851
 20
2033.374135986214
 30
0.0
 40
12.0
  1
(0.20")
 72
     4
 11
1242.0
 21
2038.5169931290709
 31
0.0
  0
TEXT
  5
381
  8
TXT
 10
1211.7142857142851
 20
1969.7741359862141
 30
0.0
 40
12.0
  1
(0.20")
 72
     4
 11
1242.0
 21
1974.916993129071
 31
0.0
  0
TEXT
  5
382
  8
TXT
 10
1238.0
 20
1994.116993129071
 30
0.0
 40
12.0
  1
5
 72
     4
 11
1242.0
 21
2000.116993129071
 31
0.0
  0
TEXT
  5
383
  8
TXT
 10
1211.7142857142851
 20
2096.9741359862142
 30
0.0
 40
12.0
  1
(0.20")
 72
     4
 11
1242.0
 21
2102.116993129071
 31
0.0
  0
TEXT
  5
384
  8
TXT
 10
1238.0
 20
2057.7169931290709
 30
0.0
 40
12.0
  1
5
 72
     4
 11
1242.0
 21
2063.7169931290709
 31
0.0
  0
TEXT
  5
385
  8
TXT
 10
1238.0
 20
2121.3169931290722
 30
0.0
 40
12.0
  1
5
 72
     4
 11
1242.0
 21
2127.3169931290709
 31
0.0
  0
TEXT
  5
386
  8
TXT
 10
1209.4285714285711
 20
2248.5169931290711
 30
0.0
 40
12.0
  1
RECESS
 72
     4
 11
1242.0
 21
2254.5169931290711
 31
0.0
  0
TEXT
  5
387
  8
TXT
 10
1211.7142857142851
 20
2160.5741359862141
 30
0.0
 40
12.0
  1
(0.20")
 72
     4
 11
1242.0
 21
2165.7169931290719
 31
0.0
  0
TEXT
  5
388
  8
TXT
 10
1215.4285714285711
 20
2223.3169931290709
 30
0.0
 40
12.0
  1
DEPTH
 72
     4
 11
1242.0
 21
2229.3169931290709
 31
0.0
  0
TEXT
  5
389
  8
TXT
 10
1238.0
 20
2184.9169931290712
 30
0.0
 40
12.0
  1
5
 72
     4
 11
1242.0
 21
2190.9169931290712
 31
0.0
  0
LINE
  5
38A
  8
DRG2
 10
1800.0
 20
1828.516993129072
 30
0.0
 11
1800.0
 21
2312.1169931290719
 31
0.0
  0
LINE
  5
38B
  8
DRG2
 10
1584.0
 20
1828.516993129072
 30
0.0
 11
1584.0
 21
2273.71699312907
 31
0.0
  0
TEXT
  5
38C
  8
TXT
 10
1605.7142857142851
 20
2160.5741359862132
 30
0.0
 40
12.0
  1
(0.47"x0.31"x2.17")
 72
     4
 11
1692.0
 21
2165.7169931290709
 31
0.0
  0
TEXT
  5
38D
  8
TXT
 10
1605.7142857142851
 20
2096.9741359862142
 30
0.0
 40
12.0
  1
(0.47"x0.31"x2.17")
 72
     4
 11
1692.0
 21
2102.116993129071
 31
0.0
  0
TEXT
  5
38E
  8
TXT
 10
1604.571428571428
 20
2033.374135986214
 30
0.0
 40
12.0
  1
(0.55"x0.35"x3.15")
 72
     4
 11
1692.0
 21
2038.5169931290709
 31
0.0
  0
TEXT
  5
38F
  8
TXT
 10
1656.571428571428
 20
2121.3169931290709
 30
0.0
 40
12.0
  1
12x8x55
 72
     4
 11
1692.0
 21
2127.3169931290709
 31
0.0
  0
TEXT
  5
390
  8
TXT
 10
1656.571428571428
 20
2057.7169931290709
 30
0.0
 40
12.0
  1
14x9x80
 72
     4
 11
1692.0
 21
2063.7169931290709
 31
0.0
  0
TEXT
  5
391
  8
TXT
 10
1658.0
 20
2223.3169931290709
 30
0.0
 40
12.0
  1
DETAILS
 72
     4
 11
1692.0
 21
2229.3169931290709
 31
0.0
  0
TEXT
  5
392
  8
TXT
 10
1676.0
 20
2248.5169931290711
 30
0.0
 40
12.0
  1
KEY
 72
     4
 11
1692.0
 21
2254.5169931290711
 31
0.0
  0
TEXT
  5
393
  8
TXT
 10
1656.571428571428
 20
2184.9169931290712
 30
0.0
 40
12.0
  1
12x8x55
 72
     4
 11
1692.0
 21
2190.9169931290712
 31
0.0
  0
TEXT
  5
394
  8
TXT
 10
1341.9128421143239
 20
376.08758975919341
 30
0.0
 40
12.0
  1
BASEPLATE DETAILS
 72
     4
 11
1432.4842706857521
 21
382.08758975919341
 31
0.0
  0
LINE
  5
395
  8
DRG2
 10
1072.4842706857539
 20
362.88758975919342
 30
0.0
 11
1792.4842706857521
 21
362.88758975919342
 31
0.0
  0
LINE
  5
396
  8
DRG2
 10
1072.4842706857539
 20
324.48758975919338
 30
0.0
 11
1792.4842706857521
 21
324.48758975919338
 31
0.0
  0
LINE
  5
397
  8
DRG2
 10
1072.4842706857539
 20
401.28758975919351
 30
0.0
 11
1792.4842706857521
 21
401.28758975919351
 31
0.0
  0
TEXT
  5
398
  8
TXT
 10
1447.341413542895
 20
338.54473261633632
 30
0.0
 40
12.0
  1
HOLE DETAILS (22.5%%d OFF CENTRES)
 72
     4
 11
1612.4842706857521
 21
343.68758975919349
 31
0.0
  0
TEXT
  5
399
  8
TXT
 10
1469.912842114323
 20
300.14473261633611
 30
0.0
 40
12.0
  1
8 HOLES M36x45 (1.77") DEEP
 72
     4
 11
1612.4842706857521
 21
305.28758975919328
 31
0.0
  0
LINE
  5
39A
  8
DRG2
 10
1072.4842706857539
 20
260.8875897591933
 30
0.0
 11
1792.4842706857521
 21
260.8875897591933
 31
0.0
  0
LINE
  5
39B
  8
DRG2
 10
1072.4842706857539
 20
197.28758975919351
 30
0.0
 11
1792.4842706857521
 21
197.28758975919351
 31
0.0
  0
TEXT
  5
39C
  8
TXT
 10
1446.4842706857521
 20
236.5447326163362
 30
0.0
 40
12.0
  1
8 HOLES 1.25"UNCx45 (1.77") DEEP
 72
     4
 11
1612.4842706857521
 21
241.68758975919329
 31
0.0
  0
LINE
  5
39D
  8
DRG2
 10
1432.4842706857539
 20
197.28758975919371
 30
0.0
 11
1432.4842706857539
 21
362.88758975919342
 31
0.0
  0
LINE
  5
39E
  8
DRG2
 10
1192.4842706857539
 20
197.28758975919359
 30
0.0
 11
1192.4842706857539
 21
362.88758975919342
 31
0.0
  0
LINE
  5
39F
  8
DRG2
 10
1072.4842706857539
 20
197.28758975919351
 30
0.0
 11
1072.4842706857539
 21
401.28758975919351
 31
0.0
  0
TEXT
  5
3A0
  8
TXT
 10
1101.2720831599499
 20
223.08758975919341
 30
0.0
 40
12.0
  1
FA40
 72
     4
 11
1122.4149403028071
 21
229.08758975919341
 31
0.0
  0
TEXT
  5
3A1
  8
TXT
 10
1245.627127828611
 20
235.68758975919329
 30
0.0
 40
12.0
  1
%%c228.60 -0.15
 72
     4
 11
1312.4842706857539
 21
241.68758975919329
 31
0.0
  0
TEXT
  5
3A2
  8
TXT
 10
1220.7699849714679
 20
211.34473261633619
 30
0.0
 40
12.0
  1
(%%c9.000" -0.006") 
 72
     4
 11
1312.4842706857539
 21
216.48758975919341
 31
0.0
  0
TEXT
  5
3A3
  8
TXT
 10
1097.912842114325
 20
286.68758975919337
 30
0.0
 40
12.0
  1
ISO F40
 72
     4
 11
1132.4842706857539
 21
292.68758975919337
 31
0.0
  0
TEXT
  5
3A4
  8
TXT
 10
1260.4842706857539
 20
337.68758975919349
 30
0.0
 40
12.0
  1
SPIGOT DIA.
 72
     4
 11
1312.4842706857539
 21
343.68758975919349
 31
0.0
  0
TEXT
  5
3A5
  8
TXT
 10
1244.4842706857539
 20
299.28758975919322
 30
0.0
 40
12.0
  1
%%c299.95 -0.05
 72
     4
 11
1312.4842706857539
 21
305.28758975919328
 31
0.0
  0
TEXT
  5
3A6
  8
TXT
 10
1217.341413542897
 20
274.94473261633618
 30
0.0
 40
12.0
  1
(%%c11.809" -0.002") 
 72
     4
 11
1312.4842706857539
 21
280.08758975919341
 31
0.0
  0
LINE
  5
3A7
  8
DRG2
 10
1792.4842706857521
 20
197.28758975919419
 30
0.0
 11
1792.4842706857521
 21
401.28758975919391
 31
0.0
  0
TEXT
  5
3A8
  8
TXT
 10
1494.7699849714661
 20
211.34473261633619
 30
0.0
 40
12.0
  1
ON %%c406.4 (%%c16.00") P.C.
 72
     4
 11
1612.4842706857521
 21
216.48758975919341
 31
0.0
  0
TEXT
  5
3A9
  8
TXT
 10
1494.7699849714661
 20
274.94473261633618
 30
0.0
 40
12.0
  1
ON %%c406.0 (%%c15.98") P.C.
 72
     4
 11
1612.4842706857521
 21
280.08758975919341
 31
0.0
  0
TEXT
  5
3AA
  8
BORT
 10
32.171428571428571
 20
279.60000000000002
 30
0.0
 40
12.0
  1
1
 72
     4
 11
33.600000000000009
 21
285.60000000000002
 31
0.0
  0
TEXT
  5
3AB
  8
BORT
 10
132.51428571428559
 20
279.60000000000002
 30
0.0
 40
12.0
  1
CN915 JMO 19.6.97
 72
     4
 11
220.7999999999999
 21
285.60000000000002
 31
0.0
  0
TEXT
  5
3AC
  8
BORT
 10
29.599999999999959
 20
313.19999999999999
 30
0.0
 40
12.0
  1
2
 72
     4
 11
33.599999999999959
 21
319.19999999999999
 31
0.0
  0
TEXT
  5
3AE
  8
BORT
 10
127.6571428571428
 20
313.19999999999999
 30
0.0
 40
12.0
  1
CN959 B.T. 20.11.97
 72
     4
 11
220.7999999999999
 21
319.19999999999999
 31
0.0
  0
LINE
  5
3AF
  8
BORT
 39
4.3200000000000003
 10
374.39999999999992
 20
302.39999999999998
 30
0.0
 11
0.0
 21
302.39999999999998
 31
0.0
  0
LINE
  5
3B0
  8
BORT
 39
4.3200000000000003
 10
374.39999999999992
 20
336.0
 30
0.0
 11
0.0
 21
336.0
 31
0.0
  0
TEXT
  5
3B1
  8
TXT
 10
1604.571428571428
 20
1969.774135986213
 30
0.0
 40
12.0
  1
(0.55"x0.35"x3.15")
 72
     4
 11
1692.0
 21
1974.9169931290701
 31
0.0
  0
TEXT
  5
3B2
  8
TXT
 10
1656.571428571428
 20
1994.1169931290699
 30
0.0
 40
12.0
  1
14x9x80
 72
     4
 11
1692.0
 21
2000.1169931290699
 31
0.0
  0
TEXT
  5
3B3
  8
TXT
 10
1604.571428571428
 20
1906.1741359862131
 30
0.0
 40
12.0
  1
(0.55"x0.35"x3.15")
 72
     4
 11
1692.0
 21
1911.3169931290699
 31
0.0
  0
TEXT
  5
3B4
  8
TXT
 10
1656.571428571428
 20
1930.51699312907
 30
0.0
 40
12.0
  1
14x9x80
 72
     4
 11
1692.0
 21
1936.51699312907
 31
0.0
  0
TEXT
  5
3B5
  8
TXT
 10
1604.571428571428
 20
1842.5741359862129
 30
0.0
 40
12.0
  1
(0.55"x0.35"x3.15")
 72
     4
 11
1692.0
 21
1847.71699312907
 31
0.0
  0
TEXT
  5
3B6
  8
TXT
 10
1656.571428571428
 20
1866.9169931290701
 30
0.0
 40
12.0
  1
14x9x80
 72
     4
 11
1692.0
 21
1872.9169931290701
 31
0.0
  0
LINE
  5
3B7
  8
BORT
 39
4.3200000000000003
 10
374.39999999999992
 20
369.60000000000002
 30
0.0
 11
0.0
 21
369.60000000000002
 31
0.0
  0
TEXT
  5
3B8
  8
TXT
 10
881.71428571428544
 20
2096.9741359862142
 30
0.0
 40
12.0
  1
(3.54")
 72
     4
 11
911.99999999999989
 21
2102.116993129071
 31
0.0
  0
TEXT
  5
3B9
  8
TXT
 10
902.28571428571433
 20
2121.3169931290722
 30
0.0
 40
12.0
  1
90
 72
     4
 11
911.99999999999989
 21
2127.3169931290709
 31
0.0
  0
TEXT
  5
3BA
  8
TXT
 10
881.71428571428544
 20
2033.374135986214
 30
0.0
 40
12.0
  1
(3.54")
 72
     4
 11
911.99999999999989
 21
2038.5169931290709
 31
0.0
  0
TEXT
  5
3BB
  8
TXT
 10
902.28571428571433
 20
2057.7169931290709
 30
0.0
 40
12.0
  1
90
 72
     4
 11
911.99999999999989
 21
2063.7169931290709
 31
0.0
  0
TEXT
  5
3BC
  8
TXT
 10
881.71428571428544
 20
1969.7741359862141
 30
0.0
 40
12.0
  1
(3.54")
 72
     4
 11
911.99999999999989
 21
1974.916993129071
 31
0.0
  0
TEXT
  5
3BD
  8
TXT
 10
902.28571428571433
 20
1994.1169931290719
 30
0.0
 40
12.0
  1
90
 72
     4
 11
911.99999999999989
 21
2000.1169931290719
 31
0.0
  0
TEXT
  5
3BE
  8
TXT
 10
881.71428571428544
 20
1906.174135986214
 30
0.0
 40
12.0
  1
(3.54")
 72
     4
 11
911.99999999999989
 21
1911.3169931290711
 31
0.0
  0
TEXT
  5
3BF
  8
TXT
 10
902.28571428571433
 20
1930.5169931290709
 30
0.0
 40
12.0
  1
90
 72
     4
 11
911.99999999999989
 21
1936.5169931290709
 31
0.0
  0
TEXT
  5
3C0
  8
TXT
 10
881.71428571428544
 20
1842.5741359862141
 30
0.0
 40
12.0
  1
(3.54")
 72
     4
 11
911.99999999999989
 21
1847.7169931290709
 31
0.0
  0
TEXT
  5
3C1
  8
TXT
 10
902.28571428571433
 20
1866.916993129071
 30
0.0
 40
12.0
  1
90
 72
     4
 11
911.99999999999989
 21
1872.916993129071
 31
0.0
  0
LINE
  5
422
  8
HID
 10
749.88427068575425
 20
955.85425324664664
 30
0.0
 11
1039.6342706857531
 21
955.85425324664675
 31
0.0
  0
LINE
  5
423
  8
HID
 10
749.88427068575413
 20
895.85425324664664
 30
0.0
 11
1039.6342706857531
 21
895.85425324664675
 31
0.0
  0
LINE
  5
431
  8
DIM
 10
1166.0227270357659
 20
1040.1542532466469
 30
0.0
 11
1246.0291869678049
 21
1040.1542532466469
 31
0.0
  0
TEXT
  5
432
  8
DIM
 10
1177.630711861703
 20
967.43687661751005
 30
0.0
 40
11.995200000000001
  1
(2.95")
 50
90.0
 72
     4
 11
1172.4899118617029
 21
997.71047661751004
 31
0.0
  0
LINE
  5
433
  8
DIM
 10
1045.6342706857531
 20
955.85425324664675
 30
0.0
 11
1166.025004170727
 21
955.85425324664675
 31
0.0
  0
LINE
  5
434
  8
DIM
 10
1045.6342706857531
 20
895.85425324664698
 30
0.0
 11
1166.025004170727
 21
895.85425324664698
 31
0.0
  0
TEXT
  5
435
  8
DIM
 10
1130.704661418014
 20
970.27922155273916
 30
0.0
 40
11.995200000000001
  1
ALUMINIUM BRONZE ONLY
 50
90.0
 72
     4
 11
1124.7070614180141
 21
1087.0896215527389
 31
0.0
  0
LINE
  5
436
  8
DIM
 10
1159.1706041707271
 20
955.85425324664675
 30
0.0
 11
1159.1706041707271
 21
1175.2351378590481
 31
0.0
  0
TEXT
  5
437
  8
DIM
 10
1152.880785342227
 20
968.91343561230849
 30
0.0
 40
11.995200000000001
  1
%%C75 CAST PILOT BORE
 50
90.0
 72
     4
 11
1146.8831853422271
 21
1071.729435612308
 31
0.0
  0
SOLID
  5
438
  8
DIM
 10
1156.8858041707269
 20
942.14545324664675
 30
0.0
 11
1161.455404170727
 21
942.14545324664675
 31
0.0
 12
1159.1706041707271
 22
955.85425324664675
 32
0.0
 13
1159.1706041707271
 23
955.85425324664675
 33
0.0
  0
SOLID
  5
439
  8
DIM
 10
1156.8858041707269
 20
909.56305324664686
 30
0.0
 11
1161.455404170727
 21
909.56305324664686
 31
0.0
 12
1159.1706041707271
 22
895.85425324664698
 32
0.0
 13
1159.1706041707271
 23
895.85425324664698
 33
0.0
  0
LINE
  5
43A
  8
DIM
 10
1159.1706041707271
 20
897.56305324664675
 30
0.0
 11
1159.1706041707271
 21
955.85425324664675
 31
0.0
  0
TEXT
  5
43B
  8
BORT
 10
118.51428571428571
 20
346.80000000000001
 30
0.0
 40
12.0
  1
CN1094 D.J.G. 20.5.99
 72
     4
 11
220.7999999999999
 21
352.80000000000001
 31
0.0
  0
TEXT
  5
43C
  8
BORT
 10
29.599999999999959
 20
346.80000000000001
 30
0.0
 40
12.0
  1
3
 72
     4
 11
33.599999999999959
 21
352.80000000000001
 31
0.0
  0
INSERT
  5
5DC
  8
0
  2
ROTORK_GEARS_LOGO
 10
-1.7974262865013479
 20
-5.79478663176178
 30
0.0
 41
1.837500000000027
 42
1.8375000000000341
 43
1.8374999999999999
  0
VIEWPORT
  5
30
 67
     1
  8
0
 10
210.00000022409631
 20
152.0942409999999
 30
0.0
 40
420.00000044819268
 41
304.18848199999991
 68
     1
 69
     1
1001
ACAD
1000
MVIEW
1002
{
1070
    16
1010
0.0
1020
0.0
1030
0.0
1010
0.0
1020
0.0
1030
1.0
1040
0.0
1040
304.18848199999991
1040
210.00000022409631
1040
152.0942409999999
1040
50.0
1040
0.0
1040
0.0
1070
     0
1070
  2000
1070
     1
1070
     1
1070
     1
1070
     0
1070
     0
1070
     1
1040
0.0
1040
0.0
1040
0.0
1040
5.0
1040
5.0
1040
10.0
1040
10.0
1070
     0
1002
{
1002
}
1002
}
  0
ENDSEC
  0
EOF
