  0
SECTION
  2
HEADER
  9
$ACADVER
  1
AC1009
  9
$INSBASE
 10
0.0
 20
0.0
 30
0.0
  9
$EXTMIN
 10
10.0
 20
14.0
 30
0.0
  9
$EXTMAX
 10
760.00000000000011
 20
1090.230854340309
 30
1.8
  9
$LIMMIN
 10
0.0
 20
0.0
  9
$LIMMAX
 10
840.0
 20
1188.0
  9
$ORTHOMODE
 70
     1
  9
$REGENMODE
 70
     1
  9
$FILLMODE
 70
     1
  9
$QTEXTMODE
 70
     0
  9
$MIRRTEXT
 70
     0
  9
$DRAGMODE
 70
     2
  9
$LTSCALE
 40
0.5
  9
$OSMODE
 70
    47
  9
$ATTMODE
 70
     1
  9
$TEXTSIZE
 40
5.0
  9
$TRACEWID
 40
10.0
  9
$TEXTSTYLE
  7
STANDARD
  9
$CLAYER
  8
DIM
  9
$CELTYPE
  6
BYLAYER
  9
$CECOLOR
 62
   256
  9
$DIMSCALE
 40
1.0
  9
$DIMASZ
 40
6.0
  9
$DIMEXO
 40
5.0
  9
$DIMDLI
 40
10.0
  9
$DIMRND
 40
0.0
  9
$DIMDLE
 40
1.25
  9
$DIMEXE
 40
2.0
  9
$DIMTP
 40
0.0
  9
$DIMTM
 40
0.0
  9
$DIMTXT
 40
5.0
  9
$DIMCEN
 40
-3.0
  9
$DIMTSZ
 40
0.0
  9
$DIMTOL
 70
     0
  9
$DIMLIM
 70
     0
  9
$DIMTIH
 70
     0
  9
$DIMTOH
 70
     0
  9
$DIMSE1
 70
     0
  9
$DIMSE2
 70
     0
  9
$DIMTAD
 70
     1
  9
$DIMZIN
 70
     0
  9
$DIMBLK
  1

  9
$DIMASO
 70
     0
  9
$DIMSHO
 70
     0
  9
$DIMPOST
  1

  9
$DIMAPOST
  1

  9
$DIMALT
 70
     0
  9
$DIMALTD
 70
     2
  9
$DIMALTF
 40
0.039
  9
$DIMLFAC
 40
1.0
  9
$DIMTOFL
 70
     0
  9
$DIMTVP
 40
1.5
  9
$DIMTIX
 70
     0
  9
$DIMSOXD
 70
     0
  9
$DIMSAH
 70
     0
  9
$DIMBLK1
  1

  9
$DIMBLK2
  1

  9
$DIMSTYLE
  2
STD
  9
$DIMCLRD
 70
   256
  9
$DIMCLRE
 70
   256
  9
$DIMCLRT
 70
   256
  9
$DIMTFAC
 40
0.75
  9
$DIMGAP
 40
1.5
  9
$LUNITS
 70
     2
  9
$LUPREC
 70
     2
  9
$SKETCHINC
 40
1.0
  9
$FILLETRAD
 40
6.0
  9
$AUNITS
 70
     0
  9
$AUPREC
 70
     2
  9
$MENU
  1
ACAD
  9
$ELEVATION
 40
0.0
  9
$PELEVATION
 40
0.0
  9
$THICKNESS
 40
0.0
  9
$LIMCHECK
 70
     0
  9
$BLIPMODE
 70
     0
  9
$CHAMFERA
 40
0.0
  9
$CHAMFERB
 40
0.0
  9
$SKPOLY
 70
     1
  9
$TDCREATE
 40
2449629.4760138891
  9
$TDUPDATE
 40
2452817.4631725582
  9
$TDINDWG
 40
0.29683125
  9
$TDUSRTIMER
 40
0.29683125
  9
$USRTIMER
 70
     1
  9
$ANGBASE
 50
0.0
  9
$ANGDIR
 70
     0
  9
$PDMODE
 70
     3
  9
$PDSIZE
 40
0.0
  9
$PLINEWID
 40
0.0
  9
$COORDS
 70
     1
  9
$SPLFRAME
 70
     0
  9
$SPLINETYPE
 70
     6
  9
$SPLINESEGS
 70
     6
  9
$ATTDIA
 70
     0
  9
$ATTREQ
 70
     1
  9
$HANDLING
 70
  4097
  9
$HANDSEED
  5
759
  9
$SURFTAB1
 70
    18
  9
$SURFTAB2
 70
    18
  9
$SURFTYPE
 70
     6
  9
$SURFU
 70
    18
  9
$SURFV
 70
    18
  9
$UCSNAME
  2

  9
$UCSORG
 10
0.0
 20
0.0
 30
0.0
  9
$UCSXDIR
 10
1.0
 20
0.0
 30
0.0
  9
$UCSYDIR
 10
0.0
 20
1.0
 30
0.0
  9
$PUCSNAME
  2

  9
$PUCSORG
 10
0.0
 20
0.0
 30
0.0
  9
$PUCSXDIR
 10
1.0
 20
0.0
 30
0.0
  9
$PUCSYDIR
 10
0.0
 20
1.0
 30
0.0
  9
$USERI1
 70
     0
  9
$USERI2
 70
     0
  9
$USERI3
 70
     0
  9
$USERI4
 70
     0
  9
$USERI5
 70
     0
  9
$USERR1
 40
0.0
  9
$USERR2
 40
0.0
  9
$USERR3
 40
0.0
  9
$USERR4
 40
0.0
  9
$USERR5
 40
0.0
  9
$WORLDVIEW
 70
     0
  9
$SHADEDGE
 70
     3
  9
$SHADEDIF
 70
    70
  9
$TILEMODE
 70
     1
  9
$MAXACTVP
 70
    16
  9
$PLIMCHECK
 70
     0
  9
$PEXTMIN
 10
1.0000000000000000E+020
 20
1.0000000000000000E+020
 30
1.0000000000000000E+020
  9
$PEXTMAX
 10
-1.0000000000000000E+020
 20
-1.0000000000000000E+020
 30
-1.0000000000000000E+020
  9
$PLIMMIN
 10
0.0
 20
0.0
  9
$PLIMMAX
 10
420.0
 20
297.0
  9
$UNITMODE
 70
     0
  9
$VISRETAIN
 70
     0
  9
$PLINEGEN
 70
     0
  9
$PSLTSCALE
 70
     0
  0
ENDSEC
  0
SECTION
  2
TABLES
  0
TABLE
  2
VPORT
 70
     2
  0
VPORT
  2
*ACTIVE
 70
     0
 10
0.0
 20
0.0
 11
1.0
 21
1.0
 12
-454.73252675302541
 22
-153.46927661203091
 13
0.0
 23
0.0
 14
5.0
 24
5.0
 15
50.0
 25
50.0
 16
0.0
 26
0.0
 36
1.0
 17
1035.286578968153
 27
705.54957107730479
 37
0.0
 40
1084.7414499212141
 41
1.7512195121951211
 42
50.0
 43
0.0
 44
0.0
 50
0.0
 51
0.0
 71
     0
 72
  2000
 73
     1
 74
     2
 75
     0
 76
     0
 77
     0
 78
     1
  0
ENDTAB
  0
TABLE
  2
LTYPE
 70
    14
  0
LTYPE
  2
CONTINUOUS
 70
     0
  3
Solid line
 72
    65
 73
     0
 40
0.0
  0
LTYPE
  2
CENTER
 70
     0
  3
____ _ ____ _ ____ _ ____ _ ____ _ ____ _ ____ 
 72
    65
 73
     4
 40
50.0
 49
31.25
 49
-6.25
 49
6.25
 49
-6.25
  0
LTYPE
  2
HIDDEN
 70
     0
  3
_ _ _ _ _ _ _ _ _ _ _ _ _ _ _ _ _ _ _ _ _ _ _ _
 72
    65
 73
     2
 40
9.375
 49
6.25
 49
-3.125
  0
LTYPE
  2
CENTRE
 70
     0
  3
____ _ ____ _ ____ _ ____ _ ____ _ ____ _ ____ 
 72
    65
 73
     4
 40
50.0
 49
31.25
 49
-6.25
 49
6.25
 49
-6.25
  0
LTYPE
  2
PHANTOM2
 70
     0
  3
Phantom (.5x) ___ _ _ ___ _ _ ___ _ _ ___ _ _
 72
    65
 73
     6
 40
1.25
 49
0.625
 49
-0.125
 49
0.125
 49
-0.125
 49
0.125
 49
-0.125
  0
LTYPE
  2
ASULTYPE
 70
     0
  3
Solid line
 72
    65
 73
     2
 40
3.0
 49
2.5
 49
0.5
  0
LTYPE
  2
ASVLTYPE
 70
     0
  3
__ __ __ __ __ __ __ __ __ __ __ __ __ __ __ __ __ __ __ __ __
 72
    65
 73
     2
 40
0.75
 49
0.5
 49
-0.25
  0
LTYPE
  2
AM_ISO02W050
 70
     0
  3
__ __ __ __ __ __ __ __ __ __ __ __ __ __ __
 72
    65
 73
     2
 40
7.5
 49
6.0
 49
-1.5
  0
LTYPE
  2
AM_ISO08W050
 70
     0
  3
____ . ____ . ____ . ____ . ____ . ____ . ____
 72
    65
 73
     4
 40
18.0
 49
12.0
 49
-1.5
 49
3.0
 49
-1.5
  0
LTYPE
  2
AM_ISO09W050
 70
     0
  3
_____ . . _____ . . _____ . . ____ .. ____
 72
    65
 73
     6
 40
22.5
 49
12.0
 49
-1.5
 49
3.0
 49
-1.5
 49
3.0
 49
-1.5
  0
LTYPE
  2
AMCONSTR
 70
     0
  3
_______________________
 72
    65
 73
     2
 40
9999.0
 49
9999.0
 49
0.0
  0
LTYPE
  2
AM_ISO08W050X2
 70
     0
  3
__ . __ . __ . __ . __ . __
 72
    65
 73
     4
 40
9.0
 49
6.0
 49
-0.75
 49
1.5
 49
-0.75
  0
LTYPE
  2
AM_ISO02W050X2
 70
     0
  3
 _ _ _ _ _ _ _ _ _ _ _ _
 72
    65
 73
     2
 40
3.75
 49
3.0
 49
-0.75
  0
LTYPE
  2
AMZIGZAG
 70
     0
  3
/\/-/\/-/\/-/\/-/\/-/\/
 72
    65
 73
     2
 40
11.000099999999991
 49
0.0001
 49
-11.0
  0
ENDTAB
  0
TABLE
  2
LAYER
 70
    10
  0
LAYER
  2
0
 70
     0
 62
     7
  6
CONTINUOUS
  0
LAYER
  2
DRG
 70
     0
 62
     1
  6
CONTINUOUS
  0
LAYER
  2
CRS
 70
     0
 62
     3
  6
CENTER
  0
LAYER
  2
HID
 70
     0
 62
     6
  6
HIDDEN
  0
LAYER
  2
BORT
 70
     0
 62
     7
  6
CONTINUOUS
  0
LAYER
  2
TXT
 70
     0
 62
     4
  6
CONTINUOUS
  0
LAYER
  2
DIM
 70
     0
 62
     2
  6
CONTINUOUS
  0
LAYER
  2
DRG2
 70
     0
 62
     8
  6
CONTINUOUS
  0
LAYER
  2
BOR
 70
     0
 62
     1
  6
CONTINUOUS
  0
LAYER
  2
HATCH
 70
     0
 62
     7
  6
CONTINUOUS
  0
ENDTAB
  0
TABLE
  2
STYLE
 70
     2
  0
STYLE
  2
STANDARD
 70
     0
 40
0.0
 41
1.0
 50
0.0
 71
     0
 42
5.0
  3
SIMPLEX
  4

  0
STYLE
  2

 70
     1
 40
0.0
 41
1.0
 50
0.0
 71
     0
 42
5.0
  3
ltypeshp.shx
  4

  0
ENDTAB
  0
TABLE
  2
VIEW
 70
     0
  0
ENDTAB
  0
TABLE
  2
UCS
 70
     0
  0
ENDTAB
  0
TABLE
  2
APPID
 70
    12
  0
APPID
  2
ACAD
 70
     0
  0
APPID
  2
GENIUS_GENDIM_13
 70
     0
  0
APPID
  2
GENIUS_GENDTOL_13
 70
     0
  0
APPID
  2
GENIUS_GE3DTOL_13
 70
     0
  0
APPID
  2
MCAD_NO_VIS
 70
     0
  0
APPID
  2
ACAD_TEMP_GRAPHIC
 70
     0
  0
APPID
  2
AD_DRAW
 70
     0
  0
APPID
  2
ACATTRIBSERVICES
 70
     0
  0
APPID
  2
ASURF_PCURVE_APPNAME
 70
     0
  0
APPID
  2
DESIGNERASSEMBLIES
 70
     0
  0
APPID
  2
ACADM_DIM_EDIT
 70
     0
  0
APPID
  2
CONTENTBLOCKICON
 70
     0
  0
ENDTAB
  0
TABLE
  2
DIMSTYLE
 70
     1
  0
DIMSTYLE
  2
STD
 70
     0
  3

  4

  5

  6

  7

 40
1.0
 41
6.0
 42
5.0
 43
10.0
 44
2.0
 45
0.0
 46
1.25
 47
0.0
 48
0.0
140
5.0
141
-3.0
142
0.0
143
0.039
144
1.0
145
1.5
146
0.75
147
1.5
 71
     0
 72
     0
 73
     0
 74
     0
 75
     0
 76
     0
 77
     1
 78
     0
170
     0
171
     2
172
     0
173
     0
174
     0
175
     0
176
   256
177
   256
178
   256
  0
ENDTAB
  0
ENDSEC
  0
SECTION
  2
BLOCKS
  0
BLOCK
  8
0
  2
$MODEL_SPACE
 70
     0
 10
0.0
 20
0.0
 30
0.0
  3
$MODEL_SPACE
  1

  0
ENDBLK
  5
36C
  8
0
  0
BLOCK
 67
     1
  8
0
  2
$PAPER_SPACE
 70
     0
 10
0.0
 20
0.0
 30
0.0
  3
$PAPER_SPACE
  1

  0
ENDBLK
  5
36A
 67
     1
  8
0
  0
BLOCK
  8
0
  2
*U0
 70
     1
 10
0.0
 20
0.0
 30
0.0
  3
*U0
  1

  0
ENDBLK
  5
422
  8
0
  0
BLOCK
  8
0
  2
LOGO
 70
     0
 10
0.0
 20
0.0
 30
0.0
  3
LOGO
  1

  0
INSERT
  5
44D
  8
DRG
  6
CONTINUOUS
 62
     7
  2
*U3
 10
0.0
 20
0.0
 30
0.0
1001
ACAD
1002
{
1000
R14_HATCH_DATA
1000
44D
1011
1.0
1021
0.0
1031
0.0
1021
0.0
1031
0.0
1011
0.0
1021
0.0
1031
0.0
1021
1.0
1031
0.0
1011
0.0
1021
0.0
1031
0.0
1021
0.0
1031
1.0
1040
0.0
1010
0.0
1020
0.0
1030
1.0
1000
SOLID
1070
     1
1070
     1
1071
       17
1071
        7
1070
     1
1070
     1
1071
        9
1040
18.821661727211438
1040
85.569427875032716
1040
-0.4142135623730951
1040
26.821661727211438
1040
93.569427875032716
1040
0.0
1040
28.191279411133561
1040
93.56942787503273
1040
0.0
1040
28.191279411133561
1040
102.0369718403326
1040
0.2674368359602434
1040
18.821661727211438
1040
97.915857504065912
1040
0.0
1040
18.821661727211438
1040
102.0369718403326
1040
0.0
1040
7.7802673214059723
1040
102.0369718403326
1040
0.0
1040
7.7802673214059723
1040
62.115696081838671
1040
0.0
1040
18.821661727211438
1040
62.115696081838678
1040
0.0
1071
        9
1005
470
1005
477
1005
476
1005
475
1005
474
1005
46F
1005
45F
1005
461
1005
45D
1071
        7
1070
     1
1070
     1
1071
        8
1040
29.838142899665851
1040
72.897331735467191
1040
0.4142135623730863
1040
41.838142899665847
1040
60.89733173546756
1040
0.0
1040
47.650196927116667
1040
60.89733173546756
1040
0.4142126981028046
1040
59.650196927064421
1040
72.897296325816569
1040
0.0348233422700972
1040
59.650196927064421
1040
90.096337111694368
1040
0.4142126981028142
1040
47.650196927116667
1040
102.0963017020437
1040
0.0
1040
41.838142899665847
1040
102.0963017020437
1040
0.4142135623730893
1040
29.838142899665851
1040
90.096301702044016
1040
0.0348231985322414
1071
        8
1005
451
1005
478
1005
473
1005
472
1005
45E
1005
46E
1005
450
1005
4AF
1071
       22
1070
     1
1070
     1
1071
        4
1040
40.882971825549703
1040
90.337990088334166
1040
-1.0
1040
48.605370470334492
1040
90.337990088334735
1040
-0.0248818291691539
1040
48.605370470334492
1040
72.655643349175492
1040
-1.0
1040
40.882971825549703
1040
72.655643349177595
1040
-0.0248818291691501
1071
        4
1005
453
1005
4AE
1005
452
1005
471
1071
        7
1070
     1
1070
     1
1071
       18
1040
67.331191210151701
1040
68.89733173546756
1040
0.4142135623730951
1040
75.331191210151701
1040
60.89733173546756
1040
0.0
1040
80.675802928262684
1040
60.89733173546756
1040
0.1450058980834471
1040
84.501142256151084
1040
62.072518178885289
1040
0.0
1040
84.501142256151084
1040
70.214764581409185
1040
-0.0833071563303517
1040
83.501142256151255
1040
69.876055965300111
1040
0.0
1040
80.482556033578916
1040
69.876055965300111
1040
-0.4142135623730951
1040
77.482556033578931
1040
72.876055965300111
1040
0.0
1040
77.482556033578931
1040
94.593352860836134
1040
0.0
1040
84.553623006881026
1040
94.593352860836134
1040
0.0
1040
84.553623006881026
1040
101.9948050433795
1040
0.0
1040
77.482556033578931
1040
101.9948050433795
1040
0.0
1040
77.482556033578931
1040
107.1280725498991
1040
0.0
1040
67.331191210151701
1040
107.1280725498991
1040
0.0
1040
67.331191210151701
1040
101.9948050433795
1040
0.0
1040
62.478989637268562
1040
101.9948050433795
1040
0.0
1040
62.478989637268569
1040
94.593352860836134
1040
0.0
1040
67.331191210151687
1040
94.593352860836134
1040
0.0
1071
       18
1005
4AC
1005
4C0
1005
4AD
1005
4B8
1005
4B6
1005
4B7
1005
4B3
1005
4B5
1005
4B4
1005
4B0
1005
482
1005
496
1005
485
1005
483
1005
4BD
1005
4AB
1005
4B2
1005
4B1
1071
        7
1070
     1
1070
     1
1071
        8
1040
85.849782736700035
1040
72.897331735467475
1040
0.4142135623730931
1040
97.849782736700035
1040
60.89733173546756
1040
0.0
1040
103.66183676415081
1040
60.89733173546756
1040
0.4142126981028048
1040
115.6618367640986
1040
72.897296325816569
1040
0.0348233422700971
1040
115.6618367640986
1040
90.096337111694325
1040
0.4142126981028151
1040
103.66183676415081
1040
102.0963017020437
1040
0.0
1040
97.849782736700035
1040
102.0963017020437
1040
0.4142135623730893
1040
85.849782736700035
1040
90.096301702044016
1040
0.0348231985322409
1071
        8
1005
481
1005
4C1
1005
4BF
1005
4BB
1005
484
1005
4AA
1005
480
1005
4E8
1071
       22
1070
     1
1070
     1
1071
        4
1040
96.894611662583884
1040
90.337990088335033
1040
-1.0
1040
104.6170103073686
1040
90.337990088334763
1040
-0.0248818291691539
1040
104.6170103073686
1040
72.655643349175506
1040
-1.0
1040
96.894611662583884
1040
72.655643349177595
1040
-0.0248818291691514
1071
        4
1005
4BE
1005
4B9
1005
4BC
1005
4BA
1071
        7
1070
     1
1070
     1
1071
        9
1040
119.0096173095521
1040
62.115696081838678
1040
0.0
1040
130.05101171535759
1040
62.115696081838671
1040
0.0
1040
130.05101171535759
1040
85.569427875032716
1040
-0.4142135623730946
1040
138.05101171535759
1040
93.569427875032716
1040
0.0
1040
139.4206293992797
1040
93.56942787503273
1040
0.0
1040
139.4206293992797
1040
102.0369718403325
1040
0.2674368359602435
1040
130.05101171535759
1040
97.915857504065855
1040
0.0
1040
130.05101171535759
1040
102.0369718403326
1040
0.0
1040
119.0096173095521
1040
102.0369718403326
1040
0.0
1071
        9
1005
4E7
1005
4ED
1005
4EC
1005
4E9
1005
4EB
1005
4EA
1005
4C3
1005
4D2
1005
4C2
1071
        7
1070
     0
1070
     1
1071
        4
1040
153.2899770207527
1040
102.0369718403326
1040
142.11987082690661
1040
102.0369718403326
1040
142.11987082690661
1040
62.115696081838678
1040
153.2899770207527
1040
62.115696081838678
1071
        4
1005
4E6
1005
4C7
1005
4CB
1005
4C6
1071
        7
1070
     0
1070
     1
1071
        9
1040
161.3332883364622
1040
62.115696081838678
1040
171.78072804963571
1040
62.115696081838678
1040
165.4162645291251
1040
78.311404477182364
1040
176.9709164189357
1040
78.31140447718235
1040
176.9709164189357
1040
86.855763084496857
1040
165.4162645291251
1040
86.855763084496886
1040
171.38205787173379
1040
102.0369718403326
1040
160.9346181585602
1040
102.0369718403326
1040
153.2899770207527
1040
82.583583780839575
1071
        9
1005
4F3
1005
4F2
1005
4F1
1005
4EE
1005
4C5
1005
4E1
1005
4C4
1005
4F0
1005
4EF
1071
        7
1070
     1
1070
     1
1071
       21
1040
152.52515784094209
1040
47.648154099737518
1040
-0.8501159182110916
1040
160.04745823702251
1040
46.421288526219293
1040
0.0
1040
160.04745823702251
1040
45.21828747592599
1040
0.0
1040
171.0912486890569
1040
45.21828747592599
1040
0.4103700463812956
1040
159.0922846938046
1040
57.06060729124669
1040
0.0
1040
153.28023066635379
1040
57.06060729124669
1040
0.3231315706904765
1040
141.8917942032017
1040
48.84260609145101
1040
0.1954153765693974
1040
142.3184035466634
1040
43.115005509834923
1040
0.2113556324406552
1040
155.72873071743231
1040
33.145354604103439
1040
-0.2264685134690167
1040
160.04745823702251
1040
29.300230626583549
1040
0.0
1040
160.04745823702251
1040
27.619948938379359
1040
-1.0
1040
152.32505959223769
1040
27.619948938379359
1040
0.0
1040
152.32505959223769
1040
29.959298931438969
1040
0.0
1040
141.28023066635379
1040
29.95929893143898
1040
0.0
1040
141.28023066635379
1040
27.861637324670479
1040
0.4142135623730951
1040
153.28023066635379
1040
15.861637324670481
1040
0.0
1040
159.0922846938046
1040
15.861637324670481
1040
0.4142135623730951
1040
171.0922846938046
1040
27.861637324670479
1040
0.0
1040
171.0922846938046
1040
29.95929893143904
1040
0.3201720163042325
1040
161.4128172083947
1040
39.98989916707626
1040
-0.1549843570040388
1040
153.4809683549079
1040
44.585756161105429
1040
-0.2969707756967668
1071
       21
1005
4E2
1005
4E4
1005
4DF
1005
4E0
1005
4E5
1005
4CA
1005
4D7
1005
4C8
1005
4DD
1005
4DA
1005
4DC
1005
4DB
1005
4C9
1005
4CF
1005
47A
1005
47E
1005
47B
1005
4DE
1005
4D9
1005
4D8
1005
4E3
1071
        7
1070
     1
1070
     1
1071
        9
1040
116.19314081319391
1040
17.28637227261407
1040
0.0
1040
127.2345352189994
1040
17.28637227261407
1040
0.0
1040
127.2345352189994
1040
40.740104065808097
1040
-0.4142135623730953
1040
135.23453521899941
1040
48.740104065808111
1040
0.0
1040
136.6041529029215
1040
48.740104065808111
1040
0.0
1040
136.6041529029215
1040
57.207648031108022
1040
0.2674368359602446
1040
127.2345352189994
1040
53.086533694841222
1040
0.0
1040
127.2345352189994
1040
57.207648031108022
1040
0.0
1040
116.19314081319391
1040
57.207648031108022
1040
0.0
1071
        9
1005
4D0
1005
4D4
1005
4D3
1005
4CD
1005
4CE
1005
4CC
1005
4D1
1005
4D6
1005
4D5
1071
        7
1070
     1
1070
     1
1071
       18
1040
111.2523129779601
1040
45.06060729124669
1040
0.4142135623730951
1040
99.252312977960173
1040
57.06060729124669
1040
0.0
1040
93.440258950509346
1040
57.06060729124669
1040
0.3935971290544443
1040
81.470405744524527
1040
45.910674481046733
1040
0.0
1040
92.485087876393209
1040
45.910674481046733
1040
0.0
1040
92.485087876393209
1040
47.313129977668268
1040
-1.0
1040
100.2074865211779
1040
47.313129977668268
1040
0.0
1040
100.207486521178
1040
42.948196427274922
1040
0.0
1040
93.358174068518778
1040
42.948196427274922
1040
0.3803366342075343
1040
81.440258950509346
1040
32.349374231810209
1040
0.0
1040
81.440258950509346
1040
27.861637324670479
1040
0.212203934851876
1040
85.398663329684837
1040
18.95474449545469
1040
0.2715779457989354
1040
94.991749269489972
1040
17.839408458597308
1040
0.2212147422997974
1040
102.1211660476033
1040
23.542010892025001
1040
0.0
1040
102.1211660476033
1040
21.102600968374279
1040
0.048558820350044
1040
102.6710305977499
1040
17.89352120355198
1040
0.0
1040
111.8021775281067
1040
17.893521203552009
1040
-0.0850534761391249
1040
111.2523129779601
1040
23.54201089202471
1040
0.0
1071
       18
1005
47F
1005
4A6
1005
488
1005
4A7
1005
4A8
1005
4A5
1005
4A9
1005
4A4
1005
486
1005
49C
1005
487
1005
479
1005
498
1005
4A0
1005
49F
1005
49E
1005
4A1
1005
497
1071
       22
1070
     1
1070
     1
1071
        6
1040
101.5095597489034
1040
37.384730871555568
1040
0.0
1040
101.5095597489034
1040
29.984856014372749
1040
-0.4101584254678068
1040
95.863486513980718
1040
23.758749615986972
1040
-0.4142135623730822
1040
92.002287191588479
1040
27.619948938379359
1040
0.0
1040
92.002287191588479
1040
33.041326503689838
1040
-0.3592987923427892
1040
97.969021393668683
1040
37.384730871555568
1040
0.0
1071
        6
1005
4A2
1005
49A
1005
49D
1005
49B
1005
499
1005
4A3
1071
        7
1070
     1
1070
     1
1071
       14
1040
74.280536421539182
1040
35.629722934820848
1040
0.0
1040
74.280536421539182
1040
45.06060729124669
1040
0.4142135623730951
1040
62.280536421539182
1040
57.06060729124669
1040
0.0
1040
56.468482394088369
1040
57.06060729124669
1040
0.4142135623730892
1040
44.468482394088362
1040
45.060607291246939
1040
0.0348231985322411
1040
44.468482394088362
1040
27.861637324670291
1040
0.4142135623730907
1040
56.468482394088369
1040
15.861637324670481
1040
0.0
1040
62.280536421539182
1040
15.861637324670481
1040
0.4142135623730951
1040
74.280536421539182
1040
27.861637324670479
1040
0.0
1040
74.280536421539196
1040
30.816887788353831
1040
0.0
1040
63.235709964757
1040
30.81688778835381
1040
0.0
1040
63.235709964757007
1040
27.61994893837937
1040
-1.0
1040
55.513311319972217
1040
27.61994893837937
1040
0.0
1040
55.513311319972232
1040
35.629722934820848
1040
0.0
1071
       14
1005
490
1005
495
1005
44F
1005
463
1005
44E
1005
47D
1005
47C
1005
48F
1005
48A
1005
48C
1005
48E
1005
48D
1005
48B
1005
489
1071
       22
1070
     1
1070
     1
1071
        4
1040
63.235709964756971
1040
41.923431282527652
1040
0.0
1040
55.51331131997221
1040
41.923431282527638
1040
0.0
1040
55.513311319972217
1040
46.690614073903141
1040
-1.0
1040
63.235709964757007
1040
46.690614073903127
1040
0.0
1071
        4
1005
491
1005
493
1005
492
1005
494
1071
        7
1070
     1
1070
     1
1071
       15
1040
37.639779947293832
1040
57.06060729124669
1040
0.0
1040
27.267121908897028
1040
57.06060729124669
1040
0.0
1040
27.267121908897021
1040
51.255838552818979
1040
0.3392741364964821
1040
18.58303542025671
1040
58.127888502333931
1040
0.3975671648689696
1040
7.030577403887583
1040
46.170226698962978
1040
0.0322586733839356
1040
7.0565934473582743
1040
30.23514359210488
1040
0.381674351628262
1040
18.58303542025671
1040
18.945146626805109
1040
0.3392741364964824
1040
27.267121908897021
1040
25.817196576320061
1040
0.0
1040
27.267121908897021
1040
13.51984597021351
1040
-1.0
1040
19.544723264112228
1040
13.51984597021351
1040
0.0
1040
19.544723264112239
1040
14.846027306936771
1040
0.0
1040
7.7279273094568479
1040
14.846027306936771
1040
0.435111756420548
1040
18.100585347853119
1040
3.392610111620797
1040
0.0
1040
25.69916102541525
1040
3.392610111620797
1040
0.3589835117613411
1040
37.639779947293839
1040
13.760967175618781
1040
0.0
1071
       15
1005
469
1005
46D
1005
46C
1005
460
1005
462
1005
454
1005
468
1005
455
1005
45B
1005
45C
1005
457
1005
458
1005
45A
1005
459
1005
456
1071
       22
1070
     1
1070
     1
1071
        6
1040
27.387732575171409
1040
32.086434320449378
1040
-0.3635850888704513
1040
22.683854862926161
1040
25.455509253088579
1040
-0.4081657147783189
1040
17.256300807526252
1040
30.5191262631974
1040
0.0
1040
17.256300807526252
1040
46.312783983787632
1040
-0.4081657147783226
1040
22.683854862926282
1040
51.376400993896397
1040
-0.3635850888704468
1040
27.387732575171409
1040
44.745475926535612
1040
0.0
1071
        6
1005
467
1005
466
1005
465
1005
46A
1005
46B
1005
464
1070
     0
1070
     1
1040
0.2228598800114194
1071
       17
1040
17.63743802729277
1040
76.626905651017751
1040
0.0
1040
33.91754890401171
1040
77.741205688022092
1040
0.0
1040
33.91754890401171
1040
77.741205688022092
1040
0.0
1040
69.153945982282949
1040
79.301225382558854
1040
0.0
1040
91.455465417142008
1040
80.861243290751887
1040
0.0
1040
91.455465417142008
1040
80.861243290751887
1040
0.0
1040
120.67045393727309
1040
80.861243290751887
1040
0.0
1040
151.44655150816561
1040
79.746945040091759
1040
0.0
1040
157.69097519808881
1040
82.198402263350317
1040
0.0
1040
149.43941532211869
1040
47.209401108474808
1040
0.0
1040
122.2315629880345
1040
49.21514046054449
1040
0.0
1040
107.73557316557979
1040
43.19792419067948
1040
0.0
1040
107.73557316557979
1040
43.19792419067948
1040
0.0
1040
69.376961114066034
1040
40.30074552354403
1040
0.0
1040
69.376961114066034
1040
40.30074552354403
1040
0.0
1040
30.572318798986078
1040
42.306483089269697
1040
0.0
1040
30.572318798986078
1040
42.306483089269697
1040
0.0
1002
}
  0
ARC
  5
44E
  8
DRG
 62
     7
 10
56.468482394088369
 20
27.861637324670479
 30
0.0
 40
12.0
 50
180.0
 51
270.0
  0
ARC
  5
44F
  8
DRG
 62
     7
 10
56.468482394088369
 20
45.06060729124669
 30
0.0
 40
12.0
 50
90.0
 51
180.0
  0
ARC
  5
450
  8
DRG
 62
     7
 10
47.650196927116667
 20
72.89733173546756
 30
0.0
 40
12.0
 50
270.0
 51
0.0
  0
ARC
  5
451
  8
DRG
 62
     7
 10
47.650196927116667
 20
90.096301702043775
 30
0.0
 40
12.0
 50
0.0
 51
90.0
  0
ARC
  5
452
  8
DRG
 62
     7
 10
44.74417114794209
 20
72.655643349176444
 30
0.0
 40
3.8611993223923942
 50
180.0
 51
0.0
  0
ARC
  5
453
  8
DRG
 62
     7
 10
44.74417114794209
 20
90.337990088334877
 30
0.0
 40
3.8611993223923942
 50
0.0
 51
180.0
  0
ARC
  5
454
  8
DRG
 62
     7
 10
19.137584483414571
 20
31.0402274344309
 30
0.0
 40
12.107786932649869
 50
183.81258486583951
 51
267.37487616930952
  0
LINE
  5
455
  8
DRG
 62
     7
 10
27.267121908897021
 20
13.51984597021351
 30
0.0
 11
27.267121908897021
 21
25.817196576319979
 31
0.0
  0
LINE
  5
456
  8
DRG
 62
     7
 10
37.639779947293839
 20
13.760967175618591
 30
0.0
 11
37.639779947293839
 21
57.06060729124669
 31
0.0
  0
LINE
  5
457
  8
DRG
 62
     7
 10
7.7279273094568453
 20
14.846027306936771
 30
0.0
 11
19.544723264112228
 21
14.846027306936771
 31
0.0
  0
ARC
  5
458
  8
DRG
 62
     7
 10
18.249110221157022
 20
13.95076893658401
 30
0.0
 40
10.559203445863639
 50
175.13635846835899
 51
269.19405577571678
  0
ARC
  5
459
  8
DRG
 62
     7
 10
25.379351800633462
 20
15.82074347040526
 30
0.0
 40
12.432247452652581
 50
271.47404887186468
 51
350.4632534986161
  0
LINE
  5
45A
  8
DRG
 62
     7
 10
18.100585347854121
 20
3.392610111620797
 30
0.0
 11
25.699161025414639
 21
3.392610111620797
 31
0.0
  0
ARC
  5
45B
  8
DRG
 62
     7
 10
23.40592258650463
 20
13.51984597021351
 30
0.0
 40
3.8611993223923942
 50
180.0
 51
0.0
  0
LINE
  5
45C
  8
DRG
 62
     7
 10
19.544723264112228
 20
13.51984597021351
 30
0.0
 11
19.544723264112228
 21
14.846027306936771
 31
0.0
  0
LINE
  5
45D
  8
DRG
 62
     7
 10
18.821661727211438
 20
62.115696081838678
 30
0.0
 11
18.821661727211438
 21
85.569427875032716
 31
0.0
  0
ARC
  5
45E
  8
DRG
 62
     7
 10
41.838142899665847
 20
72.89733173546756
 30
0.0
 40
12.0
 50
180.0
 51
270.0
  0
LINE
  5
45F
  8
DRG
 62
     7
 10
7.7802673214059723
 20
102.0369718403326
 30
0.0
 11
7.7802673214059723
 21
62.115696081838678
 31
0.0
  0
ARC
  5
460
  8
DRG
 62
     7
 10
19.137584483414571
 20
46.032807694708133
 30
0.0
 40
12.107786932649869
 50
92.625123830690427
 51
179.34969965531249
  0
LINE
  5
461
  8
DRG
 62
     7
 10
7.7802673214059723
 20
62.115696081838678
 30
0.0
 11
18.821661727211438
 21
62.115696081838678
 31
0.0
  0
ARC
  5
462
  8
DRG
 62
     7
 10
130.4096373956734
 20
38.404095866101891
 30
0.0
 40
123.62323904739679
 50
176.39825231050591
 51
183.7888327716102
  0
ARC
  5
463
  8
DRG
 62
     7
 10
167.7922598686371
 20
36.46112230795859
 30
0.0
 40
123.62323904739679
 50
176.01116722839041
 51
183.98883277160959
  0
LINE
  5
464
  8
DRG
 62
     7
 10
27.387732575171409
 20
32.086434320449371
 30
0.0
 11
27.387732575171409
 21
44.745475926535619
 31
0.0
  0
LINE
  5
465
  8
DRG
 62
     7
 10
17.256300807526252
 20
30.519126263197901
 30
0.0
 11
17.256300807526252
 21
46.312783983787199
 31
0.0
  0
ARC
  5
466
  8
DRG
 62
     7
 10
22.554825927420261
 20
30.757839296791811
 30
0.0
 40
5.3038997311936118
 50
182.57958705316651
 51
271.39398239048438
  0
ARC
  5
467
  8
DRG
 62
     7
 10
21.079116203706629
 20
31.577778829510549
 30
0.0
 40
6.3290892655085571
 50
284.68766481341447
 51
4.6097118352224014
  0
ARC
  5
468
  8
DRG
 62
     7
 10
18.444167318675341
 20
28.04361904615444
 30
0.0
 40
9.0995321151857773
 50
270.87442572940842
 51
345.83740798549388
  0
LINE
  5
469
  8
DRG
 62
     7
 10
37.639779947293839
 20
57.06060729124669
 30
0.0
 11
27.267121908897021
 21
57.06060729124669
 31
0.0
  0
ARC
  5
46A
  8
DRG
 62
     7
 10
22.554825927420261
 20
46.074070950193168
 30
0.0
 40
5.3038997311936118
 50
88.606017609515575
 51
177.42041294683341
  0
ARC
  5
46B
  8
DRG
 62
     7
 10
21.079116203706629
 20
45.254131417474468
 30
0.0
 40
6.3290892655085571
 50
355.39028816477759
 51
75.312335186585557
  0
ARC
  5
46C
  8
DRG
 62
     7
 10
18.444167318675341
 20
49.029416082984589
 30
0.0
 40
9.0995321151857773
 50
14.16259201450603
 51
89.125574270591571
  0
LINE
  5
46D
  8
DRG
 62
     7
 10
27.267121908897021
 20
51.255838552819107
 30
0.0
 11
27.267121908897021
 21
57.06060729124669
 31
0.0
  0
LINE
  5
46E
  8
DRG
 62
     7
 10
41.838142899665847
 20
60.89733173546756
 30
0.0
 11
47.650196927116667
 21
60.89733173546756
 31
0.0
  0
LINE
  5
46F
  8
DRG
 62
     7
 10
7.7802673214059723
 20
102.0369718403326
 30
0.0
 11
18.821661727211438
 21
102.0369718403326
 31
0.0
  0
ARC
  5
470
  8
DRG
 62
     7
 10
26.821661727211438
 20
85.569427875032716
 30
0.0
 40
8.0
 50
90.0
 51
180.0
  0
ARC
  5
471
  8
DRG
 62
     7
 10
218.4362314981995
 20
81.496816718755667
 30
0.0
 40
177.77324423808651
 50
177.14934059322539
 51
182.85065940677461
  0
ARC
  5
472
  8
DRG
 62
     7
 10
153.16192037421459
 20
81.496816718755667
 30
0.0
 40
123.62323904739679
 50
176.01116722839041
 51
183.98883277160959
  0
ARC
  5
473
  8
DRG
 62
     7
 10
41.838142899665847
 20
90.096301702043775
 30
0.0
 40
12.0
 50
90.0
 51
180.0
  0
LINE
  5
474
  8
DRG
 62
     7
 10
18.821661727211438
 20
97.915857504065912
 30
0.0
 11
18.821661727211438
 21
102.0369718403326
 31
0.0
  0
ARC
  5
475
  8
DRG
 62
     7
 10
27.083354510939952
 20
91.844139685506846
 30
0.0
 40
10.2528691067876
 50
83.7965056449153
 51
143.68693404466879
  0
LINE
  5
476
  8
DRG
 62
     7
 10
28.191279411133561
 20
102.0369718403326
 30
0.0
 11
28.191279411133561
 21
93.569427875032716
 31
0.0
  0
LINE
  5
477
  8
DRG
 62
     7
 10
28.191279411133561
 20
93.569427875032716
 30
0.0
 11
26.821661727211438
 21
93.569427875032716
 31
0.0
  0
LINE
  5
478
  8
DRG
 62
     7
 10
41.838142899665847
 20
102.0963017020437
 30
0.0
 11
47.650196927116667
 21
102.0963017020437
 31
0.0
  0
ARC
  5
479
  8
DRG
 62
     7
 10
91.146199293645054
 20
26.576636016635941
 30
0.0
 40
9.5460672539884595
 50
232.98068850611
 51
293.75592135571679
  0
ARC
  5
47A
  8
DRG
 62
     7
 10
153.28023066635379
 20
27.861637324670479
 30
0.0
 40
12.0
 50
180.0
 51
270.0
  0
ARC
  5
47B
  8
DRG
 62
     7
 10
159.0922846938046
 20
27.861637324670479
 30
0.0
 40
12.0
 50
270.0
 51
0.0
  0
ARC
  5
47C
  8
DRG
 62
     7
 10
62.280536421539182
 20
27.861637324670479
 30
0.0
 40
12.0
 50
270.0
 51
0.0
  0
LINE
  5
47D
  8
DRG
 62
     7
 10
56.468482394088369
 20
15.861637324670481
 30
0.0
 11
62.280536421539182
 21
15.861637324670481
 31
0.0
  0
LINE
  5
47E
  8
DRG
 62
     7
 10
153.28023066635379
 20
15.861637324670481
 30
0.0
 11
159.0922846938046
 21
15.861637324670481
 31
0.0
  0
ARC
  5
47F
  8
DRG
 62
     7
 10
99.252312977960173
 20
45.06060729124669
 30
0.0
 40
12.0
 50
0.0
 51
90.0
  0
ARC
  5
480
  8
DRG
 62
     7
 10
103.66183676415081
 20
72.89733173546756
 30
0.0
 40
12.0
 50
270.0
 51
0.0
  0
ARC
  5
481
  8
DRG
 62
     7
 10
103.66183676415081
 20
90.096301702043775
 30
0.0
 40
12.0
 50
0.0
 51
90.0
  0
ARC
  5
482
  8
DRG
 62
     7
 10
75.331191210151701
 20
68.89733173546756
 30
0.0
 40
8.0
 50
180.0
 51
270.0
  0
LINE
  5
483
  8
DRG
 62
     7
 10
84.501142256151084
 20
62.072518178885268
 30
0.0
 11
84.501142256151084
 21
70.214764581409213
 31
0.0
  0
ARC
  5
484
  8
DRG
 62
     7
 10
97.849782736700035
 20
72.89733173546756
 30
0.0
 40
12.0
 50
180.0
 51
270.0
  0
ARC
  5
485
  8
DRG
 62
     7
 10
80.604973725058926
 20
67.941395133310024
 30
0.0
 40
7.044419488421358
 50
270.57609896713558
 51
303.5789717876612
  0
ARC
  5
486
  8
DRG
 62
     7
 10
93.358174068518778
 20
30.948196427274919
 30
0.0
 40
12.0
 50
90.0
 51
173.29457252003729
  0
ARC
  5
487
  8
DRG
 62
     7
 10
93.44025895050936
 20
27.861637324670479
 30
0.0
 40
12.0
 50
180.0
 51
227.9226718038604
  0
ARC
  5
488
  8
DRG
 62
     7
 10
93.44025895050936
 20
45.06060729124669
 30
0.0
 40
12.0
 50
90.0
 51
175.93782586434531
  0
LINE
  5
489
  8
DRG
 62
     7
 10
74.280536421539182
 20
45.06060729124669
 30
0.0
 11
74.280536421539182
 21
35.629722934820848
 31
0.0
  0
LINE
  5
48A
  8
DRG
 62
     7
 10
63.235709964757007
 20
30.816887788353821
 30
0.0
 11
74.280536421539182
 21
30.816887788353821
 31
0.0
  0
LINE
  5
48B
  8
DRG
 62
     7
 10
55.513311319972217
 20
35.629722934820848
 30
0.0
 11
74.280536421539182
 21
35.629722934820848
 31
0.0
  0
LINE
  5
48C
  8
DRG
 62
     7
 10
63.235709964757007
 20
30.816887788353821
 30
0.0
 11
63.235709964757007
 21
27.619948938379359
 31
0.0
  0
LINE
  5
48D
  8
DRG
 62
     7
 10
55.513311319972217
 20
35.629722934820848
 30
0.0
 11
55.513311319972217
 21
27.619948938379359
 31
0.0
  0
ARC
  5
48E
  8
DRG
 62
     7
 10
59.374510642364612
 20
27.619948938379359
 30
0.0
 40
3.8611993223923942
 50
180.0
 51
0.0
  0
LINE
  5
48F
  8
DRG
 62
     7
 10
74.280536421539182
 20
30.816887788353821
 30
0.0
 11
74.280536421539182
 21
27.861637324670479
 31
0.0
  0
ARC
  5
490
  8
DRG
 62
     7
 10
62.280536421539182
 20
45.06060729124669
 30
0.0
 40
12.0
 50
0.0
 51
90.0
  0
LINE
  5
491
  8
DRG
 62
     7
 10
55.513311319972217
 20
41.923431282527652
 30
0.0
 11
63.235709964757007
 21
41.923431282527652
 31
0.0
  0
ARC
  5
492
  8
DRG
 62
     7
 10
59.374510642364612
 20
46.690614073903127
 30
0.0
 40
3.8611993223923942
 50
0.0
 51
180.0
  0
LINE
  5
493
  8
DRG
 62
     7
 10
55.513311319972217
 20
46.690614073903127
 30
0.0
 11
55.513311319972217
 21
41.923431282527652
 31
0.0
  0
LINE
  5
494
  8
DRG
 62
     7
 10
63.235709964757007
 20
46.690614073903127
 30
0.0
 11
63.235709964757007
 21
41.923431282527652
 31
0.0
  0
LINE
  5
495
  8
DRG
 62
     7
 10
56.468482394088369
 20
57.06060729124669
 30
0.0
 11
62.280536421539182
 21
57.06060729124669
 31
0.0
  0
LINE
  5
496
  8
DRG
 62
     7
 10
75.331191210151701
 20
60.89733173546756
 30
0.0
 11
80.675802928264815
 21
60.89733173546756
 31
0.0
  0
LINE
  5
497
  8
DRG
 62
     7
 10
111.2523129779601
 20
45.06060729124669
 30
0.0
 11
111.2523129779601
 21
21.10260096837424
 31
0.0
  0
ARC
  5
498
  8
DRG
 62
     7
 10
92.427187023305351
 20
28.353548776339029
 30
0.0
 40
10.822390038051561
 50
283.70766965543032
 51
333.6028219757398
  0
ARC
  5
499
  8
DRG
 62
     7
 10
97.617648860406234
 20
31.597336783954741
 30
0.0
 40
5.7980507916306081
 50
86.525641605078704
 51
165.57884810514051
  0
ARC
  5
49A
  8
DRG
 62
     7
 10
95.530005668639475
 20
29.734254501986349
 30
0.0
 40
5.9848030975807349
 50
273.19424815916329
 51
2.3998464036014582
  0
LINE
  5
49B
  8
DRG
 62
     7
 10
92.002287191588479
 20
27.619948938379359
 30
0.0
 11
92.002287191588479
 21
33.041326503689788
 31
0.0
  0
LINE
  5
49C
  8
DRG
 62
     7
 10
81.440258950509346
 20
32.349374231809861
 30
0.0
 11
81.440258950509346
 21
27.861637324670479
 31
0.0
  0
ARC
  5
49D
  8
DRG
 62
     7
 10
95.863486513980874
 20
27.619948938379359
 30
0.0
 40
3.8611993223923942
 50
180.0
 51
270.0
  0
LINE
  5
49E
  8
DRG
 62
     7
 10
102.6710305977499
 20
17.89352120355198
 30
0.0
 11
111.8021775281067
 21
17.893521203552009
 31
0.0
  0
ARC
  5
49F
  8
DRG
 62
     7
 10
118.87875205644769
 20
22.322305930199491
 30
0.0
 40
16.801915635954131
 50
175.83705377070211
 51
195.28307330703629
  0
LINE
  5
4A0
  8
DRG
 62
     7
 10
102.1211660476033
 20
23.542010892025068
 30
0.0
 11
102.1211660476033
 21
21.102600968374329
 31
0.0
  0
ARC
  5
4A1
  8
DRG
 62
     7
 10
128.00989898680459
 20
22.322305930199519
 30
0.0
 40
16.801915635954131
 50
175.83705377070211
 51
195.28307330703629
  0
LINE
  5
4A2
  8
DRG
 62
     7
 10
101.5095597489034
 20
37.384730871555568
 30
0.0
 11
101.5095597489034
 21
29.483652989600269
 31
0.0
  0
LINE
  5
4A3
  8
DRG
 62
     7
 10
101.5095597489034
 20
37.384730871555568
 30
0.0
 11
97.266276327143615
 21
37.384730871555568
 31
0.0
  0
LINE
  5
4A4
  8
DRG
 62
     7
 10
100.2074865211779
 20
42.948196427274922
 30
0.0
 11
93.358174068518778
 21
42.948196427274922
 31
0.0
  0
ARC
  5
4A5
  8
DRG
 62
     7
 10
96.346287198785603
 20
47.313129977668268
 30
0.0
 40
3.8611993223923942
 50
0.0
 51
180.0
  0
LINE
  5
4A6
  8
DRG
 62
     7
 10
93.44025895050936
 20
57.06060729124669
 30
0.0
 11
99.252312977960173
 21
57.06060729124669
 31
0.0
  0
LINE
  5
4A7
  8
DRG
 62
     7
 10
92.485087876393209
 20
45.910674481046733
 30
0.0
 11
81.470405744524555
 21
45.910674481046733
 31
0.0
  0
LINE
  5
4A8
  8
DRG
 62
     7
 10
92.485087876393209
 20
47.313129977668268
 30
0.0
 11
92.485087876393209
 21
45.910674481046733
 31
0.0
  0
LINE
  5
4A9
  8
DRG
 62
     7
 10
100.2074865211779
 20
47.313129977668268
 30
0.0
 11
100.2074865211779
 21
42.948196427274922
 31
0.0
  0
LINE
  5
4AA
  8
DRG
 62
     7
 10
97.849782736700035
 20
60.89733173546756
 30
0.0
 11
103.66183676415081
 21
60.89733173546756
 31
0.0
  0
LINE
  5
4AB
  8
DRG
 62
     7
 10
80.482556033578916
 20
69.876055965300111
 30
0.0
 11
83.501142256151056
 21
69.876055965300111
 31
0.0
  0
LINE
  5
4AC
  8
DRG
 62
     7
 10
77.482556033578931
 20
94.593352860836134
 30
0.0
 11
84.553623006881026
 21
94.593352860836134
 31
0.0
  0
LINE
  5
4AD
  8
DRG
 62
     7
 10
77.482556033578931
 20
101.9948050433795
 30
0.0
 11
84.553623006881026
 21
101.9948050433795
 31
0.0
  0
ARC
  5
4AE
  8
DRG
 62
     7
 10
-128.9478892023152
 20
81.496816718755667
 30
0.0
 40
177.77324423808651
 50
357.1493405932253
 51
2.8506594067746178
  0
ARC
  5
4AF
  8
DRG
 62
     7
 10
-63.673578078330422
 20
81.496816718755667
 30
0.0
 40
123.62323904739679
 50
356.01116722839038
 51
3.9888327716095779
  0
LINE
  5
4B0
  8
DRG
 62
     7
 10
67.331191210151701
 20
94.593352860836134
 30
0.0
 11
67.331191210151701
 21
68.89733173546756
 31
0.0
  0
LINE
  5
4B1
  8
DRG
 62
     7
 10
77.482556033578931
 20
94.593352860836134
 30
0.0
 11
77.482556033578931
 21
72.876055965300111
 31
0.0
  0
ARC
  5
4B2
  8
DRG
 62
     7
 10
80.482556033578916
 20
72.876055965300111
 30
0.0
 40
3.0
 50
180.0
 51
270.0
  0
LINE
  5
4B3
  8
DRG
 62
     7
 10
62.478989637268569
 20
101.9948050433795
 30
0.0
 11
67.331191210151701
 21
101.9948050433795
 31
0.0
  0
LINE
  5
4B4
  8
DRG
 62
     7
 10
62.478989637268569
 20
94.593352860836134
 30
0.0
 11
67.331191210151701
 21
94.593352860836134
 31
0.0
  0
LINE
  5
4B5
  8
DRG
 62
     7
 10
62.478989637268569
 20
94.593352860836134
 30
0.0
 11
62.478989637268569
 21
101.9948050433795
 31
0.0
  0
LINE
  5
4B6
  8
DRG
 62
     7
 10
67.331191210151701
 20
107.1280725498991
 30
0.0
 11
77.482556033578931
 21
107.1280725498991
 31
0.0
  0
LINE
  5
4B7
  8
DRG
 62
     7
 10
67.331191210151701
 20
107.1280725498991
 30
0.0
 11
67.331191210151701
 21
101.9948050433795
 31
0.0
  0
LINE
  5
4B8
  8
DRG
 62
     7
 10
77.482556033578931
 20
101.9948050433795
 30
0.0
 11
77.482556033578931
 21
107.1280725498991
 31
0.0
  0
ARC
  5
4B9
  8
DRG
 62
     7
 10
-72.936249365281071
 20
81.496816718755667
 30
0.0
 40
177.77324423808651
 50
357.1493405932253
 51
2.8506594067746178
  0
ARC
  5
4BA
  8
DRG
 62
     7
 10
274.44787133523357
 20
81.496816718755667
 30
0.0
 40
177.77324423808651
 50
177.14934059322539
 51
182.85065940677461
  0
ARC
  5
4BB
  8
DRG
 62
     7
 10
209.1735602112488
 20
81.496816718755667
 30
0.0
 40
123.62323904739679
 50
176.01116722839041
 51
183.98883277160959
  0
ARC
  5
4BC
  8
DRG
 62
     7
 10
100.75581098497619
 20
72.655643349176444
 30
0.0
 40
3.8611993223923942
 50
180.0
 51
0.0
  0
ARC
  5
4BD
  8
DRG
 62
     7
 10
82.991751330883176
 20
73.025526152493626
 30
0.0
 40
3.1903983410800212
 50
279.18737892597682
 51
298.2359877234839
  0
ARC
  5
4BE
  8
DRG
 62
     7
 10
100.75581098497619
 20
90.337990088334877
 30
0.0
 40
3.8611993223923942
 50
0.0
 51
180.0
  0
ARC
  5
4BF
  8
DRG
 62
     7
 10
97.849782736700035
 20
90.096301702043775
 30
0.0
 40
12.0
 50
90.0
 51
180.0
  0
LINE
  5
4C0
  8
DRG
 62
     7
 10
84.553623006881026
 20
101.9948050433795
 30
0.0
 11
84.553623006881026
 21
94.593352860836134
 31
0.0
  0
LINE
  5
4C1
  8
DRG
 62
     7
 10
97.849782736700035
 20
102.0963017020437
 30
0.0
 11
103.66183676415081
 21
102.0963017020437
 31
0.0
  0
LINE
  5
4C2
  8
DRG
 62
     7
 10
130.05101171535759
 20
62.115696081838678
 30
0.0
 11
130.05101171535759
 21
85.569427875032716
 31
0.0
  0
LINE
  5
4C3
  8
DRG
 62
     7
 10
119.0096173095521
 20
102.0369718403326
 30
0.0
 11
119.0096173095521
 21
62.115696081838678
 31
0.0
  0
LINE
  5
4C4
  8
DRG
 62
     7
 10
165.4162645291251
 20
78.31140447718235
 30
0.0
 11
171.78072804963571
 21
62.115696081838678
 31
0.0
  0
LINE
  5
4C5
  8
DRG
 62
     7
 10
153.2899770207527
 20
82.583583780839604
 30
0.0
 11
161.3332883364622
 21
62.115696081838678
 31
0.0
  0
LINE
  5
4C6
  8
DRG
 62
     7
 10
153.2899770207527
 20
102.0369718403326
 30
0.0
 11
153.2899770207527
 21
62.115696081838678
 31
0.0
  0
LINE
  5
4C7
  8
DRG
 62
     7
 10
142.11987082690661
 20
102.0369718403326
 30
0.0
 11
142.11987082690661
 21
62.115696081838678
 31
0.0
  0
ARC
  5
4C8
  8
DRG
 62
     7
 10
160.28928843394391
 20
53.283870983727013
 30
0.0
 40
20.648450998997479
 50
209.50344874889601
 51
257.2400493880096
  0
LINE
  5
4C9
  8
DRG
 62
     7
 10
141.28023066635379
 20
29.95929893143898
 30
0.0
 11
152.32505959223769
 21
29.95929893143898
 31
0.0
  0
ARC
  5
4CA
  8
DRG
 62
     7
 10
153.28023066635379
 20
45.06060729124669
 30
0.0
 40
12.0
 50
90.0
 51
161.62913043773071
  0
LINE
  5
4CB
  8
DRG
 62
     7
 10
153.2899770207527
 20
62.115696081838678
 30
0.0
 11
142.11987082690661
 21
62.115696081838678
 31
0.0
  0
LINE
  5
4CC
  8
DRG
 62
     7
 10
127.2345352189994
 20
17.28637227261407
 30
0.0
 11
127.2345352189994
 21
40.740104065808111
 31
0.0
  0
LINE
  5
4CD
  8
DRG
 62
     7
 10
116.19314081319391
 20
57.207648031108022
 30
0.0
 11
116.19314081319391
 21
17.28637227261407
 31
0.0
  0
LINE
  5
4CE
  8
DRG
 62
     7
 10
116.19314081319391
 20
17.28637227261407
 30
0.0
 11
127.2345352189994
 21
17.28637227261407
 31
0.0
  0
LINE
  5
4CF
  8
DRG
 62
     7
 10
141.28023066635379
 20
29.95929893143898
 30
0.0
 11
141.28023066635379
 21
27.861637324670479
 31
0.0
  0
ARC
  5
4D0
  8
DRG
 62
     7
 10
135.496228002728
 20
47.014815876282221
 30
0.0
 40
10.2528691067876
 50
83.7965056449153
 51
143.68693404466879
  0
ARC
  5
4D1
  8
DRG
 62
     7
 10
135.23453521899941
 20
40.740104065808111
 30
0.0
 40
8.0
 50
90.0
 51
180.0
  0
LINE
  5
4D2
  8
DRG
 62
     7
 10
119.0096173095521
 20
62.115696081838678
 30
0.0
 11
130.05101171535759
 21
62.115696081838678
 31
0.0
  0
LINE
  5
4D3
  8
DRG
 62
     7
 10
116.19314081319391
 20
57.207648031108022
 30
0.0
 11
127.2345352189994
 21
57.207648031108022
 31
0.0
  0
LINE
  5
4D4
  8
DRG
 62
     7
 10
127.2345352189994
 20
53.0865336948413
 30
0.0
 11
127.2345352189994
 21
57.207648031108079
 31
0.0
  0
LINE
  5
4D5
  8
DRG
 62
     7
 10
136.6041529029215
 20
57.207648031108022
 30
0.0
 11
136.6041529029215
 21
48.740104065808111
 31
0.0
  0
LINE
  5
4D6
  8
DRG
 62
     7
 10
136.6041529029215
 20
48.740104065808111
 30
0.0
 11
135.23453521899941
 21
48.740104065808111
 31
0.0
  0
ARC
  5
4D7
  8
DRG
 62
     7
 10
149.15275272984229
 20
46.50373678022958
 30
0.0
 40
7.6283568598071962
 50
162.14543119997589
 51
216.29372603558031
  0
ARC
  5
4D8
  8
DRG
 62
     7
 10
164.68224204875119
 20
54.775095406185869
 30
0.0
 40
15.14236331012172
 50
222.29150451995909
 51
257.53093545652467
  0
ARC
  5
4D9
  8
DRG
 62
     7
 10
159.223234097084
 20
28.191351553125511
 30
0.0
 40
12.0
 50
8.4721667757414814
 51
79.486612768212169
  0
LINE
  5
4DA
  8
DRG
 62
     7
 10
160.04745823702251
 20
29.300230626583438
 30
0.0
 11
160.04745823702251
 21
27.619948938379359
 31
0.0
  0
LINE
  5
4DB
  8
DRG
 62
     7
 10
152.32505959223769
 20
27.619948938379359
 30
0.0
 11
152.32505959223769
 21
29.95929893143898
 31
0.0
  0
ARC
  5
4DC
  8
DRG
 62
     7
 10
156.18625891463009
 20
27.619948938379359
 30
0.0
 40
3.8611993223923942
 50
180.0
 51
0.0
  0
ARC
  5
4DD
  8
DRG
 62
     7
 10
153.8611380906755
 20
26.699836406787622
 30
0.0
 40
6.7106338785129491
 50
22.799249772319211
 51
73.841024038773142
  0
LINE
  5
4DE
  8
DRG
 62
     7
 10
171.0922846938046
 20
29.95929893143915
 30
0.0
 11
171.0922846938046
 21
27.861637324670479
 31
0.0
  0
LINE
  5
4DF
  8
DRG
 62
     7
 10
171.0912486890569
 20
45.21828747592599
 30
0.0
 11
160.04745823702251
 21
45.21828747592599
 31
0.0
  0
ARC
  5
4E0
  8
DRG
 62
     7
 10
159.0922846938046
 20
45.06060729124669
 30
0.0
 40
12.0
 50
0.7528890912800703
 51
90.0
  0
LINE
  5
4E1
  8
DRG
 62
     7
 10
161.3332883364622
 20
62.115696081838678
 30
0.0
 11
171.78072804963571
 21
62.115696081838678
 31
0.0
  0
ARC
  5
4E2
  8
DRG
 62
     7
 10
156.18625891463009
 20
46.421288526219307
 30
0.0
 40
3.8611993223923942
 50
0.0
 51
161.4735686305323
  0
ARC
  5
4E3
  8
DRG
 62
     7
 10
155.35373214152469
 20
46.850626662257177
 30
0.0
 40
2.938857360854815
 50
164.25399710017811
 51
230.4135202949499
  0
LINE
  5
4E4
  8
DRG
 62
     7
 10
160.04745823702251
 20
46.421288526219307
 30
0.0
 11
160.04745823702251
 21
45.21828747592599
 31
0.0
  0
LINE
  5
4E5
  8
DRG
 62
     7
 10
153.28023066635379
 20
57.06060729124669
 30
0.0
 11
159.0922846938046
 21
57.06060729124669
 31
0.0
  0
LINE
  5
4E6
  8
DRG
 62
     7
 10
142.11987082690661
 20
102.0369718403326
 30
0.0
 11
153.2899770207527
 21
102.0369718403326
 31
0.0
  0
ARC
  5
4E7
  8
DRG
 62
     7
 10
138.05101171535759
 20
85.569427875032716
 30
0.0
 40
8.0
 50
90.0
 51
180.0
  0
ARC
  5
4E8
  8
DRG
 62
     7
 10
-7.66193824129624
 20
81.496816718755667
 30
0.0
 40
123.62323904739679
 50
356.01116722839038
 51
3.9888327716095779
  0
ARC
  5
4E9
  8
DRG
 62
     7
 10
138.3127044990861
 20
91.844139685506775
 30
0.0
 40
10.2528691067876
 50
83.7965056449153
 51
143.68693404466879
  0
LINE
  5
4EA
  8
DRG
 62
     7
 10
119.0096173095521
 20
102.0369718403326
 30
0.0
 11
130.05101171535759
 21
102.0369718403326
 31
0.0
  0
LINE
  5
4EB
  8
DRG
 62
     7
 10
130.05101171535759
 20
97.915857504065855
 30
0.0
 11
130.05101171535759
 21
102.0369718403326
 31
0.0
  0
LINE
  5
4EC
  8
DRG
 62
     7
 10
139.4206293992797
 20
102.0369718403326
 30
0.0
 11
139.4206293992797
 21
93.569427875032716
 31
0.0
  0
LINE
  5
4ED
  8
DRG
 62
     7
 10
139.4206293992797
 20
93.569427875032716
 30
0.0
 11
138.05101171535759
 21
93.569427875032716
 31
0.0
  0
LINE
  5
4EE
  8
DRG
 62
     7
 10
153.2899770207527
 20
82.583583780839604
 30
0.0
 11
160.9346181585602
 21
102.0369718403326
 31
0.0
  0
LINE
  5
4EF
  8
DRG
 62
     7
 10
176.9709164189357
 20
78.31140447718235
 30
0.0
 11
176.9709164189357
 21
86.855763084496857
 31
0.0
  0
LINE
  5
4F0
  8
DRG
 62
     7
 10
176.9709164189357
 20
78.31140447718235
 30
0.0
 11
165.4162645291251
 21
78.31140447718235
 31
0.0
  0
LINE
  5
4F1
  8
DRG
 62
     7
 10
160.9346181585602
 20
102.0369718403326
 30
0.0
 11
171.38205787173379
 21
102.0369718403326
 31
0.0
  0
LINE
  5
4F2
  8
DRG
 62
     7
 10
165.4162645291251
 20
86.855763084496857
 30
0.0
 11
171.38205787173379
 21
102.0369718403326
 31
0.0
  0
LINE
  5
4F3
  8
DRG
 62
     7
 10
176.9709164189357
 20
86.855763084496857
 30
0.0
 11
165.4162645291251
 21
86.855763084496857
 31
0.0
  0
ENDBLK
  5
4F5
  8
0
  0
BLOCK
  8
0
  2
ROTORK_GEARS_LOGO
 70
     0
 10
0.0
 20
0.0
 30
0.0
  3
ROTORK_GEARS_LOGO
  1

  0
INSERT
  5
4F7
  8
0
  2
LOGO
 10
16.592937132437999
 20
3.1720898939720419
 30
0.0
  0
ENDBLK
  5
4F9
  8
0
  0
BLOCK
  8
0
  2
*U3
 70
     1
 10
0.0
 20
0.0
 30
0.0
  3
*U3
  1

  0
SOLID
  5
51D
  8
DRG
  6
CONTINUOUS
 62
     7
 10
27.591723902900771
 20
3.5869302298372978
 30
0.0
 11
18.100585347853119
 21
3.392610111620797
 31
0.0
 12
25.69916102541524
 22
3.392610111620797
 32
0.0
 13
25.69916102541524
 23
3.392610111620797
 33
0.0
210
0.0
220
0.0
230
1.0
  0
SOLID
  5
51E
  8
DRG
  6
CONTINUOUS
 62
     7
 10
16.187882817280752
 20
3.5947021638827041
 30
0.0
 11
18.100585347853119
 21
3.392610111620797
 31
0.0
 12
27.591723902900771
 22
3.5869302298372978
 32
0.0
 13
27.591723902900771
 23
3.5869302298372978
 33
0.0
210
0.0
220
0.0
230
1.0
  0
SOLID
  5
51F
  8
DRG
  6
CONTINUOUS
 62
     7
 10
29.43247673073007
 20
4.067745766627044
 30
0.0
 11
16.187882817280752
 21
3.5947021638827041
 31
0.0
 12
27.591723902900771
 22
3.5869302298372978
 32
0.0
 13
27.591723902900771
 23
3.5869302298372978
 33
0.0
210
0.0
220
0.0
230
1.0
  0
SOLID
  5
520
  8
DRG
  6
CONTINUOUS
 62
     7
 10
14.34356828270448
 20
4.1403907798498434
 30
0.0
 11
16.187882817280752
 21
3.5947021638827041
 31
0.0
 12
29.43247673073007
 22
4.067745766627044
 32
0.0
 13
29.43247673073007
 23
4.067745766627044
 33
0.0
210
0.0
220
0.0
230
1.0
  0
SOLID
  5
521
  8
DRG
  6
CONTINUOUS
 62
     7
 10
31.178312160316999
 20
4.823796827322667
 30
0.0
 11
14.34356828270448
 21
4.1403907798498434
 31
0.0
 12
29.43247673073007
 22
4.067745766627044
 32
0.0
 13
29.43247673073007
 23
4.067745766627044
 33
0.0
  0
SOLID
  5
522
  8
DRG
  6
CONTINUOUS
 62
     7
 10
12.628832942518519
 20
5.011570945580659
 30
0.0
 11
14.34356828270448
 21
4.1403907798498434
 31
0.0
 12
31.178312160316999
 22
4.823796827322667
 32
0.0
 13
31.178312160316999
 23
4.823796827322667
 33
0.0
210
0.0
220
0.0
230
1.0
  0
SOLID
  5
523
  8
DRG
  6
CONTINUOUS
 62
     7
 10
32.788345649587569
 20
5.83737796221381
 30
0.0
 11
12.628832942518519
 21
5.011570945580659
 31
0.0
 12
31.178312160316999
 22
4.823796827322667
 32
0.0
 13
31.178312160316999
 23
4.823796827322667
 33
0.0
210
0.0
220
0.0
230
1.0
  0
SOLID
  5
524
  8
DRG
  6
CONTINUOUS
 62
     7
 10
11.10056877931466
 20
6.1793383948239633
 30
0.0
 11
12.628832942518519
 21
5.011570945580659
 31
0.0
 12
32.788345649587569
 22
5.83737796221381
 32
0.0
 13
32.788345649587569
 23
5.83737796221381
 33
0.0
210
0.0
220
0.0
230
1.0
  0
SOLID
  5
525
  8
DRG
  6
CONTINUOUS
 62
     7
 10
34.22487291048742
 20
7.084752798528684
 30
0.0
 11
11.10056877931466
 21
6.1793383948239633
 31
0.0
 12
32.788345649587569
 22
5.83737796221381
 32
0.0
 13
32.788345649587569
 23
5.83737796221381
 33
0.0
210
0.0
220
0.0
230
1.0
  0
SOLID
  5
526
  8
DRG
  6
CONTINUOUS
 62
     7
 10
9.8094809813111574
 20
7.6049486030828204
 30
0.0
 11
11.10056877931466
 21
6.1793383948239633
 31
0.0
 12
34.22487291048742
 22
7.084752798528684
 32
0.0
 13
34.22487291048742
 23
7.084752798528684
 33
0.0
  0
SOLID
  5
527
  8
DRG
  6
CONTINUOUS
 62
     7
 10
35.454252880266083
 20
8.5367099065339396
 30
0.0
 11
9.8094809813111574
 21
7.6049486030828204
 31
0.0
 12
34.22487291048742
 22
7.084752798528684
 32
0.0
 13
34.22487291048742
 23
7.084752798528684
 33
0.0
210
0.0
220
0.0
230
1.0
  0
SOLID
  5
528
  8
DRG
  6
CONTINUOUS
 62
     7
 10
8.7984056310258474
 20
9.2411022645984033
 30
0.0
 11
9.8094809813111574
 21
7.6049486030828204
 31
0.0
 12
35.454252880266083
 22
8.5367099065339396
 32
0.0
 13
35.454252880266083
 23
8.5367099065339396
 33
0.0
210
0.0
220
0.0
230
1.0
  0
SOLID
  5
529
  8
DRG
  6
CONTINUOUS
 62
     7
 10
23.40592258650463
 20
9.658646647821115
 30
0.0
 11
8.7984056310258474
 21
9.2411022645984033
 31
0.0
 12
35.454252880266083
 22
8.5367099065339396
 32
0.0
 13
35.454252880266083
 23
8.5367099065339396
 33
0.0
210
0.0
220
0.0
230
1.0
  0
SOLID
  5
52A
  8
DRG
  6
CONTINUOUS
 62
     7
 10
22.212746377216352
 20
9.8476271939377913
 30
0.0
 11
8.7984056310258474
 21
9.2411022645984033
 31
0.0
 12
23.40592258650463
 22
9.658646647821115
 32
0.0
 13
23.40592258650463
 23
9.658646647821115
 33
0.0
210
0.0
220
0.0
230
1.0
  0
SOLID
  5
52B
  8
DRG
  6
CONTINUOUS
 62
     7
 10
24.599098795792909
 20
9.8476271939377931
 30
0.0
 11
23.40592258650463
 21
9.658646647821115
 31
0.0
 12
35.454252880266083
 22
8.5367099065339396
 32
0.0
 13
35.454252880266083
 23
8.5367099065339396
 33
0.0
210
0.0
220
0.0
230
1.0
  0
SOLID
  5
52C
  8
DRG
  6
CONTINUOUS
 62
     7
 10
36.447695538829151
 20
10.1592468822997
 30
0.0
 11
24.599098795792909
 21
9.8476271939377931
 31
0.0
 12
35.454252880266083
 22
8.5367099065339396
 32
0.0
 13
35.454252880266083
 23
8.5367099065339396
 33
0.0
210
0.0
220
0.0
230
1.0
  0
SOLID
  5
52D
  8
DRG
  6
CONTINUOUS
 62
     7
 10
21.136366568640689
 20
10.39607009972903
 30
0.0
 11
8.7984056310258474
 21
9.2411022645984033
 31
0.0
 12
22.212746377216352
 22
9.8476271939377913
 32
0.0
 13
22.212746377216352
 23
9.8476271939377913
 33
0.0
210
0.0
220
0.0
230
1.0
  0
SOLID
  5
52E
  8
DRG
  6
CONTINUOUS
 62
     7
 10
25.675478604368571
 20
10.39607009972903
 30
0.0
 11
24.599098795792909
 21
9.8476271939377931
 31
0.0
 12
36.447695538829151
 22
10.1592468822997
 32
0.0
 13
36.447695538829151
 23
10.1592468822997
 33
0.0
210
0.0
220
0.0
230
1.0
  0
SOLID
  5
52F
  8
DRG
  6
CONTINUOUS
 62
     7
 10
8.10088847740281
 20
11.033514602328481
 30
0.0
 11
8.7984056310258474
 21
9.2411022645984033
 31
0.0
 12
21.136366568640689
 22
10.39607009972903
 32
0.0
 13
21.136366568640689
 23
10.39607009972903
 33
0.0
210
0.0
220
0.0
230
1.0
  0
SOLID
  5
530
  8
DRG
  6
CONTINUOUS
 62
     7
 10
20.282146716020151
 20
11.25028995234956
 30
0.0
 11
8.10088847740281
 21
11.033514602328481
 31
0.0
 12
21.136366568640689
 22
10.39607009972903
 32
0.0
 13
21.136366568640689
 23
10.39607009972903
 33
0.0
210
0.0
220
0.0
230
1.0
  0
SOLID
  5
531
  8
DRG
  6
CONTINUOUS
 62
     7
 10
26.529698456989109
 20
11.25028995234957
 30
0.0
 11
25.675478604368571
 21
10.39607009972903
 31
0.0
 12
36.447695538829151
 22
10.1592468822997
 32
0.0
 13
36.447695538829151
 23
10.1592468822997
 33
0.0
210
0.0
220
0.0
230
1.0
  0
SOLID
  5
532
  8
DRG
  6
CONTINUOUS
 62
     7
 10
37.18193612279525
 20
11.914366627057049
 30
0.0
 11
26.529698456989109
 21
11.25028995234957
 31
0.0
 12
36.447695538829151
 22
10.1592468822997
 32
0.0
 13
36.447695538829151
 23
10.1592468822997
 33
0.0
210
0.0
220
0.0
230
1.0
  0
SOLID
  5
533
  8
DRG
  6
CONTINUOUS
 62
     7
 10
19.73370381022891
 20
12.32666976092522
 30
0.0
 11
8.10088847740281
 21
11.033514602328481
 31
0.0
 12
20.282146716020151
 22
11.25028995234956
 32
0.0
 13
20.282146716020151
 23
11.25028995234956
 33
0.0
210
0.0
220
0.0
230
1.0
  0
SOLID
  5
534
  8
DRG
  6
CONTINUOUS
 62
     7
 10
27.07814136278035
 20
12.326669760925229
 30
0.0
 11
26.529698456989109
 21
11.25028995234957
 31
0.0
 12
37.18193612279525
 22
11.914366627057049
 32
0.0
 13
37.18193612279525
 23
11.914366627057049
 33
0.0
210
0.0
220
0.0
230
1.0
  0
SOLID
  5
535
  8
DRG
  6
CONTINUOUS
 62
     7
 10
7.7400719452999134
 20
12.9227164439025
 30
0.0
 11
8.10088847740281
 21
11.033514602328481
 31
0.0
 12
19.73370381022891
 22
12.32666976092522
 32
0.0
 13
19.73370381022891
 23
12.32666976092522
 33
0.0
210
0.0
220
0.0
230
1.0
  0
SOLID
  5
536
  8
DRG
  6
CONTINUOUS
 62
     7
 10
19.544723264112228
 20
13.51984597021351
 30
0.0
 11
7.7400719452999134
 21
12.9227164439025
 31
0.0
 12
19.73370381022891
 22
12.32666976092522
 32
0.0
 13
19.73370381022891
 23
12.32666976092522
 33
0.0
210
0.0
220
0.0
230
1.0
  0
SOLID
  5
537
  8
DRG
  6
CONTINUOUS
 62
     7
 10
27.267121908897021
 20
13.51984597021351
 30
0.0
 11
27.07814136278035
 21
12.326669760925229
 31
0.0
 12
37.18193612279525
 22
11.914366627057049
 32
0.0
 13
37.18193612279525
 23
11.914366627057049
 33
0.0
210
0.0
220
0.0
230
1.0
  0
SOLID
  5
538
  8
DRG
  6
CONTINUOUS
 62
     7
 10
37.639779947293839
 20
13.760967175618781
 30
0.0
 11
27.267121908897021
 21
13.51984597021351
 31
0.0
 12
37.18193612279525
 22
11.914366627057049
 32
0.0
 13
37.18193612279525
 23
11.914366627057049
 33
0.0
210
0.0
220
0.0
230
1.0
  0
SOLID
  5
539
  8
DRG
  6
CONTINUOUS
 62
     7
 10
19.544723264112228
 20
13.51984597021351
 30
0.0
 11
19.544723264112239
 21
14.846027306936771
 31
0.0
 12
7.7279273094568479
 22
14.846027306936771
 32
0.0
 13
7.7279273094568479
 23
14.846027306936771
 33
0.0
210
0.0
220
0.0
230
1.0
  0
SOLID
  5
53A
  8
DRG
  6
CONTINUOUS
 62
     7
 10
7.7279273094568479
 20
14.846027306936771
 30
0.0
 11
7.7400719452999134
 21
12.9227164439025
 31
0.0
 12
19.544723264112228
 22
13.51984597021351
 32
0.0
 13
19.544723264112228
 23
13.51984597021351
 33
0.0
  0
SOLID
  5
53B
  8
DRG
  6
CONTINUOUS
 62
     7
 10
54.384704262085222
 20
16.043944288523981
 30
0.0
 11
56.468482394088369
 21
15.861637324670481
 31
0.0
 12
62.280536421539182
 22
15.861637324670481
 32
0.0
 13
62.280536421539182
 23
15.861637324670481
 33
0.0
210
0.0
220
0.0
230
1.0
  0
SOLID
  5
53C
  8
DRG
  6
CONTINUOUS
 62
     7
 10
64.364314553542343
 20
16.043944288523988
 30
0.0
 11
54.384704262085222
 21
16.043944288523981
 31
0.0
 12
62.280536421539182
 22
15.861637324670481
 32
0.0
 13
62.280536421539182
 23
15.861637324670481
 33
0.0
  0
SOLID
  5
53D
  8
DRG
  6
CONTINUOUS
 62
     7
 10
161.1760628258078
 20
16.043944288523988
 30
0.0
 11
153.28023066635379
 21
15.861637324670481
 31
0.0
 12
159.0922846938046
 22
15.861637324670481
 32
0.0
 13
159.0922846938046
 23
15.861637324670481
 33
0.0
210
0.0
220
0.0
230
1.0
  0
SOLID
  5
53E
  8
DRG
  6
CONTINUOUS
 62
     7
 10
151.1964525343507
 20
16.043944288523988
 30
0.0
 11
153.28023066635379
 21
15.861637324670481
 31
0.0
 12
161.1760628258078
 22
16.043944288523988
 32
0.0
 13
161.1760628258078
 23
16.043944288523988
 33
0.0
210
0.0
220
0.0
230
1.0
  0
SOLID
  5
53F
  8
DRG
  6
CONTINUOUS
 62
     7
 10
52.36424067418038
 20
16.585325875239558
 30
0.0
 11
54.384704262085222
 21
16.043944288523981
 31
0.0
 12
64.364314553542343
 22
16.043944288523988
 32
0.0
 13
64.364314553542343
 23
16.043944288523988
 33
0.0
210
0.0
220
0.0
230
1.0
  0
SOLID
  5
540
  8
DRG
  6
CONTINUOUS
 62
     7
 10
163.19652641371269
 20
16.58532587523958
 30
0.0
 11
151.1964525343507
 21
16.043944288523988
 31
0.0
 12
161.1760628258078
 22
16.043944288523988
 32
0.0
 13
161.1760628258078
 23
16.043944288523988
 33
0.0
210
0.0
220
0.0
230
1.0
  0
SOLID
  5
541
  8
DRG
  6
CONTINUOUS
 62
     7
 10
66.3847781414472
 20
16.58532587523958
 30
0.0
 11
52.36424067418038
 21
16.585325875239558
 31
0.0
 12
64.364314553542343
 22
16.043944288523988
 32
0.0
 13
64.364314553542343
 23
16.043944288523988
 33
0.0
210
0.0
220
0.0
230
1.0
  0
SOLID
  5
542
  8
DRG
  6
CONTINUOUS
 62
     7
 10
149.17598894644581
 20
16.58532587523958
 30
0.0
 11
151.1964525343507
 21
16.043944288523988
 31
0.0
 12
163.19652641371269
 22
16.58532587523958
 32
0.0
 13
163.19652641371269
 23
16.58532587523958
 33
0.0
  0
SOLID
  5
543
  8
DRG
  6
CONTINUOUS
 62
     7
 10
89.046034371584071
 20
17.264455427868601
 30
0.0
 11
91.053870003696062
 21
17.031015276218469
 31
0.0
 12
93.065845423427419
 22
17.225574111478739
 32
0.0
 13
93.065845423427419
 23
17.225574111478739
 33
0.0
210
0.0
220
0.0
230
1.0
  0
SOLID
  5
544
  8
DRG
  6
CONTINUOUS
 62
     7
 10
50.468482394088412
 20
17.469332479257179
 30
0.0
 11
52.36424067418038
 21
16.585325875239558
 31
0.0
 12
66.3847781414472
 22
16.58532587523958
 32
0.0
 13
66.3847781414472
 23
16.58532587523958
 33
0.0
  0
SOLID
  5
545
  8
DRG
  6
CONTINUOUS
 62
     7
 10
68.280536421539182
 20
17.469332479257218
 30
0.0
 11
50.468482394088412
 21
17.469332479257179
 31
0.0
 12
66.3847781414472
 22
16.58532587523958
 32
0.0
 13
66.3847781414472
 23
16.58532587523958
 33
0.0
210
0.0
220
0.0
230
1.0
  0
SOLID
  5
546
  8
DRG
  6
CONTINUOUS
 62
     7
 10
165.0922846938046
 20
17.469332479257218
 30
0.0
 11
149.17598894644581
 21
16.58532587523958
 31
0.0
 12
163.19652641371269
 22
16.58532587523958
 32
0.0
 13
163.19652641371269
 23
16.58532587523958
 33
0.0
210
0.0
220
0.0
230
1.0
  0
SOLID
  5
547
  8
DRG
  6
CONTINUOUS
 62
     7
 10
147.28023066635379
 20
17.469332479257218
 30
0.0
 11
149.17598894644581
 21
16.58532587523958
 31
0.0
 12
165.0922846938046
 22
17.469332479257218
 32
0.0
 13
165.0922846938046
 23
17.469332479257218
 33
0.0
210
0.0
220
0.0
230
1.0
  0
SOLID
  5
548
  8
DRG
  6
CONTINUOUS
 62
     7
 10
94.991749269489972
 20
17.839408458597301
 30
0.0
 11
89.046034371584071
 21
17.264455427868601
 31
0.0
 12
93.065845423427419
 22
17.225574111478739
 32
0.0
 13
93.065845423427419
 23
17.225574111478739
 33
0.0
210
0.0
220
0.0
230
1.0
  0
SOLID
  5
549
  8
DRG
  6
CONTINUOUS
 62
     7
 10
87.132364271859174
 20
17.915427761689291
 30
0.0
 11
89.046034371584071
 21
17.264455427868601
 31
0.0
 12
94.991749269489972
 22
17.839408458597301
 32
0.0
 13
94.991749269489972
 23
17.839408458597301
 33
0.0
210
0.0
220
0.0
230
1.0
  0
SOLID
  5
54A
  8
DRG
  6
CONTINUOUS
 62
     7
 10
96.774922223832405
 20
18.44288155552006
 30
0.0
 11
87.132364271859174
 21
17.915427761689291
 31
0.0
 12
94.991749269489972
 22
17.839408458597301
 32
0.0
 13
94.991749269489972
 23
17.839408458597301
 33
0.0
210
0.0
220
0.0
230
1.0
  0
SOLID
  5
54B
  8
DRG
  6
CONTINUOUS
 62
     7
 10
48.755031077849956
 20
18.669104007242691
 30
0.0
 11
50.468482394088412
 21
17.469332479257179
 31
0.0
 12
68.280536421539182
 22
17.469332479257218
 32
0.0
 13
68.280536421539182
 23
17.469332479257218
 33
0.0
210
0.0
220
0.0
230
1.0
  0
SOLID
  5
54C
  8
DRG
  6
CONTINUOUS
 62
     7
 10
69.993987737777644
 20
18.669104007242741
 30
0.0
 11
48.755031077849956
 21
18.669104007242691
 31
0.0
 12
68.280536421539182
 22
17.469332479257218
 32
0.0
 13
68.280536421539182
 23
17.469332479257218
 33
0.0
210
0.0
220
0.0
230
1.0
  0
SOLID
  5
54D
  8
DRG
  6
CONTINUOUS
 62
     7
 10
166.80573601004309
 20
18.669104007242741
 30
0.0
 11
147.28023066635379
 21
17.469332479257218
 31
0.0
 12
165.0922846938046
 22
17.469332479257218
 32
0.0
 13
165.0922846938046
 23
17.469332479257218
 33
0.0
210
0.0
220
0.0
230
1.0
  0
SOLID
  5
54E
  8
DRG
  6
CONTINUOUS
 62
     7
 10
145.56677935011541
 20
18.669104007242751
 30
0.0
 11
147.28023066635379
 21
17.469332479257218
 31
0.0
 12
166.80573601004309
 22
18.669104007242741
 32
0.0
 13
166.80573601004309
 23
18.669104007242741
 33
0.0
210
0.0
220
0.0
230
1.0
  0
SOLID
  5
54F
  8
DRG
  6
CONTINUOUS
 62
     7
 10
85.398663329684837
 20
18.95474449545469
 30
0.0
 11
87.132364271859174
 21
17.915427761689291
 31
0.0
 12
96.774922223832405
 22
18.44288155552006
 32
0.0
 13
96.774922223832405
 23
18.44288155552006
 33
0.0
210
0.0
220
0.0
230
1.0
  0
SOLID
  5
550
  8
DRG
  6
CONTINUOUS
 62
     7
 10
16.399429313643971
 20
19.246118283133981
 30
0.0
 11
18.58303542025671
 21
18.945146626805109
 31
0.0
 12
20.271303339863209
 22
19.129413603414459
 32
0.0
 13
20.271303339863209
 23
19.129413603414459
 33
0.0
210
0.0
220
0.0
230
1.0
  0
SOLID
  5
551
  8
DRG
  6
CONTINUOUS
 62
     7
 10
98.426543494326594
 20
19.34622686195554
 30
0.0
 11
85.398663329684837
 21
18.95474449545469
 31
0.0
 12
96.774922223832405
 22
18.44288155552006
 32
0.0
 13
96.774922223832405
 23
18.44288155552006
 33
0.0
210
0.0
220
0.0
230
1.0
  0
SOLID
  5
552
  8
DRG
  6
CONTINUOUS
 62
     7
 10
102.3181837587821
 20
19.484710699009419
 30
0.0
 11
102.6710305977499
 21
17.89352120355198
 31
0.0
 12
111.8021775281067
 22
17.893521203552009
 32
0.0
 13
111.8021775281067
 23
17.893521203552009
 33
0.0
210
0.0
220
0.0
230
1.0
  0
SOLID
  5
553
  8
DRG
  6
CONTINUOUS
 62
     7
 10
21.895927098915749
 20
19.624186812635841
 30
0.0
 11
16.399429313643971
 21
19.246118283133981
 31
0.0
 12
20.271303339863209
 22
19.129413603414459
 32
0.0
 13
20.271303339863209
 23
19.129413603414459
 33
0.0
210
0.0
220
0.0
230
1.0
  0
SOLID
  5
554
  8
DRG
  6
CONTINUOUS
 62
     7
 10
14.3065739834735
 20
19.93798252829114
 30
0.0
 11
16.399429313643971
 21
19.246118283133981
 31
0.0
 12
21.895927098915749
 22
19.624186812635841
 32
0.0
 13
21.895927098915749
 23
19.624186812635841
 33
0.0
210
0.0
220
0.0
230
1.0
  0
SOLID
  5
555
  8
DRG
  6
CONTINUOUS
 62
     7
 10
47.275949076660687
 20
20.148186008431932
 30
0.0
 11
48.755031077849956
 21
18.669104007242691
 31
0.0
 12
69.993987737777644
 22
18.669104007242741
 32
0.0
 13
69.993987737777644
 23
18.669104007242741
 33
0.0
210
0.0
220
0.0
230
1.0
  0
SOLID
  5
556
  8
DRG
  6
CONTINUOUS
 62
     7
 10
71.473069738966913
 20
20.148186008431999
 30
0.0
 11
47.275949076660687
 21
20.148186008431932
 31
0.0
 12
69.993987737777644
 22
18.669104007242741
 32
0.0
 13
69.993987737777644
 23
18.669104007242741
 33
0.0
210
0.0
220
0.0
230
1.0
  0
SOLID
  5
557
  8
DRG
  6
CONTINUOUS
 62
     7
 10
168.2848180112324
 20
20.148186008431999
 30
0.0
 11
145.56677935011541
 21
18.669104007242751
 31
0.0
 12
166.80573601004309
 22
18.669104007242741
 32
0.0
 13
166.80573601004309
 23
18.669104007242741
 33
0.0
210
0.0
220
0.0
230
1.0
  0
SOLID
  5
558
  8
DRG
  6
CONTINUOUS
 62
     7
 10
144.0876973489261
 20
20.14818600843201
 30
0.0
 11
145.56677935011541
 21
18.669104007242751
 31
0.0
 12
168.2848180112324
 22
20.148186008431999
 32
0.0
 13
168.2848180112324
 23
20.148186008431999
 33
0.0
  0
SOLID
  5
559
  8
DRG
  6
CONTINUOUS
 62
     7
 10
23.40031659456379
 20
20.41223194613077
 30
0.0
 11
14.3065739834735
 21
19.93798252829114
 31
0.0
 12
21.895927098915749
 22
19.624186812635841
 32
0.0
 13
21.895927098915749
 23
19.624186812635841
 33
0.0
210
0.0
220
0.0
230
1.0
  0
SOLID
  5
55A
  8
DRG
  6
CONTINUOUS
 62
     7
 10
84.027895067150837
 20
20.41802219979682
 30
0.0
 11
85.398663329684837
 21
18.95474449545469
 31
0.0
 12
98.426543494326594
 22
19.34622686195554
 32
0.0
 13
98.426543494326594
 23
19.34622686195554
 33
0.0
210
0.0
220
0.0
230
1.0
  0
SOLID
  5
55B
  8
DRG
  6
CONTINUOUS
 62
     7
 10
99.896639117703884
 20
20.522111389421919
 30
0.0
 11
84.027895067150837
 21
20.41802219979682
 31
0.0
 12
98.426543494326594
 22
19.34622686195554
 32
0.0
 13
98.426543494326594
 23
19.34622686195554
 33
0.0
210
0.0
220
0.0
230
1.0
  0
SOLID
  5
55C
  8
DRG
  6
CONTINUOUS
 62
     7
 10
111.2870334115631
 20
20.69438210209054
 30
0.0
 11
102.3181837587821
 21
19.484710699009419
 31
0.0
 12
111.8021775281067
 22
17.893521203552009
 32
0.0
 13
111.8021775281067
 23
17.893521203552009
 33
0.0
210
0.0
220
0.0
230
1.0
  0
SOLID
  5
55D
  8
DRG
  6
CONTINUOUS
 62
     7
 10
12.373833010119119
 20
20.997808880420081
 30
0.0
 11
14.3065739834735
 21
19.93798252829114
 31
0.0
 12
23.40031659456379
 22
20.41223194613077
 32
0.0
 13
23.40031659456379
 23
20.41223194613077
 33
0.0
210
0.0
220
0.0
230
1.0
  0
SOLID
  5
55E
  8
DRG
  6
CONTINUOUS
 62
     7
 10
102.1211660476033
 20
21.102600968374279
 30
0.0
 11
102.3181837587821
 21
19.484710699009419
 31
0.0
 12
111.2870334115631
 22
20.69438210209054
 32
0.0
 13
111.2870334115631
 23
20.69438210209054
 33
0.0
210
0.0
220
0.0
230
1.0
  0
SOLID
  5
55F
  8
DRG
  6
CONTINUOUS
 62
     7
 10
24.732069813226289
 20
21.466099229816571
 30
0.0
 11
12.373833010119119
 21
20.997808880420081
 31
0.0
 12
23.40031659456379
 22
20.41223194613077
 32
0.0
 13
23.40031659456379
 23
20.41223194613077
 33
0.0
  0
SOLID
  5
560
  8
DRG
  6
CONTINUOUS
 62
     7
 10
46.076177548675162
 20
21.861637324670369
 30
0.0
 11
47.275949076660687
 21
20.148186008431932
 31
0.0
 12
71.473069738966913
 22
20.148186008431999
 32
0.0
 13
71.473069738966913
 23
20.148186008431999
 33
0.0
  0
SOLID
  5
561
  8
DRG
  6
CONTINUOUS
 62
     7
 10
72.672841266952446
 20
21.861637324670479
 30
0.0
 11
46.076177548675162
 21
21.861637324670369
 31
0.0
 12
71.473069738966913
 22
20.148186008431999
 32
0.0
 13
71.473069738966913
 23
20.148186008431999
 33
0.0
210
0.0
220
0.0
230
1.0
  0
SOLID
  5
562
  8
DRG
  6
CONTINUOUS
 62
     7
 10
169.48458953921789
 20
21.861637324670479
 30
0.0
 11
144.0876973489261
 21
20.14818600843201
 31
0.0
 12
168.2848180112324
 22
20.148186008431999
 32
0.0
 13
168.2848180112324
 23
20.148186008431999
 33
0.0
210
0.0
220
0.0
230
1.0
  0
SOLID
  5
563
  8
DRG
  6
CONTINUOUS
 62
     7
 10
142.88792582094061
 20
21.861637324670479
 30
0.0
 11
144.0876973489261
 21
20.14818600843201
 31
0.0
 12
169.48458953921789
 22
21.861637324670479
 32
0.0
 13
169.48458953921789
 23
21.861637324670479
 33
0.0
210
0.0
220
0.0
230
1.0
  0
SOLID
  5
564
  8
DRG
  6
CONTINUOUS
 62
     7
 10
101.14072764655459
 20
21.93495578856496
 30
0.0
 11
84.027895067150837
 21
20.41802219979682
 31
0.0
 12
99.896639117703884
 22
20.522111389421919
 32
0.0
 13
99.896639117703884
 23
20.522111389421919
 33
0.0
210
0.0
220
0.0
230
1.0
  0
SOLID
  5
565
  8
DRG
  6
CONTINUOUS
 62
     7
 10
82.919900870315985
 20
22.089110506672171
 30
0.0
 11
84.027895067150837
 21
20.41802219979682
 31
0.0
 12
101.14072764655459
 22
21.93495578856496
 32
0.0
 13
101.14072764655459
 23
21.93495578856496
 33
0.0
  0
SOLID
  5
566
  8
DRG
  6
CONTINUOUS
 62
     7
 10
10.665263297999569
 20
22.39047147616159
 30
0.0
 11
12.373833010119119
 21
20.997808880420081
 31
0.0
 12
24.732069813226289
 22
21.466099229816571
 32
0.0
 13
24.732069813226289
 23
21.466099229816571
 33
0.0
210
0.0
220
0.0
230
1.0
  0
SOLID
  5
567
  8
DRG
  6
CONTINUOUS
 62
     7
 10
25.844798136495001
 20
22.74907957480897
 30
0.0
 11
10.665263297999569
 21
22.39047147616159
 31
0.0
 12
24.732069813226289
 22
21.466099229816571
 32
0.0
 13
24.732069813226289
 23
21.466099229816571
 33
0.0
210
0.0
220
0.0
230
1.0
  0
SOLID
  5
568
  8
DRG
  6
CONTINUOUS
 62
     7
 10
111.2523129779601
 20
23.54201089202471
 30
0.0
 11
102.1211660476033
 21
21.102600968374279
 31
0.0
 12
111.2870334115631
 22
20.69438210209054
 32
0.0
 13
111.2870334115631
 23
20.69438210209054
 33
0.0
210
0.0
220
0.0
230
1.0
  0
SOLID
  5
569
  8
DRG
  6
CONTINUOUS
 62
     7
 10
102.1211660476033
 20
23.542010892025001
 30
0.0
 11
82.919900870315985
 21
22.089110506672171
 31
0.0
 12
101.14072764655459
 22
21.93495578856496
 32
0.0
 13
101.14072764655459
 23
21.93495578856496
 33
0.0
210
0.0
220
0.0
230
1.0
  0
SOLID
  5
56A
  8
DRG
  6
CONTINUOUS
 62
     7
 10
102.1211660476033
 20
23.542010892025001
 30
0.0
 11
102.1211660476033
 21
21.102600968374279
 31
0.0
 12
111.2523129779601
 22
23.54201089202471
 32
0.0
 13
111.2523129779601
 23
23.54201089202471
 33
0.0
210
0.0
220
0.0
230
1.0
  0
SOLID
  5
56B
  8
DRG
  6
CONTINUOUS
 62
     7
 10
45.192170944657512
 20
23.757395604762319
 30
0.0
 11
46.076177548675162
 21
21.861637324670369
 31
0.0
 12
72.672841266952446
 22
21.861637324670479
 32
0.0
 13
72.672841266952446
 23
21.861637324670479
 33
0.0
210
0.0
220
0.0
230
1.0
  0
SOLID
  5
56C
  8
DRG
  6
CONTINUOUS
 62
     7
 10
73.556847870970074
 20
23.757395604762451
 30
0.0
 11
45.192170944657512
 21
23.757395604762319
 31
0.0
 12
72.672841266952446
 22
21.861637324670479
 32
0.0
 13
72.672841266952446
 23
21.861637324670479
 33
0.0
210
0.0
220
0.0
230
1.0
  0
SOLID
  5
56D
  8
DRG
  6
CONTINUOUS
 62
     7
 10
170.36859614323549
 20
23.757395604762451
 30
0.0
 11
142.88792582094061
 21
21.861637324670479
 31
0.0
 12
169.48458953921789
 22
21.861637324670479
 32
0.0
 13
169.48458953921789
 23
21.861637324670479
 33
0.0
210
0.0
220
0.0
230
1.0
  0
SOLID
  5
56E
  8
DRG
  6
CONTINUOUS
 62
     7
 10
142.0039192169229
 20
23.757395604762451
 30
0.0
 11
142.88792582094061
 21
21.861637324670479
 31
0.0
 12
170.36859614323549
 22
23.757395604762451
 32
0.0
 13
170.36859614323549
 23
23.757395604762451
 33
0.0
  0
SOLID
  5
56F
  8
DRG
  6
CONTINUOUS
 62
     7
 10
95.863486513980718
 20
23.758749615986972
 30
0.0
 11
102.1211660476033
 21
23.542010892025001
 31
0.0
 12
111.2523129779601
 22
23.54201089202471
 32
0.0
 13
111.2523129779601
 23
23.54201089202471
 33
0.0
210
0.0
220
0.0
230
1.0
  0
SOLID
  5
570
  8
DRG
  6
CONTINUOUS
 62
     7
 10
95.863486513980718
 20
23.758749615986972
 30
0.0
 11
82.919900870315985
 21
22.089110506672171
 31
0.0
 12
102.1211660476033
 22
23.542010892025001
 32
0.0
 13
102.1211660476033
 23
23.542010892025001
 33
0.0
210
0.0
220
0.0
230
1.0
  0
SOLID
  5
571
  8
DRG
  6
CONTINUOUS
 62
     7
 10
156.18625891463009
 20
23.758749615986972
 30
0.0
 11
142.0039192169229
 21
23.757395604762451
 31
0.0
 12
170.36859614323549
 22
23.757395604762451
 32
0.0
 13
170.36859614323549
 23
23.757395604762451
 33
0.0
210
0.0
220
0.0
230
1.0
  0
SOLID
  5
572
  8
DRG
  6
CONTINUOUS
 62
     7
 10
59.374510642364612
 20
23.758749615986979
 30
0.0
 11
45.192170944657512
 21
23.757395604762319
 31
0.0
 12
73.556847870970074
 22
23.757395604762451
 32
0.0
 13
73.556847870970074
 23
23.757395604762451
 33
0.0
210
0.0
220
0.0
230
1.0
  0
SOLID
  5
573
  8
DRG
  6
CONTINUOUS
 62
     7
 10
82.105613684769864
 20
23.921356027624689
 30
0.0
 11
82.919900870315985
 21
22.089110506672171
 31
0.0
 12
95.863486513980718
 22
23.758749615986972
 32
0.0
 13
95.863486513980718
 23
23.758749615986972
 33
0.0
  0
SOLID
  5
574
  8
DRG
  6
CONTINUOUS
 62
     7
 10
154.99308270534181
 20
23.947730162103639
 30
0.0
 11
142.0039192169229
 21
23.757395604762451
 31
0.0
 12
156.18625891463009
 22
23.758749615986972
 32
0.0
 13
156.18625891463009
 23
23.758749615986972
 33
0.0
210
0.0
220
0.0
230
1.0
  0
SOLID
  5
575
  8
DRG
  6
CONTINUOUS
 62
     7
 10
157.3794351239184
 20
23.947730162103639
 30
0.0
 11
156.18625891463009
 21
23.758749615986972
 31
0.0
 12
170.36859614323549
 22
23.757395604762451
 32
0.0
 13
170.36859614323549
 23
23.757395604762451
 33
0.0
210
0.0
220
0.0
230
1.0
  0
SOLID
  5
576
  8
DRG
  6
CONTINUOUS
 62
     7
 10
58.18133443307633
 20
23.94773016210365
 30
0.0
 11
45.192170944657512
 21
23.757395604762319
 31
0.0
 12
59.374510642364612
 22
23.758749615986979
 32
0.0
 13
59.374510642364612
 23
23.758749615986979
 33
0.0
210
0.0
220
0.0
230
1.0
  0
SOLID
  5
577
  8
DRG
  6
CONTINUOUS
 62
     7
 10
60.567686851652887
 20
23.94773016210365
 30
0.0
 11
59.374510642364612
 21
23.758749615986979
 31
0.0
 12
73.556847870970074
 22
23.757395604762451
 32
0.0
 13
73.556847870970074
 23
23.757395604762451
 33
0.0
210
0.0
220
0.0
230
1.0
  0
SOLID
  5
578
  8
DRG
  6
CONTINUOUS
 62
     7
 10
94.670310304692478
 20
23.947730162103682
 30
0.0
 11
82.105613684769864
 21
23.921356027624689
 31
0.0
 12
95.863486513980718
 22
23.758749615986972
 32
0.0
 13
95.863486513980718
 23
23.758749615986972
 33
0.0
210
0.0
220
0.0
230
1.0
  0
SOLID
  5
579
  8
DRG
  6
CONTINUOUS
 62
     7
 10
97.173405164404457
 20
23.979508094530029
 30
0.0
 11
95.863486513980718
 21
23.758749615986972
 31
0.0
 12
111.2523129779601
 22
23.54201089202471
 32
0.0
 13
111.2523129779601
 23
23.54201089202471
 33
0.0
210
0.0
220
0.0
230
1.0
  0
SOLID
  5
57A
  8
DRG
  6
CONTINUOUS
 62
     7
 10
9.2374920352641645
 20
24.069813248421411
 30
0.0
 11
10.665263297999569
 21
22.39047147616159
 31
0.0
 12
25.844798136495001
 22
22.74907957480897
 32
0.0
 13
25.844798136495001
 23
22.74907957480897
 33
0.0
  0
SOLID
  5
57B
  8
DRG
  6
CONTINUOUS
 62
     7
 10
26.699742183985649
 20
24.216483255703061
 30
0.0
 11
9.2374920352641645
 21
24.069813248421411
 31
0.0
 12
25.844798136495001
 22
22.74907957480897
 32
0.0
 13
25.844798136495001
 23
22.74907957480897
 33
0.0
210
0.0
220
0.0
230
1.0
  0
SOLID
  5
57C
  8
DRG
  6
CONTINUOUS
 62
     7
 10
98.402359265448993
 20
24.483782815394029
 30
0.0
 11
97.173405164404457
 21
23.979508094530029
 31
0.0
 12
111.2523129779601
 22
23.54201089202471
 32
0.0
 13
111.2523129779601
 23
23.54201089202471
 33
0.0
210
0.0
220
0.0
230
1.0
  0
SOLID
  5
57D
  8
DRG
  6
CONTINUOUS
 62
     7
 10
153.91670289676611
 20
24.49617306789488
 30
0.0
 11
142.0039192169229
 21
23.757395604762451
 31
0.0
 12
154.99308270534181
 22
23.947730162103639
 32
0.0
 13
154.99308270534181
 23
23.947730162103639
 33
0.0
  0
SOLID
  5
57E
  8
DRG
  6
CONTINUOUS
 62
     7
 10
158.45581493249401
 20
24.49617306789488
 30
0.0
 11
157.3794351239184
 21
23.947730162103639
 31
0.0
 12
170.36859614323549
 22
23.757395604762451
 32
0.0
 13
170.36859614323549
 23
23.757395604762451
 33
0.0
210
0.0
220
0.0
230
1.0
  0
SOLID
  5
57F
  8
DRG
  6
CONTINUOUS
 62
     7
 10
57.104954624500678
 20
24.49617306789489
 30
0.0
 11
45.192170944657512
 21
23.757395604762319
 31
0.0
 12
58.18133443307633
 22
23.94773016210365
 32
0.0
 13
58.18133443307633
 23
23.94773016210365
 33
0.0
210
0.0
220
0.0
230
1.0
  0
SOLID
  5
580
  8
DRG
  6
CONTINUOUS
 62
     7
 10
61.64406666022856
 20
24.49617306789489
 30
0.0
 11
60.567686851652887
 21
23.94773016210365
 31
0.0
 12
73.556847870970074
 22
23.757395604762451
 32
0.0
 13
73.556847870970074
 23
23.757395604762451
 33
0.0
210
0.0
220
0.0
230
1.0
  0
SOLID
  5
581
  8
DRG
  6
CONTINUOUS
 62
     7
 10
93.593930496116869
 20
24.496173067894951
 30
0.0
 11
82.105613684769864
 21
23.921356027624689
 31
0.0
 12
94.670310304692478
 22
23.947730162103682
 32
0.0
 13
94.670310304692478
 23
23.947730162103682
 33
0.0
210
0.0
220
0.0
230
1.0
  0
SOLID
  5
582
  8
DRG
  6
CONTINUOUS
 62
     7
 10
99.489802543822094
 20
25.246729925551559
 30
0.0
 11
98.402359265448993
 21
24.483782815394029
 31
0.0
 12
111.2523129779601
 22
23.54201089202471
 32
0.0
 13
111.2523129779601
 23
23.54201089202471
 33
0.0
210
0.0
220
0.0
230
1.0
  0
SOLID
  5
583
  8
DRG
  6
CONTINUOUS
 62
     7
 10
153.06248304414561
 20
25.350392920515421
 30
0.0
 11
142.0039192169229
 21
23.757395604762451
 31
0.0
 12
153.91670289676611
 22
24.49617306789488
 32
0.0
 13
153.91670289676611
 23
24.49617306789488
 33
0.0
  0
SOLID
  5
584
  8
DRG
  6
CONTINUOUS
 62
     7
 10
159.3100347851146
 20
25.350392920515429
 30
0.0
 11
158.45581493249401
 21
24.49617306789488
 31
0.0
 12
170.36859614323549
 22
23.757395604762451
 32
0.0
 13
170.36859614323549
 23
23.757395604762451
 33
0.0
210
0.0
220
0.0
230
1.0
  0
SOLID
  5
585
  8
DRG
  6
CONTINUOUS
 62
     7
 10
56.250734771880133
 20
25.350392920515429
 30
0.0
 11
45.192170944657512
 21
23.757395604762319
 31
0.0
 12
57.104954624500678
 22
24.49617306789489
 32
0.0
 13
57.104954624500678
 23
24.49617306789489
 33
0.0
210
0.0
220
0.0
230
1.0
  0
SOLID
  5
586
  8
DRG
  6
CONTINUOUS
 62
     7
 10
62.498286512849091
 20
25.350392920515429
 30
0.0
 11
61.64406666022856
 21
24.49617306789489
 31
0.0
 12
73.556847870970074
 22
23.757395604762451
 32
0.0
 13
73.556847870970074
 23
23.757395604762451
 33
0.0
  0
SOLID
  5
587
  8
DRG
  6
CONTINUOUS
 62
     7
 10
92.739710643496366
 20
25.350392920515478
 30
0.0
 11
82.105613684769864
 21
23.921356027624689
 31
0.0
 12
93.593930496116869
 22
24.496173067894951
 32
0.0
 13
93.593930496116869
 23
24.496173067894951
 33
0.0
210
0.0
220
0.0
230
1.0
  0
SOLID
  5
588
  8
DRG
  6
CONTINUOUS
 62
     7
 10
22.683854862926161
 20
25.455509253088579
 30
0.0
 11
9.2374920352641645
 21
24.069813248421411
 31
0.0
 12
26.699742183985649
 22
24.216483255703061
 32
0.0
 13
26.699742183985649
 23
24.216483255703061
 33
0.0
210
0.0
220
0.0
230
1.0
  0
SOLID
  5
589
  8
DRG
  6
CONTINUOUS
 62
     7
 10
21.324900358829058
 20
25.598514200010129
 30
0.0
 11
9.2374920352641645
 21
24.069813248421411
 31
0.0
 12
22.683854862926161
 22
25.455509253088579
 32
0.0
 13
22.683854862926161
 23
25.455509253088579
 33
0.0
210
0.0
220
0.0
230
1.0
  0
SOLID
  5
58A
  8
DRG
  6
CONTINUOUS
 62
     7
 10
44.650789357941903
 20
25.777859192667162
 30
0.0
 11
45.192170944657512
 21
23.757395604762319
 31
0.0
 12
56.250734771880133
 22
25.350392920515429
 32
0.0
 13
56.250734771880133
 23
25.350392920515429
 33
0.0
  0
SOLID
  5
58B
  8
DRG
  6
CONTINUOUS
 62
     7
 10
74.098229457685676
 20
25.777859192667311
 30
0.0
 11
62.498286512849091
 21
25.350392920515429
 31
0.0
 12
73.556847870970074
 22
23.757395604762451
 32
0.0
 13
73.556847870970074
 23
23.757395604762451
 33
0.0
210
0.0
220
0.0
230
1.0
  0
SOLID
  5
58C
  8
DRG
  6
CONTINUOUS
 62
     7
 10
170.90997772995109
 20
25.777859192667311
 30
0.0
 11
159.3100347851146
 21
25.350392920515429
 31
0.0
 12
170.36859614323549
 22
23.757395604762451
 32
0.0
 13
170.36859614323549
 23
23.757395604762451
 33
0.0
210
0.0
220
0.0
230
1.0
  0
SOLID
  5
58D
  8
DRG
  6
CONTINUOUS
 62
     7
 10
141.46253763020729
 20
25.777859192667322
 30
0.0
 11
142.0039192169229
 21
23.757395604762451
 31
0.0
 12
153.06248304414561
 22
25.350392920515421
 32
0.0
 13
153.06248304414561
 23
25.350392920515421
 33
0.0
  0
SOLID
  5
58E
  8
DRG
  6
CONTINUOUS
 62
     7
 10
27.267121908897021
 20
25.817196576320061
 30
0.0
 11
22.683854862926161
 21
25.455509253088579
 31
0.0
 12
26.699742183985649
 22
24.216483255703061
 32
0.0
 13
26.699742183985649
 23
24.216483255703061
 33
0.0
210
0.0
220
0.0
230
1.0
  0
SOLID
  5
58F
  8
DRG
  6
CONTINUOUS
 62
     7
 10
27.267121908897021
 20
25.817196576320061
 30
0.0
 11
27.267121908897021
 21
13.51984597021351
 31
0.0
 12
37.639779947293839
 22
13.760967175618781
 32
0.0
 13
37.639779947293839
 23
13.760967175618781
 33
0.0
  0
SOLID
  5
590
  8
DRG
  6
CONTINUOUS
 62
     7
 10
81.607766753409166
 20
25.863606192389771
 30
0.0
 11
82.105613684769864
 21
23.921356027624689
 31
0.0
 12
92.739710643496366
 22
25.350392920515478
 32
0.0
 13
92.739710643496366
 23
25.350392920515478
 33
0.0
210
0.0
220
0.0
230
1.0
  0
SOLID
  5
591
  8
DRG
  6
CONTINUOUS
 62
     7
 10
8.1378398968350787
 20
25.98017571172468
 30
0.0
 11
9.2374920352641645
 21
24.069813248421411
 31
0.0
 12
21.324900358829058
 22
25.598514200010129
 32
0.0
 13
21.324900358829058
 23
25.598514200010129
 33
0.0
210
0.0
220
0.0
230
1.0
  0
SOLID
  5
592
  8
DRG
  6
CONTINUOUS
 62
     7
 10
24.051224454271221
 20
25.98993993797998
 30
0.0
 11
22.683854862926161
 21
25.455509253088579
 31
0.0
 12
27.267121908897021
 22
25.817196576320061
 32
0.0
 13
27.267121908897021
 23
25.817196576320061
 33
0.0
210
0.0
220
0.0
230
1.0
  0
SOLID
  5
593
  8
DRG
  6
CONTINUOUS
 62
     7
 10
20.047581694184561
 20
26.08396737797953
 30
0.0
 11
8.1378398968350787
 21
25.98017571172468
 31
0.0
 12
21.324900358829058
 22
25.598514200010129
 32
0.0
 13
21.324900358829058
 23
25.598514200010129
 33
0.0
  0
SOLID
  5
594
  8
DRG
  6
CONTINUOUS
 62
     7
 10
100.382160469876
 20
26.230761687429851
 30
0.0
 11
99.489802543822094
 21
25.246729925551559
 31
0.0
 12
111.2523129779601
 22
23.54201089202471
 32
0.0
 13
111.2523129779601
 23
23.54201089202471
 33
0.0
210
0.0
220
0.0
230
1.0
  0
SOLID
  5
595
  8
DRG
  6
CONTINUOUS
 62
     7
 10
152.5140401383544
 20
26.426772729091081
 30
0.0
 11
141.46253763020729
 21
25.777859192667322
 31
0.0
 12
153.06248304414561
 22
25.350392920515421
 32
0.0
 13
153.06248304414561
 23
25.350392920515421
 33
0.0
  0
SOLID
  5
596
  8
DRG
  6
CONTINUOUS
 62
     7
 10
159.8584776909058
 20
26.426772729091081
 30
0.0
 11
159.3100347851146
 21
25.350392920515429
 31
0.0
 12
170.90997772995109
 22
25.777859192667311
 32
0.0
 13
170.90997772995109
 23
25.777859192667311
 33
0.0
210
0.0
220
0.0
230
1.0
  0
SOLID
  5
597
  8
DRG
  6
CONTINUOUS
 62
     7
 10
55.702291866088899
 20
26.426772729091091
 30
0.0
 11
44.650789357941903
 21
25.777859192667162
 31
0.0
 12
56.250734771880133
 22
25.350392920515429
 32
0.0
 13
56.250734771880133
 23
25.350392920515429
 33
0.0
210
0.0
220
0.0
230
1.0
  0
SOLID
  5
598
  8
DRG
  6
CONTINUOUS
 62
     7
 10
63.046729418640332
 20
26.426772729091091
 30
0.0
 11
62.498286512849091
 21
25.350392920515429
 31
0.0
 12
74.098229457685676
 22
25.777859192667311
 32
0.0
 13
74.098229457685676
 23
25.777859192667311
 33
0.0
210
0.0
220
0.0
230
1.0
  0
SOLID
  5
599
  8
DRG
  6
CONTINUOUS
 62
     7
 10
92.191267737705175
 20
26.426772729091109
 30
0.0
 11
81.607766753409166
 21
25.863606192389771
 31
0.0
 12
92.739710643496366
 22
25.350392920515478
 32
0.0
 13
92.739710643496366
 23
25.350392920515478
 33
0.0
210
0.0
220
0.0
230
1.0
  0
SOLID
  5
59A
  8
DRG
  6
CONTINUOUS
 62
     7
 10
25.258677615930779
 20
26.825028327725018
 30
0.0
 11
24.051224454271221
 21
25.98993993797998
 31
0.0
 12
27.267121908897021
 22
25.817196576320061
 32
0.0
 13
27.267121908897021
 23
25.817196576320061
 33
0.0
210
0.0
220
0.0
230
1.0
  0
SOLID
  5
59B
  8
DRG
  6
CONTINUOUS
 62
     7
 10
18.936680407078839
 20
26.879647017882871
 30
0.0
 11
8.1378398968350787
 21
25.98017571172468
 31
0.0
 12
20.047581694184561
 22
26.08396737797953
 32
0.0
 13
20.047581694184561
 23
26.08396737797953
 33
0.0
210
0.0
220
0.0
230
1.0
  0
SOLID
  5
59C
  8
DRG
  6
CONTINUOUS
 62
     7
 10
101.0354696874371
 20
27.38739829536954
 30
0.0
 11
100.382160469876
 21
26.230761687429851
 31
0.0
 12
111.2523129779601
 22
23.54201089202471
 32
0.0
 13
111.2523129779601
 23
23.54201089202471
 33
0.0
210
0.0
220
0.0
230
1.0
  0
SOLID
  5
59D
  8
DRG
  6
CONTINUOUS
 62
     7
 10
92.002287191588479
 20
27.619948938379359
 30
0.0
 11
81.607766753409166
 21
25.863606192389771
 31
0.0
 12
92.191267737705175
 22
26.426772729091109
 32
0.0
 13
92.191267737705175
 23
26.426772729091109
 33
0.0
  0
SOLID
  5
59E
  8
DRG
  6
CONTINUOUS
 62
     7
 10
152.32505959223769
 20
27.619948938379359
 30
0.0
 11
141.46253763020729
 21
25.777859192667322
 31
0.0
 12
152.5140401383544
 22
26.426772729091081
 32
0.0
 13
152.5140401383544
 23
26.426772729091081
 33
0.0
210
0.0
220
0.0
230
1.0
  0
SOLID
  5
59F
  8
DRG
  6
CONTINUOUS
 62
     7
 10
160.04745823702251
 20
27.619948938379359
 30
0.0
 11
159.8584776909058
 21
26.426772729091081
 31
0.0
 12
170.90997772995109
 22
25.777859192667311
 32
0.0
 13
170.90997772995109
 23
25.777859192667311
 33
0.0
210
0.0
220
0.0
230
1.0
  0
SOLID
  5
5A0
  8
DRG
  6
CONTINUOUS
 62
     7
 10
55.513311319972217
 20
27.61994893837937
 30
0.0
 11
44.650789357941903
 21
25.777859192667162
 31
0.0
 12
55.702291866088899
 22
26.426772729091091
 32
0.0
 13
55.702291866088899
 23
26.426772729091091
 33
0.0
210
0.0
220
0.0
230
1.0
  0
SOLID
  5
5A1
  8
DRG
  6
CONTINUOUS
 62
     7
 10
63.235709964757007
 20
27.61994893837937
 30
0.0
 11
63.046729418640332
 21
26.426772729091091
 31
0.0
 12
74.098229457685676
 22
25.777859192667311
 32
0.0
 13
74.098229457685676
 23
25.777859192667311
 33
0.0
210
0.0
220
0.0
230
1.0
  0
SOLID
  5
5A2
  8
DRG
  6
CONTINUOUS
 62
     7
 10
44.468482394088362
 20
27.861637324670291
 30
0.0
 11
44.650789357941903
 21
25.777859192667162
 31
0.0
 12
55.513311319972217
 22
27.61994893837937
 32
0.0
 13
55.513311319972217
 23
27.61994893837937
 33
0.0
  0
SOLID
  5
5A3
  8
DRG
  6
CONTINUOUS
 62
     7
 10
74.280536421539182
 20
27.861637324670479
 30
0.0
 11
63.235709964757007
 21
27.61994893837937
 31
0.0
 12
74.098229457685676
 22
25.777859192667311
 32
0.0
 13
74.098229457685676
 23
25.777859192667311
 33
0.0
210
0.0
220
0.0
230
1.0
  0
SOLID
  5
5A4
  8
DRG
  6
CONTINUOUS
 62
     7
 10
171.0922846938046
 20
27.861637324670479
 30
0.0
 11
160.04745823702251
 21
27.619948938379359
 31
0.0
 12
170.90997772995109
 22
25.777859192667311
 32
0.0
 13
170.90997772995109
 23
25.777859192667311
 33
0.0
210
0.0
220
0.0
230
1.0
  0
SOLID
  5
5A5
  8
DRG
  6
CONTINUOUS
 62
     7
 10
141.28023066635379
 20
27.861637324670479
 30
0.0
 11
141.46253763020729
 21
25.777859192667322
 31
0.0
 12
152.32505959223769
 22
27.619948938379359
 32
0.0
 13
152.32505959223769
 23
27.619948938379359
 33
0.0
  0
SOLID
  5
5A6
  8
DRG
  6
CONTINUOUS
 62
     7
 10
81.440258950509346
 20
27.861637324670479
 30
0.0
 11
81.607766753409166
 21
25.863606192389771
 31
0.0
 12
92.002287191588479
 22
27.619948938379359
 32
0.0
 13
92.002287191588479
 23
27.619948938379359
 33
0.0
210
0.0
220
0.0
230
1.0
  0
SOLID
  5
5A7
  8
DRG
  6
CONTINUOUS
 62
     7
 10
26.241246459003619
 20
27.915841888747771
 30
0.0
 11
25.258677615930779
 21
26.825028327725018
 31
0.0
 12
27.267121908897021
 22
25.817196576320061
 32
0.0
 13
27.267121908897021
 23
25.817196576320061
 33
0.0
210
0.0
220
0.0
230
1.0
  0
SOLID
  5
5A8
  8
DRG
  6
CONTINUOUS
 62
     7
 10
26.241246459003619
 20
27.915841888747771
 30
0.0
 11
27.267121908897021
 21
25.817196576320061
 31
0.0
 12
37.639779947293839
 22
13.760967175618781
 32
0.0
 13
37.639779947293839
 23
13.760967175618781
 33
0.0
210
0.0
220
0.0
230
1.0
  0
SOLID
  5
5A9
  8
DRG
  6
CONTINUOUS
 62
     7
 10
18.065932145780231
 20
27.932740187785338
 30
0.0
 11
8.1378398968350787
 21
25.98017571172468
 31
0.0
 12
18.936680407078839
 22
26.879647017882871
 32
0.0
 13
18.936680407078839
 23
26.879647017882871
 33
0.0
  0
SOLID
  5
5AA
  8
DRG
  6
CONTINUOUS
 62
     7
 10
7.4027526935562689
 20
28.058243653425698
 30
0.0
 11
8.1378398968350787
 21
25.98017571172468
 31
0.0
 12
18.065932145780231
 22
27.932740187785338
 32
0.0
 13
18.065932145780231
 23
27.932740187785338
 33
0.0
210
0.0
220
0.0
230
1.0
  0
SOLID
  5
5AB
  8
DRG
  6
CONTINUOUS
 62
     7
 10
101.4175439347101
 20
28.659656306209889
 30
0.0
 11
101.0354696874371
 21
27.38739829536954
 31
0.0
 12
111.2523129779601
 22
23.54201089202471
 32
0.0
 13
111.2523129779601
 23
23.54201089202471
 33
0.0
210
0.0
220
0.0
230
1.0
  0
SOLID
  5
5AC
  8
DRG
  6
CONTINUOUS
 62
     7
 10
17.493132493272189
 20
29.17334823109978
 30
0.0
 11
7.4027526935562689
 21
28.058243653425698
 31
0.0
 12
18.065932145780231
 22
27.932740187785338
 32
0.0
 13
18.065932145780231
 23
27.932740187785338
 33
0.0
210
0.0
220
0.0
230
1.0
  0
SOLID
  5
5AD
  8
DRG
  6
CONTINUOUS
 62
     7
 10
26.946063157671311
 20
29.203688610049579
 30
0.0
 11
26.241246459003619
 21
27.915841888747771
 31
0.0
 12
37.639779947293839
 22
13.760967175618781
 32
0.0
 13
37.639779947293839
 23
13.760967175618781
 33
0.0
210
0.0
220
0.0
230
1.0
  0
SOLID
  5
5AE
  8
DRG
  6
CONTINUOUS
 62
     7
 10
160.04745823702251
 20
29.300230626583549
 30
0.0
 11
160.04745823702251
 21
27.619948938379359
 31
0.0
 12
171.0922846938046
 22
27.861637324670479
 32
0.0
 13
171.0922846938046
 23
27.861637324670479
 33
0.0
210
0.0
220
0.0
230
1.0
  0
SOLID
  5
5AF
  8
DRG
  6
CONTINUOUS
 62
     7
 10
152.32505959223769
 20
29.959298931438969
 30
0.0
 11
141.28023066635379
 21
27.861637324670479
 31
0.0
 12
152.32505959223769
 22
27.619948938379359
 32
0.0
 13
152.32505959223769
 23
27.619948938379359
 33
0.0
210
0.0
220
0.0
230
1.0
  0
SOLID
  5
5B0
  8
DRG
  6
CONTINUOUS
 62
     7
 10
141.28023066635379
 20
29.95929893143898
 30
0.0
 11
141.28023066635379
 21
27.861637324670479
 31
0.0
 12
152.32505959223769
 22
29.959298931438969
 32
0.0
 13
152.32505959223769
 23
29.959298931438969
 33
0.0
210
0.0
220
0.0
230
1.0
  0
SOLID
  5
5B1
  8
DRG
  6
CONTINUOUS
 62
     7
 10
171.0922846938046
 20
29.95929893143904
 30
0.0
 11
160.04745823702251
 21
29.300230626583549
 31
0.0
 12
171.0922846938046
 22
27.861637324670479
 32
0.0
 13
171.0922846938046
 23
27.861637324670479
 33
0.0
210
0.0
220
0.0
230
1.0
  0
SOLID
  5
5B2
  8
DRG
  6
CONTINUOUS
 62
     7
 10
101.5095597489034
 20
29.984856014372749
 30
0.0
 11
101.4175439347101
 21
28.659656306209889
 31
0.0
 12
111.2523129779601
 22
23.54201089202471
 32
0.0
 13
111.2523129779601
 23
23.54201089202471
 33
0.0
  0
SOLID
  5
5B3
  8
DRG
  6
CONTINUOUS
 62
     7
 10
7.0565934473582743
 20
30.23514359210488
 30
0.0
 11
7.4027526935562689
 21
28.058243653425698
 31
0.0
 12
17.493132493272189
 22
29.17334823109978
 32
0.0
 13
17.493132493272189
 23
29.17334823109978
 33
0.0
210
0.0
220
0.0
230
1.0
  0
SOLID
  5
5B4
  8
DRG
  6
CONTINUOUS
 62
     7
 10
17.256300807526252
 20
30.5191262631974
 30
0.0
 11
7.0565934473582743
 21
30.23514359210488
 31
0.0
 12
17.493132493272189
 22
29.17334823109978
 32
0.0
 13
17.493132493272189
 23
29.17334823109978
 33
0.0
210
0.0
220
0.0
230
1.0
  0
SOLID
  5
5B5
  8
DRG
  6
CONTINUOUS
 62
     7
 10
159.3203063536362
 20
30.602411060542401
 30
0.0
 11
160.04745823702251
 21
29.300230626583549
 31
0.0
 12
171.0922846938046
 22
29.95929893143904
 32
0.0
 13
171.0922846938046
 23
29.95929893143904
 33
0.0
210
0.0
220
0.0
230
1.0
  0
SOLID
  5
5B6
  8
DRG
  6
CONTINUOUS
 62
     7
 10
27.335204540726242
 20
30.619274969224719
 30
0.0
 11
26.946063157671311
 21
29.203688610049579
 31
0.0
 12
37.639779947293839
 22
13.760967175618781
 32
0.0
 13
37.639779947293839
 23
13.760967175618781
 33
0.0
210
0.0
220
0.0
230
1.0
  0
SOLID
  5
5B7
  8
DRG
  6
CONTINUOUS
 62
     7
 10
63.235709964757
 20
30.81688778835381
 30
0.0
 11
63.235709964757007
 21
27.61994893837937
 31
0.0
 12
74.280536421539182
 22
27.861637324670479
 32
0.0
 13
74.280536421539182
 23
27.861637324670479
 33
0.0
210
0.0
220
0.0
230
1.0
  0
SOLID
  5
5B8
  8
DRG
  6
CONTINUOUS
 62
     7
 10
74.280536421539196
 20
30.816887788353831
 30
0.0
 11
63.235709964757
 21
30.81688778835381
 31
0.0
 12
74.280536421539182
 22
27.861637324670479
 32
0.0
 13
74.280536421539182
 23
27.861637324670479
 33
0.0
210
0.0
220
0.0
230
1.0
  0
SOLID
  5
5B9
  8
DRG
  6
CONTINUOUS
 62
     7
 10
158.32349423287391
 20
31.711820516063149
 30
0.0
 11
159.3203063536362
 21
30.602411060542401
 31
0.0
 12
171.0922846938046
 22
29.95929893143904
 32
0.0
 13
171.0922846938046
 23
29.95929893143904
 33
0.0
210
0.0
220
0.0
230
1.0
  0
SOLID
  5
5BA
  8
DRG
  6
CONTINUOUS
 62
     7
 10
170.59531301179811
 20
32.022254991939207
 30
0.0
 11
158.32349423287391
 21
31.711820516063149
 31
0.0
 12
171.0922846938046
 22
29.95929893143904
 32
0.0
 13
171.0922846938046
 23
29.95929893143904
 33
0.0
210
0.0
220
0.0
230
1.0
  0
SOLID
  5
5BB
  8
DRG
  6
CONTINUOUS
 62
     7
 10
27.387732575171409
 20
32.086434320449378
 30
0.0
 11
27.335204540726242
 21
30.619274969224719
 31
0.0
 12
37.639779947293839
 22
13.760967175618781
 32
0.0
 13
37.639779947293839
 23
13.760967175618781
 33
0.0
210
0.0
220
0.0
230
1.0
  0
SOLID
  5
5BC
  8
DRG
  6
CONTINUOUS
 62
     7
 10
81.440258950509346
 20
32.349374231810209
 30
0.0
 11
81.440258950509346
 21
27.861637324670479
 31
0.0
 12
92.002287191588479
 22
27.619948938379359
 32
0.0
 13
92.002287191588479
 23
27.619948938379359
 33
0.0
210
0.0
220
0.0
230
1.0
  0
SOLID
  5
5BD
  8
DRG
  6
CONTINUOUS
 62
     7
 10
157.10626025321309
 20
32.573658774007562
 30
0.0
 11
158.32349423287391
 21
31.711820516063149
 31
0.0
 12
170.59531301179811
 22
32.022254991939207
 32
0.0
 13
170.59531301179811
 23
32.022254991939207
 33
0.0
210
0.0
220
0.0
230
1.0
  0
SOLID
  5
5BE
  8
DRG
  6
CONTINUOUS
 62
     7
 10
92.002287191588479
 20
33.041326503689838
 30
0.0
 11
81.440258950509346
 21
32.349374231810209
 31
0.0
 12
92.002287191588479
 22
27.619948938379359
 32
0.0
 13
92.002287191588479
 23
27.619948938379359
 33
0.0
210
0.0
220
0.0
230
1.0
  0
SOLID
  5
5BF
  8
DRG
  6
CONTINUOUS
 62
     7
 10
155.72873071743231
 20
33.145354604103439
 30
0.0
 11
157.10626025321309
 21
32.573658774007562
 31
0.0
 12
170.59531301179811
 22
32.022254991939207
 32
0.0
 13
170.59531301179811
 23
32.022254991939207
 33
0.0
210
0.0
220
0.0
230
1.0
  0
SOLID
  5
5C0
  8
DRG
  6
CONTINUOUS
 62
     7
 10
44.202306277704807
 20
33.59256797502097
 30
0.0
 11
44.468482394088362
 21
27.861637324670291
 31
0.0
 12
55.513311319972217
 22
27.61994893837937
 32
0.0
 13
55.513311319972217
 23
27.61994893837937
 33
0.0
210
0.0
220
0.0
230
1.0
  0
SOLID
  5
5C1
  8
DRG
  6
CONTINUOUS
 62
     7
 10
169.7427452228327
 20
33.965421666594068
 30
0.0
 11
155.72873071743231
 21
33.145354604103439
 31
0.0
 12
170.59531301179811
 22
32.022254991939207
 32
0.0
 13
170.59531301179811
 23
32.022254991939207
 33
0.0
210
0.0
220
0.0
230
1.0
  0
SOLID
  5
5C2
  8
DRG
  6
CONTINUOUS
 62
     7
 10
152.98516973426729
 20
33.970446153339353
 30
0.0
 11
155.72873071743231
 21
33.145354604103439
 31
0.0
 12
169.7427452228327
 22
33.965421666594068
 32
0.0
 13
169.7427452228327
 23
33.965421666594068
 33
0.0
  0
SOLID
  5
5C3
  8
DRG
  6
CONTINUOUS
 62
     7
 10
92.479240148315725
 20
34.283253552925949
 30
0.0
 11
81.440258950509346
 21
32.349374231810209
 31
0.0
 12
92.002287191588479
 22
33.041326503689838
 32
0.0
 13
92.002287191588479
 23
33.041326503689838
 33
0.0
210
0.0
220
0.0
230
1.0
  0
SOLID
  5
5C4
  8
DRG
  6
CONTINUOUS
 62
     7
 10
81.889720670029405
 20
34.480133098094122
 30
0.0
 11
81.440258950509346
 21
32.349374231810209
 31
0.0
 12
92.479240148315725
 22
34.283253552925949
 32
0.0
 13
92.479240148315725
 23
34.283253552925949
 33
0.0
210
0.0
220
0.0
230
1.0
  0
SOLID
  5
5C5
  8
DRG
  6
CONTINUOUS
 62
     7
 10
150.3822216232935
 20
35.167343836745772
 30
0.0
 11
152.98516973426729
 21
33.970446153339353
 31
0.0
 12
169.7427452228327
 22
33.965421666594068
 32
0.0
 13
169.7427452228327
 23
33.965421666594068
 33
0.0
210
0.0
220
0.0
230
1.0
  0
SOLID
  5
5C6
  8
DRG
  6
CONTINUOUS
 62
     7
 10
93.226716747323209
 20
35.383774180852313
 30
0.0
 11
81.889720670029405
 21
34.480133098094122
 31
0.0
 12
92.479240148315725
 22
34.283253552925949
 32
0.0
 13
92.479240148315725
 23
34.283253552925949
 33
0.0
210
0.0
220
0.0
230
1.0
  0
SOLID
  5
5C7
  8
DRG
  6
CONTINUOUS
 62
     7
 10
55.513311319972232
 20
35.629722934820848
 30
0.0
 11
44.202306277704807
 21
33.59256797502097
 31
0.0
 12
55.513311319972217
 22
27.61994893837937
 32
0.0
 13
55.513311319972217
 23
27.61994893837937
 33
0.0
210
0.0
220
0.0
230
1.0
  0
SOLID
  5
5C8
  8
DRG
  6
CONTINUOUS
 62
     7
 10
168.56124046187799
 20
35.728037637278632
 30
0.0
 11
150.3822216232935
 21
35.167343836745772
 31
0.0
 12
169.7427452228327
 22
33.965421666594068
 32
0.0
 13
169.7427452228327
 23
33.965421666594068
 33
0.0
  0
SOLID
  5
5C9
  8
DRG
  6
CONTINUOUS
 62
     7
 10
94.205364320613299
 20
36.284948884141627
 30
0.0
 11
81.889720670029405
 21
34.480133098094122
 31
0.0
 12
93.226716747323209
 22
35.383774180852313
 32
0.0
 13
93.226716747323209
 23
35.383774180852313
 33
0.0
210
0.0
220
0.0
230
1.0
  0
SOLID
  5
5CA
  8
DRG
  6
CONTINUOUS
 62
     7
 10
82.716856812607475
 20
36.494579668545271
 30
0.0
 11
81.889720670029405
 21
34.480133098094122
 31
0.0
 12
94.205364320613299
 22
36.284948884141627
 32
0.0
 13
94.205364320613299
 23
36.284948884141627
 33
0.0
210
0.0
220
0.0
230
1.0
  0
SOLID
  5
5CB
  8
DRG
  6
CONTINUOUS
 62
     7
 10
147.96999619585119
 20
36.713005966762211
 30
0.0
 11
150.3822216232935
 21
35.167343836745772
 31
0.0
 12
168.56124046187799
 22
35.728037637278632
 32
0.0
 13
168.56124046187799
 23
35.728037637278632
 33
0.0
210
0.0
220
0.0
230
1.0
  0
SOLID
  5
5CC
  8
DRG
  6
CONTINUOUS
 62
     7
 10
95.363659659179305
 20
36.939333195698268
 30
0.0
 11
82.716856812607475
 21
36.494579668545271
 31
0.0
 12
94.205364320613299
 22
36.284948884141627
 32
0.0
 13
94.205364320613299
 23
36.284948884141627
 33
0.0
210
0.0
220
0.0
230
1.0
  0
SOLID
  5
5CD
  8
DRG
  6
CONTINUOUS
 62
     7
 10
167.087743468458
 20
37.254987266655156
 30
0.0
 11
147.96999619585119
 21
36.713005966762211
 31
0.0
 12
168.56124046187799
 22
35.728037637278632
 32
0.0
 13
168.56124046187799
 23
35.728037637278632
 33
0.0
210
0.0
220
0.0
230
1.0
  0
SOLID
  5
5CE
  8
DRG
  6
CONTINUOUS
 62
     7
 10
96.640621573827801
 20
37.312475510495823
 30
0.0
 11
82.716856812607475
 21
36.494579668545271
 31
0.0
 12
95.363659659179305
 22
36.939333195698268
 32
0.0
 13
95.363659659179305
 23
36.939333195698268
 33
0.0
210
0.0
220
0.0
230
1.0
  0
SOLID
  5
5CF
  8
DRG
  6
CONTINUOUS
 62
     7
 10
101.5095597489034
 20
37.384730871555568
 30
0.0
 11
101.5095597489034
 21
29.984856014372749
 31
0.0
 12
111.2523129779601
 22
23.54201089202471
 32
0.0
 13
111.2523129779601
 23
23.54201089202471
 33
0.0
210
0.0
220
0.0
230
1.0
  0
SOLID
  5
5D0
  8
DRG
  6
CONTINUOUS
 62
     7
 10
6.7865631049779154
 20
38.202265524009427
 30
0.0
 11
7.0565934473582743
 21
30.23514359210488
 31
0.0
 12
17.256300807526252
 22
30.5191262631974
 32
0.0
 13
17.256300807526252
 23
30.5191262631974
 33
0.0
210
0.0
220
0.0
230
1.0
  0
SOLID
  5
5D1
  8
DRG
  6
CONTINUOUS
 62
     7
 10
83.894428468637926
 20
38.32637501150122
 30
0.0
 11
96.640621573827801
 21
37.312475510495823
 31
0.0
 12
97.969021393668683
 22
37.384730871555568
 32
0.0
 13
97.969021393668683
 23
37.384730871555568
 33
0.0
210
0.0
220
0.0
230
1.0
  0
SOLID
  5
5D2
  8
DRG
  6
CONTINUOUS
 62
     7
 10
83.894428468637926
 20
38.32637501150122
 30
0.0
 11
82.716856812607475
 21
36.494579668545271
 31
0.0
 12
96.640621573827801
 22
37.312475510495823
 32
0.0
 13
96.640621573827801
 23
37.312475510495823
 33
0.0
  0
SOLID
  5
5D3
  8
DRG
  6
CONTINUOUS
 62
     7
 10
165.3683293532369
 20
38.498524021499541
 30
0.0
 11
147.96999619585119
 21
36.713005966762211
 31
0.0
 12
167.087743468458
 22
37.254987266655156
 32
0.0
 13
167.087743468458
 23
37.254987266655156
 33
0.0
210
0.0
220
0.0
230
1.0
  0
SOLID
  5
5D4
  8
DRG
  6
CONTINUOUS
 62
     7
 10
145.79493162739621
 20
38.577676730199528
 30
0.0
 11
147.96999619585119
 21
36.713005966762211
 31
0.0
 12
165.3683293532369
 22
38.498524021499541
 32
0.0
 13
165.3683293532369
 23
38.498524021499541
 33
0.0
210
0.0
220
0.0
230
1.0
  0
SOLID
  5
5D5
  8
DRG
  6
CONTINUOUS
 62
     7
 10
44.202306277704807
 20
39.329676640896288
 30
0.0
 11
55.513311319972232
 21
35.629722934820848
 31
0.0
 12
74.280536421539182
 22
35.629722934820848
 32
0.0
 13
74.280536421539182
 23
35.629722934820848
 33
0.0
210
0.0
220
0.0
230
1.0
  0
SOLID
  5
5D6
  8
DRG
  6
CONTINUOUS
 62
     7
 10
44.202306277704807
 20
39.329676640896288
 30
0.0
 11
44.202306277704807
 21
33.59256797502097
 31
0.0
 12
55.513311319972232
 22
35.629722934820848
 32
0.0
 13
55.513311319972232
 23
35.629722934820848
 33
0.0
210
0.0
220
0.0
230
1.0
  0
SOLID
  5
5D7
  8
DRG
  6
CONTINUOUS
 62
     7
 10
163.45676286496521
 20
39.419763469844753
 30
0.0
 11
145.79493162739621
 21
38.577676730199528
 31
0.0
 12
165.3683293532369
 22
38.498524021499541
 32
0.0
 13
165.3683293532369
 23
38.498524021499541
 33
0.0
210
0.0
220
0.0
230
1.0
  0
SOLID
  5
5D8
  8
DRG
  6
CONTINUOUS
 62
     7
 10
85.383656329320502
 20
39.915195190919967
 30
0.0
 11
83.894428468637926
 21
38.32637501150122
 31
0.0
 12
97.969021393668683
 22
37.384730871555568
 32
0.0
 13
97.969021393668683
 23
37.384730871555568
 33
0.0
210
0.0
220
0.0
230
1.0
  0
SOLID
  5
5D9
  8
DRG
  6
CONTINUOUS
 62
     7
 10
85.383656329320502
 20
39.915195190919967
 30
0.0
 11
97.969021393668683
 21
37.384730871555568
 31
0.0
 12
101.5095597489034
 22
37.384730871555568
 32
0.0
 13
101.5095597489034
 23
37.384730871555568
 33
0.0
210
0.0
220
0.0
230
1.0
  0
SOLID
  5
5DA
  8
DRG
  6
CONTINUOUS
 62
     7
 10
161.4128172083947
 20
39.98989916707626
 30
0.0
 11
145.79493162739621
 21
38.577676730199528
 31
0.0
 12
163.45676286496521
 22
39.419763469844753
 32
0.0
 13
163.45676286496521
 23
39.419763469844753
 33
0.0
210
0.0
220
0.0
230
1.0
  0
SOLID
  5
5DB
  8
DRG
  6
CONTINUOUS
 62
     7
 10
159.18695030849
 20
40.665065806460063
 30
0.0
 11
145.79493162739621
 21
38.577676730199528
 31
0.0
 12
161.4128172083947
 22
39.98989916707626
 32
0.0
 13
161.4128172083947
 23
39.98989916707626
 33
0.0
210
0.0
220
0.0
230
1.0
  0
SOLID
  5
5DC
  8
DRG
  6
CONTINUOUS
 62
     7
 10
143.89890046802631
 20
40.725459022626843
 30
0.0
 11
145.79493162739621
 21
38.577676730199528
 31
0.0
 12
159.18695030849
 22
40.665065806460063
 32
0.0
 13
159.18695030849
 23
40.665065806460063
 33
0.0
210
0.0
220
0.0
230
1.0
  0
SOLID
  5
5DD
  8
DRG
  6
CONTINUOUS
 62
     7
 10
127.2345352189994
 20
40.740104065808097
 30
0.0
 11
116.19314081319391
 21
17.28637227261407
 31
0.0
 12
127.2345352189994
 22
17.28637227261407
 32
0.0
 13
127.2345352189994
 23
17.28637227261407
 33
0.0
210
0.0
220
0.0
230
1.0
  0
SOLID
  5
5DE
  8
DRG
  6
CONTINUOUS
 62
     7
 10
87.135497751018576
 20
41.208717829602492
 30
0.0
 11
85.383656329320502
 21
39.915195190919967
 31
0.0
 12
101.5095597489034
 22
37.384730871555568
 32
0.0
 13
101.5095597489034
 23
37.384730871555568
 33
0.0
210
0.0
220
0.0
230
1.0
  0
SOLID
  5
5DF
  8
DRG
  6
CONTINUOUS
 62
     7
 10
157.0907498111003
 20
41.67317141688541
 30
0.0
 11
143.89890046802631
 21
40.725459022626843
 31
0.0
 12
159.18695030849
 22
40.665065806460063
 32
0.0
 13
159.18695030849
 23
40.665065806460063
 33
0.0
210
0.0
220
0.0
230
1.0
  0
SOLID
  5
5E0
  8
DRG
  6
CONTINUOUS
 62
     7
 10
55.51331131997221
 20
41.923431282527638
 30
0.0
 11
44.202306277704807
 21
39.329676640896288
 31
0.0
 12
74.280536421539182
 22
35.629722934820848
 32
0.0
 13
74.280536421539182
 23
35.629722934820848
 33
0.0
210
0.0
220
0.0
230
1.0
  0
SOLID
  5
5E1
  8
DRG
  6
CONTINUOUS
 62
     7
 10
63.235709964756971
 20
41.923431282527652
 30
0.0
 11
55.51331131997221
 21
41.923431282527638
 31
0.0
 12
74.280536421539182
 22
35.629722934820848
 32
0.0
 13
74.280536421539182
 23
35.629722934820848
 33
0.0
210
0.0
220
0.0
230
1.0
  0
SOLID
  5
5E2
  8
DRG
  6
CONTINUOUS
 62
     7
 10
89.092261807568065
 20
42.164345168347779
 30
0.0
 11
87.135497751018576
 21
41.208717829602492
 31
0.0
 12
101.5095597489034
 22
37.384730871555568
 32
0.0
 13
101.5095597489034
 23
37.384730871555568
 33
0.0
210
0.0
220
0.0
230
1.0
  0
SOLID
  5
5E3
  8
DRG
  6
CONTINUOUS
 62
     7
 10
127.3882529757736
 20
42.300826641937121
 30
0.0
 11
116.19314081319391
 21
17.28637227261407
 31
0.0
 12
127.2345352189994
 22
40.740104065808097
 32
0.0
 13
127.2345352189994
 23
40.740104065808097
 33
0.0
210
0.0
220
0.0
230
1.0
  0
SOLID
  5
5E4
  8
DRG
  6
CONTINUOUS
 62
     7
 10
91.189509144294036
 20
42.750606877959868
 30
0.0
 11
89.092261807568065
 21
42.164345168347779
 31
0.0
 12
101.5095597489034
 22
37.384730871555568
 32
0.0
 13
101.5095597489034
 23
37.384730871555568
 33
0.0
210
0.0
220
0.0
230
1.0
  0
SOLID
  5
5E5
  8
DRG
  6
CONTINUOUS
 62
     7
 10
93.358174068518778
 20
42.948196427274922
 30
0.0
 11
91.189509144294036
 21
42.750606877959868
 31
0.0
 12
101.5095597489034
 22
37.384730871555568
 32
0.0
 13
101.5095597489034
 23
37.384730871555568
 33
0.0
210
0.0
220
0.0
230
1.0
  0
SOLID
  5
5E6
  8
DRG
  6
CONTINUOUS
 62
     7
 10
101.5095597489034
 20
37.384730871555568
 30
0.0
 11
100.207486521178
 21
42.948196427274922
 31
0.0
 12
93.358174068518778
 22
42.948196427274922
 32
0.0
 13
93.358174068518778
 23
42.948196427274922
 33
0.0
  0
SOLID
  5
5E7
  8
DRG
  6
CONTINUOUS
 62
     7
 10
100.207486521178
 20
42.948196427274922
 30
0.0
 11
101.5095597489034
 21
37.384730871555568
 31
0.0
 12
111.2523129779601
 22
23.54201089202471
 32
0.0
 13
111.2523129779601
 23
23.54201089202471
 33
0.0
  0
SOLID
  5
5E8
  8
DRG
  6
CONTINUOUS
 62
     7
 10
155.17367747190539
 20
42.990428830347881
 30
0.0
 11
143.89890046802631
 21
40.725459022626843
 31
0.0
 12
157.0907498111003
 22
41.67317141688541
 32
0.0
 13
157.0907498111003
 23
41.67317141688541
 33
0.0
210
0.0
220
0.0
230
1.0
  0
SOLID
  5
5E9
  8
DRG
  6
CONTINUOUS
 62
     7
 10
142.3184035466634
 20
43.11500550983493
 30
0.0
 11
143.89890046802631
 21
40.725459022626843
 31
0.0
 12
155.17367747190539
 22
42.990428830347881
 32
0.0
 13
155.17367747190539
 23
42.990428830347881
 33
0.0
  0
SOLID
  5
5EA
  8
DRG
  6
CONTINUOUS
 62
     7
 10
127.84349895890909
 20
43.801571524728807
 30
0.0
 11
116.19314081319391
 21
17.28637227261407
 31
0.0
 12
127.3882529757736
 22
42.300826641937121
 32
0.0
 13
127.3882529757736
 23
42.300826641937121
 33
0.0
210
0.0
220
0.0
230
1.0
  0
SOLID
  5
5EB
  8
DRG
  6
CONTINUOUS
 62
     7
 10
141.7953563081854
 20
44.48865706092365
 30
0.0
 11
142.3184035466634
 21
43.11500550983493
 31
0.0
 12
155.17367747190539
 22
42.990428830347881
 32
0.0
 13
155.17367747190539
 23
42.990428830347881
 33
0.0
210
0.0
220
0.0
230
1.0
  0
SOLID
  5
5EC
  8
DRG
  6
CONTINUOUS
 62
     7
 10
153.4809683549079
 20
44.585756161105429
 30
0.0
 11
141.7953563081854
 21
44.48865706092365
 31
0.0
 12
155.17367747190539
 22
42.990428830347881
 32
0.0
 13
155.17367747190539
 23
42.990428830347881
 33
0.0
  0
SOLID
  5
5ED
  8
DRG
  6
CONTINUOUS
 62
     7
 10
27.387732575171409
 20
44.745475926535612
 30
0.0
 11
27.387732575171409
 21
32.086434320449378
 31
0.0
 12
37.639779947293839
 22
13.760967175618781
 32
0.0
 13
37.639779947293839
 23
13.760967175618781
 33
0.0
210
0.0
220
0.0
230
1.0
  0
SOLID
  5
5EE
  8
DRG
  6
CONTINUOUS
 62
     7
 10
111.2523129779601
 20
45.06060729124669
 30
0.0
 11
100.207486521178
 21
42.948196427274922
 31
0.0
 12
111.2523129779601
 22
23.54201089202471
 32
0.0
 13
111.2523129779601
 23
23.54201089202471
 33
0.0
  0
SOLID
  5
5EF
  8
DRG
  6
CONTINUOUS
 62
     7
 10
74.280536421539182
 20
45.06060729124669
 30
0.0
 11
63.235709964756971
 21
41.923431282527652
 31
0.0
 12
74.280536421539182
 22
35.629722934820848
 32
0.0
 13
74.280536421539182
 23
35.629722934820848
 33
0.0
  0
SOLID
  5
5F0
  8
DRG
  6
CONTINUOUS
 62
     7
 10
44.468482394088362
 20
45.06060729124696
 30
0.0
 11
44.202306277704807
 21
39.329676640896288
 31
0.0
 12
55.51331131997221
 22
41.923431282527638
 32
0.0
 13
55.51331131997221
 23
41.923431282527638
 33
0.0
210
0.0
220
0.0
230
1.0
  0
SOLID
  5
5F1
  8
DRG
  6
CONTINUOUS
 62
     7
 10
152.91369055756721
 20
45.212615778285837
 30
0.0
 11
141.7953563081854
 21
44.48865706092365
 31
0.0
 12
153.4809683549079
 22
44.585756161105429
 32
0.0
 13
153.4809683549079
 23
44.585756161105429
 33
0.0
210
0.0
220
0.0
230
1.0
  0
SOLID
  5
5F2
  8
DRG
  6
CONTINUOUS
 62
     7
 10
141.54546826268481
 20
45.937122787892669
 30
0.0
 11
141.7953563081854
 21
44.48865706092365
 31
0.0
 12
152.91369055756721
 22
45.212615778285837
 32
0.0
 13
152.91369055756721
 23
45.212615778285837
 33
0.0
210
0.0
220
0.0
230
1.0
  0
SOLID
  5
5F3
  8
DRG
  6
CONTINUOUS
 62
     7
 10
152.54834175226111
 20
45.975031235545693
 30
0.0
 11
141.54546826268481
 21
45.937122787892669
 31
0.0
 12
152.91369055756721
 22
45.212615778285837
 32
0.0
 13
152.91369055756721
 23
45.212615778285837
 33
0.0
210
0.0
220
0.0
230
1.0
  0
SOLID
  5
5F4
  8
DRG
  6
CONTINUOUS
 62
     7
 10
7.0305774038875759
 20
46.17022669896302
 30
0.0
 11
6.7865631049779154
 21
38.202265524009427
 31
0.0
 12
17.256300807526252
 22
30.5191262631974
 32
0.0
 13
17.256300807526252
 23
30.5191262631974
 33
0.0
  0
SOLID
  5
5F5
  8
DRG
  6
CONTINUOUS
 62
     7
 10
27.335204540726249
 20
46.212635277760249
 30
0.0
 11
27.387732575171409
 21
44.745475926535612
 31
0.0
 12
37.639779947293839
 22
13.760967175618781
 32
0.0
 13
37.639779947293839
 23
13.760967175618781
 33
0.0
210
0.0
220
0.0
230
1.0
  0
SOLID
  5
5F6
  8
DRG
  6
CONTINUOUS
 62
     7
 10
17.256300807526252
 20
46.312783983787632
 30
0.0
 11
7.0305774038875759
 21
46.17022669896302
 31
0.0
 12
17.256300807526252
 22
30.5191262631974
 32
0.0
 13
17.256300807526252
 23
30.5191262631974
 33
0.0
210
0.0
220
0.0
230
1.0
  0
SOLID
  5
5F7
  8
DRG
  6
CONTINUOUS
 62
     7
 10
160.04745823702251
 20
46.421288526219293
 30
0.0
 11
160.04745823702251
 21
45.21828747592599
 31
0.0
 12
171.0912486890569
 22
45.21828747592599
 32
0.0
 13
171.0912486890569
 23
45.21828747592599
 33
0.0
210
0.0
220
0.0
230
1.0
  0
SOLID
  5
5F8
  8
DRG
  6
CONTINUOUS
 62
     7
 10
63.235709964757007
 20
46.690614073903127
 30
0.0
 11
63.235709964756971
 21
41.923431282527652
 31
0.0
 12
74.280536421539182
 22
45.06060729124669
 32
0.0
 13
74.280536421539182
 23
45.06060729124669
 33
0.0
210
0.0
220
0.0
230
1.0
  0
SOLID
  5
5F9
  8
DRG
  6
CONTINUOUS
 62
     7
 10
55.513311319972217
 20
46.690614073903141
 30
0.0
 11
44.468482394088362
 21
45.06060729124696
 31
0.0
 12
55.51331131997221
 22
41.923431282527638
 32
0.0
 13
55.51331131997221
 23
41.923431282527638
 33
0.0
210
0.0
220
0.0
230
1.0
  0
SOLID
  5
5FA
  8
DRG
  6
CONTINUOUS
 62
     7
 10
152.41515688108319
 20
46.809907794742699
 30
0.0
 11
141.54546826268481
 21
45.937122787892669
 31
0.0
 12
152.54834175226111
 22
45.975031235545693
 32
0.0
 13
152.54834175226111
 23
45.975031235545693
 33
0.0
  0
SOLID
  5
5FB
  8
DRG
  6
CONTINUOUS
 62
     7
 10
111.0700060141066
 20
47.144385423249858
 30
0.0
 11
100.207486521178
 21
42.948196427274922
 31
0.0
 12
111.2523129779601
 22
45.06060729124669
 32
0.0
 13
111.2523129779601
 23
45.06060729124669
 33
0.0
210
0.0
220
0.0
230
1.0
  0
SOLID
  5
5FC
  8
DRG
  6
CONTINUOUS
 62
     7
 10
74.098229457685676
 20
47.144385423249858
 30
0.0
 11
63.235709964757007
 21
46.690614073903127
 31
0.0
 12
74.280536421539182
 22
45.06060729124669
 32
0.0
 13
74.280536421539182
 23
45.06060729124669
 33
0.0
210
0.0
220
0.0
230
1.0
  0
SOLID
  5
5FD
  8
DRG
  6
CONTINUOUS
 62
     7
 10
44.65078935794191
 20
47.144385423250078
 30
0.0
 11
44.468482394088362
 21
45.06060729124696
 31
0.0
 12
55.513311319972217
 22
46.690614073903141
 32
0.0
 13
55.513311319972217
 23
46.690614073903141
 33
0.0
210
0.0
220
0.0
230
1.0
  0
SOLID
  5
5FE
  8
DRG
  6
CONTINUOUS
 62
     7
 10
170.88483288771471
 20
47.282274929375212
 30
0.0
 11
160.04745823702251
 21
46.421288526219293
 31
0.0
 12
171.0912486890569
 22
45.21828747592599
 32
0.0
 13
171.0912486890569
 23
45.21828747592599
 33
0.0
  0
SOLID
  5
5FF
  8
DRG
  6
CONTINUOUS
 62
     7
 10
92.485087876393209
 20
47.313129977668268
 30
0.0
 11
81.470405744524527
 21
45.910674481046733
 31
0.0
 12
92.485087876393209
 22
45.910674481046733
 32
0.0
 13
92.485087876393209
 23
45.910674481046733
 33
0.0
210
0.0
220
0.0
230
1.0
  0
SOLID
  5
600
  8
DRG
  6
CONTINUOUS
 62
     7
 10
100.2074865211779
 20
47.313129977668268
 30
0.0
 11
100.207486521178
 21
42.948196427274922
 31
0.0
 12
111.0700060141066
 22
47.144385423249858
 32
0.0
 13
111.0700060141066
 23
47.144385423249858
 33
0.0
  0
SOLID
  5
601
  8
DRG
  6
CONTINUOUS
 62
     7
 10
141.57801704221129
 20
47.406625280044132
 30
0.0
 11
141.54546826268481
 21
45.937122787892669
 31
0.0
 12
152.41515688108319
 22
46.809907794742699
 32
0.0
 13
152.41515688108319
 23
46.809907794742699
 33
0.0
210
0.0
220
0.0
230
1.0
  0
SOLID
  5
602
  8
DRG
  6
CONTINUOUS
 62
     7
 10
159.85969387221371
 20
47.610715203087587
 30
0.0
 11
160.04745823702251
 21
46.421288526219293
 31
0.0
 12
170.88483288771471
 22
47.282274929375212
 32
0.0
 13
170.88483288771471
 23
47.282274929375212
 33
0.0
210
0.0
220
0.0
230
1.0
  0
SOLID
  5
603
  8
DRG
  6
CONTINUOUS
 62
     7
 10
26.946063157671329
 20
47.628221636935379
 30
0.0
 11
27.335204540726249
 21
46.212635277760249
 31
0.0
 12
37.639779947293839
 22
13.760967175618781
 32
0.0
 13
37.639779947293839
 23
13.760967175618781
 33
0.0
210
0.0
220
0.0
230
1.0
  0
SOLID
  5
604
  8
DRG
  6
CONTINUOUS
 62
     7
 10
152.52515784094209
 20
47.648154099737518
 30
0.0
 11
141.57801704221129
 21
47.406625280044132
 31
0.0
 12
152.41515688108319
 22
46.809907794742699
 32
0.0
 13
152.41515688108319
 23
46.809907794742699
 33
0.0
210
0.0
220
0.0
230
1.0
  0
SOLID
  5
605
  8
DRG
  6
CONTINUOUS
 62
     7
 10
17.493132493272199
 20
47.658562015885273
 30
0.0
 11
7.0305774038875759
 21
46.17022669896302
 31
0.0
 12
17.256300807526252
 22
46.312783983787632
 32
0.0
 13
17.256300807526252
 23
46.312783983787632
 33
0.0
210
0.0
220
0.0
230
1.0
  0
SOLID
  5
606
  8
DRG
  6
CONTINUOUS
 62
     7
 10
63.046729418640332
 20
47.883790283191409
 30
0.0
 11
63.235709964757007
 21
46.690614073903127
 31
0.0
 12
74.098229457685676
 22
47.144385423249858
 32
0.0
 13
74.098229457685676
 23
47.144385423249858
 33
0.0
210
0.0
220
0.0
230
1.0
  0
SOLID
  5
607
  8
DRG
  6
CONTINUOUS
 62
     7
 10
55.702291866088892
 20
47.883790283191423
 30
0.0
 11
44.65078935794191
 21
47.144385423250078
 31
0.0
 12
55.513311319972217
 22
46.690614073903141
 32
0.0
 13
55.513311319972217
 23
46.690614073903141
 33
0.0
210
0.0
220
0.0
230
1.0
  0
SOLID
  5
608
  8
DRG
  6
CONTINUOUS
 62
     7
 10
81.777260087086447
 20
47.884515489435017
 30
0.0
 11
81.470405744524527
 21
45.910674481046733
 31
0.0
 12
92.485087876393209
 22
47.313129977668268
 32
0.0
 13
92.485087876393209
 23
47.313129977668268
 33
0.0
210
0.0
220
0.0
230
1.0
  0
SOLID
  5
609
  8
DRG
  6
CONTINUOUS
 62
     7
 10
7.2243991964937564
 20
48.194871691434507
 30
0.0
 11
7.0305774038875759
 21
46.17022669896302
 31
0.0
 12
17.493132493272199
 22
47.658562015885273
 32
0.0
 13
17.493132493272199
 23
47.658562015885273
 33
0.0
210
0.0
220
0.0
230
1.0
  0
SOLID
  5
60A
  8
DRG
  6
CONTINUOUS
 62
     7
 10
92.674068422509905
 20
48.50630618695655
 30
0.0
 11
81.777260087086447
 21
47.884515489435017
 31
0.0
 12
92.485087876393209
 22
47.313129977668268
 32
0.0
 13
92.485087876393209
 23
47.313129977668268
 33
0.0
  0
SOLID
  5
60B
  8
DRG
  6
CONTINUOUS
 62
     7
 10
100.0185059750613
 20
48.50630618695655
 30
0.0
 11
100.2074865211779
 21
47.313129977668268
 31
0.0
 12
111.0700060141066
 22
47.144385423249858
 32
0.0
 13
111.0700060141066
 23
47.144385423249858
 33
0.0
  0
SOLID
  5
60C
  8
DRG
  6
CONTINUOUS
 62
     7
 10
159.3146621798796
 20
48.684461788967788
 30
0.0
 11
159.85969387221371
 21
47.610715203087587
 31
0.0
 12
170.88483288771471
 22
47.282274929375212
 32
0.0
 13
170.88483288771471
 23
47.282274929375212
 33
0.0
210
0.0
220
0.0
230
1.0
  0
SOLID
  5
60D
  8
DRG
  6
CONTINUOUS
 62
     7
 10
153.08112265405759
 20
48.716280685360893
 30
0.0
 11
141.57801704221129
 21
47.406625280044132
 31
0.0
 12
152.52515784094209
 22
47.648154099737518
 32
0.0
 13
152.52515784094209
 23
47.648154099737518
 33
0.0
  0
SOLID
  5
60E
  8
DRG
  6
CONTINUOUS
 62
     7
 10
141.8917942032017
 20
48.84260609145101
 30
0.0
 11
141.57801704221129
 21
47.406625280044132
 31
0.0
 12
153.08112265405759
 22
48.716280685360893
 32
0.0
 13
153.08112265405759
 23
48.716280685360893
 33
0.0
210
0.0
220
0.0
230
1.0
  0
SOLID
  5
60F
  8
DRG
  6
CONTINUOUS
 62
     7
 10
18.06593214578028
 20
48.899170059199712
 30
0.0
 11
7.2243991964937564
 21
48.194871691434507
 31
0.0
 12
17.493132493272199
 22
47.658562015885273
 32
0.0
 13
17.493132493272199
 23
47.658562015885273
 33
0.0
210
0.0
220
0.0
230
1.0
  0
SOLID
  5
610
  8
DRG
  6
CONTINUOUS
 62
     7
 10
56.250734771880133
 20
48.960170091767068
 30
0.0
 11
44.65078935794191
 21
47.144385423250078
 31
0.0
 12
55.702291866088892
 22
47.883790283191423
 32
0.0
 13
55.702291866088892
 23
47.883790283191423
 33
0.0
210
0.0
220
0.0
230
1.0
  0
SOLID
  5
611
  8
DRG
  6
CONTINUOUS
 62
     7
 10
62.498286512849091
 20
48.960170091767068
 30
0.0
 11
63.046729418640332
 21
47.883790283191409
 31
0.0
 12
74.098229457685676
 22
47.144385423249858
 32
0.0
 13
74.098229457685676
 23
47.144385423249858
 33
0.0
  0
SOLID
  5
612
  8
DRG
  6
CONTINUOUS
 62
     7
 10
73.556847870970074
 20
49.164849011154722
 30
0.0
 11
62.498286512849091
 21
48.960170091767068
 31
0.0
 12
74.098229457685676
 22
47.144385423249858
 32
0.0
 13
74.098229457685676
 23
47.144385423249858
 33
0.0
210
0.0
220
0.0
230
1.0
  0
SOLID
  5
613
  8
DRG
  6
CONTINUOUS
 62
     7
 10
110.52862442739099
 20
49.164849011154722
 30
0.0
 11
100.0185059750613
 21
48.50630618695655
 31
0.0
 12
111.0700060141066
 22
47.144385423249858
 32
0.0
 13
111.0700060141066
 23
47.144385423249858
 33
0.0
  0
SOLID
  5
614
  8
DRG
  6
CONTINUOUS
 62
     7
 10
45.192170944657533
 20
49.164849011154907
 30
0.0
 11
44.65078935794191
 21
47.144385423250078
 31
0.0
 12
56.250734771880133
 22
48.960170091767068
 32
0.0
 13
56.250734771880133
 23
48.960170091767068
 33
0.0
210
0.0
220
0.0
230
1.0
  0
SOLID
  5
615
  8
DRG
  6
CONTINUOUS
 62
     7
 10
170.3260613403435
 20
49.279880007684703
 30
0.0
 11
159.3146621798796
 21
48.684461788967788
 31
0.0
 12
170.88483288771471
 22
47.282274929375212
 32
0.0
 13
170.88483288771471
 23
47.282274929375212
 33
0.0
210
0.0
220
0.0
230
1.0
  0
SOLID
  5
616
  8
DRG
  6
CONTINUOUS
 62
     7
 10
158.46537131679571
 20
49.538098893491913
 30
0.0
 11
159.3146621798796
 21
48.684461788967788
 31
0.0
 12
170.3260613403435
 22
49.279880007684703
 32
0.0
 13
170.3260613403435
 23
49.279880007684703
 33
0.0
  0
SOLID
  5
617
  8
DRG
  6
CONTINUOUS
 62
     7
 10
153.9390837584445
 20
49.561203178668571
 30
0.0
 11
141.8917942032017
 21
48.84260609145101
 31
0.0
 12
153.08112265405759
 22
48.716280685360893
 32
0.0
 13
153.08112265405759
 23
48.716280685360893
 33
0.0
210
0.0
220
0.0
230
1.0
  0
SOLID
  5
618
  8
DRG
  6
CONTINUOUS
 62
     7
 10
93.222511328301124
 20
49.582685995532209
 30
0.0
 11
81.777260087086447
 21
47.884515489435017
 31
0.0
 12
92.674068422509905
 22
48.50630618695655
 32
0.0
 13
92.674068422509905
 23
48.50630618695655
 33
0.0
210
0.0
220
0.0
230
1.0
  0
SOLID
  5
619
  8
DRG
  6
CONTINUOUS
 62
     7
 10
99.470063069270083
 20
49.582685995532209
 30
0.0
 11
100.0185059750613
 21
48.50630618695655
 31
0.0
 12
110.52862442739099
 22
49.164849011154722
 32
0.0
 13
110.52862442739099
 23
49.164849011154722
 33
0.0
210
0.0
220
0.0
230
1.0
  0
SOLID
  5
61A
  8
DRG
  6
CONTINUOUS
 62
     7
 10
82.407293529406346
 20
49.780106630874272
 30
0.0
 11
81.777260087086447
 21
47.884515489435017
 31
0.0
 12
93.222511328301124
 22
49.582685995532209
 32
0.0
 13
93.222511328301124
 23
49.582685995532209
 33
0.0
210
0.0
220
0.0
230
1.0
  0
SOLID
  5
61B
  8
DRG
  6
CONTINUOUS
 62
     7
 10
57.104954624500678
 20
49.814389944387607
 30
0.0
 11
45.192170944657533
 21
49.164849011154907
 31
0.0
 12
56.250734771880133
 22
48.960170091767068
 32
0.0
 13
56.250734771880133
 23
48.960170091767068
 33
0.0
210
0.0
220
0.0
230
1.0
  0
SOLID
  5
61C
  8
DRG
  6
CONTINUOUS
 62
     7
 10
61.64406666022856
 20
49.814389944387607
 30
0.0
 11
62.498286512849091
 21
48.960170091767068
 31
0.0
 12
73.556847870970074
 22
49.164849011154722
 32
0.0
 13
73.556847870970074
 23
49.164849011154722
 33
0.0
210
0.0
220
0.0
230
1.0
  0
SOLID
  5
61D
  8
DRG
  6
CONTINUOUS
 62
     7
 10
18.93668040707891
 20
49.952263229102194
 30
0.0
 11
7.2243991964937564
 21
48.194871691434507
 31
0.0
 12
18.06593214578028
 22
48.899170059199712
 32
0.0
 13
18.06593214578028
 23
48.899170059199712
 33
0.0
210
0.0
220
0.0
230
1.0
  0
SOLID
  5
61E
  8
DRG
  6
CONTINUOUS
 62
     7
 10
157.39442077919639
 20
50.088604317946377
 30
0.0
 11
158.46537131679571
 21
49.538098893491913
 31
0.0
 12
170.3260613403435
 22
49.279880007684703
 32
0.0
 13
170.3260613403435
 23
49.279880007684703
 33
0.0
210
0.0
220
0.0
230
1.0
  0
SOLID
  5
61F
  8
DRG
  6
CONTINUOUS
 62
     7
 10
155.01559841605931
 20
50.100746938041553
 30
0.0
 11
141.8917942032017
 21
48.84260609145101
 31
0.0
 12
153.9390837584445
 22
49.561203178668571
 32
0.0
 13
153.9390837584445
 23
49.561203178668571
 33
0.0
210
0.0
220
0.0
230
1.0
  0
SOLID
  5
620
  8
DRG
  6
CONTINUOUS
 62
     7
 10
7.7543903099376941
 20
50.158507006990732
 30
0.0
 11
7.2243991964937564
 21
48.194871691434507
 31
0.0
 12
18.93668040707891
 22
49.952263229102194
 32
0.0
 13
18.93668040707891
 23
49.952263229102194
 33
0.0
210
0.0
220
0.0
230
1.0
  0
SOLID
  5
621
  8
DRG
  6
CONTINUOUS
 62
     7
 10
156.20596802213339
 20
50.282437546695562
 30
0.0
 11
141.8917942032017
 21
48.84260609145101
 31
0.0
 12
155.01559841605931
 22
50.100746938041553
 32
0.0
 13
155.01559841605931
 23
50.100746938041553
 33
0.0
210
0.0
220
0.0
230
1.0
  0
SOLID
  5
622
  8
DRG
  6
CONTINUOUS
 62
     7
 10
156.20596802213339
 20
50.282437546695562
 30
0.0
 11
157.39442077919639
 21
50.088604317946377
 31
0.0
 12
170.3260613403435
 22
49.279880007684703
 32
0.0
 13
170.3260613403435
 23
49.279880007684703
 33
0.0
210
0.0
220
0.0
230
1.0
  0
SOLID
  5
623
  8
DRG
  6
CONTINUOUS
 62
     7
 10
58.18133443307633
 20
50.362832850178847
 30
0.0
 11
45.192170944657533
 21
49.164849011154907
 31
0.0
 12
57.104954624500678
 22
49.814389944387607
 32
0.0
 13
57.104954624500678
 23
49.814389944387607
 33
0.0
210
0.0
220
0.0
230
1.0
  0
SOLID
  5
624
  8
DRG
  6
CONTINUOUS
 62
     7
 10
60.567686851652887
 20
50.362832850178847
 30
0.0
 11
61.64406666022856
 21
49.814389944387607
 31
0.0
 12
73.556847870970074
 22
49.164849011154722
 32
0.0
 13
73.556847870970074
 23
49.164849011154722
 33
0.0
210
0.0
220
0.0
230
1.0
  0
SOLID
  5
625
  8
DRG
  6
CONTINUOUS
 62
     7
 10
94.076731180921669
 20
50.436905848152747
 30
0.0
 11
82.407293529406346
 21
49.780106630874272
 31
0.0
 12
93.222511328301124
 22
49.582685995532209
 32
0.0
 13
93.222511328301124
 23
49.582685995532209
 33
0.0
210
0.0
220
0.0
230
1.0
  0
SOLID
  5
626
  8
DRG
  6
CONTINUOUS
 62
     7
 10
98.615843216649537
 20
50.436905848152747
 30
0.0
 11
99.470063069270083
 21
49.582685995532209
 31
0.0
 12
110.52862442739099
 22
49.164849011154722
 32
0.0
 13
110.52862442739099
 23
49.164849011154722
 33
0.0
210
0.0
220
0.0
230
1.0
  0
SOLID
  5
627
  8
DRG
  6
CONTINUOUS
 62
     7
 10
59.374510642364612
 20
50.551813396295529
 30
0.0
 11
45.192170944657533
 21
49.164849011154907
 31
0.0
 12
58.18133443307633
 22
50.362832850178847
 32
0.0
 13
58.18133443307633
 23
50.362832850178847
 33
0.0
210
0.0
220
0.0
230
1.0
  0
SOLID
  5
628
  8
DRG
  6
CONTINUOUS
 62
     7
 10
59.374510642364612
 20
50.551813396295529
 30
0.0
 11
60.567686851652887
 21
50.362832850178847
 31
0.0
 12
73.556847870970074
 22
49.164849011154722
 32
0.0
 13
73.556847870970074
 23
49.164849011154722
 33
0.0
  0
SOLID
  5
629
  8
DRG
  6
CONTINUOUS
 62
     7
 10
20.04758169418465
 20
50.747942869005499
 30
0.0
 11
7.7543903099376941
 21
50.158507006990732
 31
0.0
 12
18.93668040707891
 22
49.952263229102194
 32
0.0
 13
18.93668040707891
 23
49.952263229102194
 33
0.0
210
0.0
220
0.0
230
1.0
  0
SOLID
  5
62A
  8
DRG
  6
CONTINUOUS
 62
     7
 10
142.74479615603491
 20
50.805572015140243
 30
0.0
 11
141.8917942032017
 21
48.84260609145101
 31
0.0
 12
156.20596802213339
 22
50.282437546695562
 32
0.0
 13
156.20596802213339
 23
50.282437546695562
 33
0.0
210
0.0
220
0.0
230
1.0
  0
SOLID
  5
62B
  8
DRG
  6
CONTINUOUS
 62
     7
 10
95.153110989497321
 20
50.985348753943988
 30
0.0
 11
82.407293529406346
 21
49.780106630874272
 31
0.0
 12
94.076731180921669
 22
50.436905848152747
 32
0.0
 13
94.076731180921669
 23
50.436905848152747
 33
0.0
210
0.0
220
0.0
230
1.0
  0
SOLID
  5
62C
  8
DRG
  6
CONTINUOUS
 62
     7
 10
97.539463408073885
 20
50.985348753943988
 30
0.0
 11
98.615843216649537
 21
50.436905848152747
 31
0.0
 12
110.52862442739099
 22
49.164849011154722
 32
0.0
 13
110.52862442739099
 23
49.164849011154722
 33
0.0
210
0.0
220
0.0
230
1.0
  0
SOLID
  5
62D
  8
DRG
  6
CONTINUOUS
 62
     7
 10
109.64461782337339
 20
51.060607291246697
 30
0.0
 11
97.539463408073885
 21
50.985348753943988
 31
0.0
 12
110.52862442739099
 22
49.164849011154722
 32
0.0
 13
110.52862442739099
 23
49.164849011154722
 33
0.0
210
0.0
220
0.0
230
1.0
  0
SOLID
  5
62E
  8
DRG
  6
CONTINUOUS
 62
     7
 10
72.672841266952446
 20
51.060607291246697
 30
0.0
 11
59.374510642364612
 21
50.551813396295529
 31
0.0
 12
73.556847870970074
 22
49.164849011154722
 32
0.0
 13
73.556847870970074
 23
49.164849011154722
 33
0.0
210
0.0
220
0.0
230
1.0
  0
SOLID
  5
62F
  8
DRG
  6
CONTINUOUS
 62
     7
 10
46.07617754867519
 20
51.060607291246839
 30
0.0
 11
59.374510642364612
 21
50.551813396295529
 31
0.0
 12
72.672841266952446
 22
51.060607291246697
 32
0.0
 13
72.672841266952446
 23
51.060607291246697
 33
0.0
210
0.0
220
0.0
230
1.0
  0
SOLID
  5
630
  8
DRG
  6
CONTINUOUS
 62
     7
 10
46.07617754867519
 20
51.060607291246839
 30
0.0
 11
45.192170944657533
 21
49.164849011154907
 31
0.0
 12
59.374510642364612
 22
50.551813396295529
 32
0.0
 13
59.374510642364612
 23
50.551813396295529
 33
0.0
210
0.0
220
0.0
230
1.0
  0
SOLID
  5
631
  8
DRG
  6
CONTINUOUS
 62
     7
 10
169.4316298757154
 20
51.151415218714057
 30
0.0
 11
142.74479615603491
 21
50.805572015140243
 31
0.0
 12
156.20596802213339
 22
50.282437546695562
 32
0.0
 13
156.20596802213339
 23
50.282437546695562
 33
0.0
210
0.0
220
0.0
230
1.0
  0
SOLID
  5
632
  8
DRG
  6
CONTINUOUS
 62
     7
 10
169.4316298757154
 20
51.151415218714057
 30
0.0
 11
156.20596802213339
 21
50.282437546695562
 31
0.0
 12
170.3260613403435
 22
49.279880007684703
 32
0.0
 13
170.3260613403435
 23
49.279880007684703
 33
0.0
210
0.0
220
0.0
230
1.0
  0
SOLID
  5
633
  8
DRG
  6
CONTINUOUS
 62
     7
 10
96.346287198785603
 20
51.174329300060663
 30
0.0
 11
82.407293529406346
 21
49.780106630874272
 31
0.0
 12
95.153110989497321
 22
50.985348753943988
 32
0.0
 13
95.153110989497321
 23
50.985348753943988
 33
0.0
210
0.0
220
0.0
230
1.0
  0
SOLID
  5
634
  8
DRG
  6
CONTINUOUS
 62
     7
 10
96.346287198785603
 20
51.174329300060663
 30
0.0
 11
97.539463408073885
 21
50.985348753943988
 31
0.0
 12
109.64461782337339
 22
51.060607291246697
 32
0.0
 13
109.64461782337339
 23
51.060607291246697
 33
0.0
210
0.0
220
0.0
230
1.0
  0
SOLID
  5
635
  8
DRG
  6
CONTINUOUS
 62
     7
 10
21.324900358829169
 20
51.233396046974882
 30
0.0
 11
7.7543903099376941
 21
50.158507006990732
 31
0.0
 12
20.04758169418465
 22
50.747942869005499
 32
0.0
 13
20.04758169418465
 23
50.747942869005499
 33
0.0
210
0.0
220
0.0
230
1.0
  0
SOLID
  5
636
  8
DRG
  6
CONTINUOUS
 62
     7
 10
27.267121908897021
 20
51.255838552818979
 30
0.0
 11
24.05122445427131
 21
50.841970309004992
 31
0.0
 12
25.258677615930839
 22
50.006881919259932
 32
0.0
 13
25.258677615930839
 23
50.006881919259932
 33
0.0
210
0.0
220
0.0
230
1.0
  0
SOLID
  5
637
  8
DRG
  6
CONTINUOUS
 62
     7
 10
27.267121908897021
 20
51.255838552818979
 30
0.0
 11
25.258677615930839
 21
50.006881919259932
 31
0.0
 12
26.241246459003669
 22
48.91606835823719
 32
0.0
 13
26.241246459003669
 23
48.91606835823719
 33
0.0
210
0.0
220
0.0
230
1.0
  0
SOLID
  5
638
  8
DRG
  6
CONTINUOUS
 62
     7
 10
27.267121908897021
 20
51.255838552818979
 30
0.0
 11
26.241246459003669
 21
48.91606835823719
 31
0.0
 12
26.946063157671329
 22
47.628221636935379
 32
0.0
 13
26.946063157671329
 23
47.628221636935379
 33
0.0
210
0.0
220
0.0
230
1.0
  0
SOLID
  5
639
  8
DRG
  6
CONTINUOUS
 62
     7
 10
27.267121908897021
 20
51.255838552818979
 30
0.0
 11
26.946063157671329
 21
47.628221636935379
 31
0.0
 12
37.639779947293839
 22
13.760967175618781
 32
0.0
 13
37.639779947293839
 23
13.760967175618781
 33
0.0
210
0.0
220
0.0
230
1.0
  0
SOLID
  5
63A
  8
DRG
  6
CONTINUOUS
 62
     7
 10
22.683854862926282
 20
51.376400993896397
 30
0.0
 11
7.7543903099376941
 21
50.158507006990732
 31
0.0
 12
21.324900358829169
 22
51.233396046974882
 32
0.0
 13
21.324900358829169
 23
51.233396046974882
 33
0.0
210
0.0
220
0.0
230
1.0
  0
SOLID
  5
63B
  8
DRG
  6
CONTINUOUS
 62
     7
 10
22.683854862926282
 20
51.376400993896397
 30
0.0
 11
24.05122445427131
 21
50.841970309004992
 31
0.0
 12
27.267121908897021
 22
51.255838552818979
 32
0.0
 13
27.267121908897021
 23
51.255838552818979
 33
0.0
210
0.0
220
0.0
230
1.0
  0
SOLID
  5
63C
  8
DRG
  6
CONTINUOUS
 62
     7
 10
83.343047985181556
 20
51.544921497210481
 30
0.0
 11
82.407293529406346
 21
49.780106630874272
 31
0.0
 12
96.346287198785603
 22
51.174329300060663
 32
0.0
 13
96.346287198785603
 23
51.174329300060663
 33
0.0
210
0.0
220
0.0
230
1.0
  0
SOLID
  5
63D
  8
DRG
  6
CONTINUOUS
 62
     7
 10
8.6055953189183132
 20
52.005722280183178
 30
0.0
 11
7.7543903099376941
 21
50.158507006990732
 31
0.0
 12
22.683854862926282
 22
51.376400993896397
 32
0.0
 13
22.683854862926282
 23
51.376400993896397
 33
0.0
210
0.0
220
0.0
230
1.0
  0
SOLID
  5
63E
  8
DRG
  6
CONTINUOUS
 62
     7
 10
143.93294546550231
 20
52.585782330668849
 30
0.0
 11
142.74479615603491
 21
50.805572015140243
 31
0.0
 12
169.4316298757154
 22
51.151415218714057
 32
0.0
 13
169.4316298757154
 23
51.151415218714057
 33
0.0
210
0.0
220
0.0
230
1.0
  0
SOLID
  5
63F
  8
DRG
  6
CONTINUOUS
 62
     7
 10
71.473069738966913
 20
52.774058607485159
 30
0.0
 11
46.07617754867519
 21
51.060607291246839
 31
0.0
 12
72.672841266952446
 22
51.060607291246697
 32
0.0
 13
72.672841266952446
 23
51.060607291246697
 33
0.0
210
0.0
220
0.0
230
1.0
  0
SOLID
  5
640
  8
DRG
  6
CONTINUOUS
 62
     7
 10
108.4448462953879
 20
52.774058607485159
 30
0.0
 11
83.343047985181556
 21
51.544921497210481
 31
0.0
 12
96.346287198785603
 22
51.174329300060663
 32
0.0
 13
96.346287198785603
 23
51.174329300060663
 33
0.0
210
0.0
220
0.0
230
1.0
  0
SOLID
  5
641
  8
DRG
  6
CONTINUOUS
 62
     7
 10
108.4448462953879
 20
52.774058607485159
 30
0.0
 11
96.346287198785603
 21
51.174329300060663
 31
0.0
 12
109.64461782337339
 22
51.060607291246697
 32
0.0
 13
109.64461782337339
 23
51.060607291246697
 33
0.0
210
0.0
220
0.0
230
1.0
  0
SOLID
  5
642
  8
DRG
  6
CONTINUOUS
 62
     7
 10
47.275949076660723
 20
52.774058607485273
 30
0.0
 11
46.07617754867519
 21
51.060607291246839
 31
0.0
 12
71.473069738966913
 22
52.774058607485159
 32
0.0
 13
71.473069738966913
 23
52.774058607485159
 33
0.0
210
0.0
220
0.0
230
1.0
  0
SOLID
  5
643
  8
DRG
  6
CONTINUOUS
 62
     7
 10
168.22826368170399
 20
52.840959978153741
 30
0.0
 11
143.93294546550231
 21
52.585782330668849
 31
0.0
 12
169.4316298757154
 22
51.151415218714057
 32
0.0
 13
169.4316298757154
 23
51.151415218714057
 33
0.0
210
0.0
220
0.0
230
1.0
  0
SOLID
  5
644
  8
DRG
  6
CONTINUOUS
 62
     7
 10
26.699742183985649
 20
52.856551873435983
 30
0.0
 11
8.6055953189183132
 21
52.005722280183178
 31
0.0
 12
22.683854862926282
 22
51.376400993896397
 32
0.0
 13
22.683854862926282
 23
51.376400993896397
 33
0.0
  0
SOLID
  5
645
  8
DRG
  6
CONTINUOUS
 62
     7
 10
26.699742183985649
 20
52.856551873435983
 30
0.0
 11
22.683854862926282
 21
51.376400993896397
 31
0.0
 12
27.267121908897021
 22
51.255838552818979
 32
0.0
 13
27.267121908897021
 23
51.255838552818979
 33
0.0
210
0.0
220
0.0
230
1.0
  0
SOLID
  5
646
  8
DRG
  6
CONTINUOUS
 62
     7
 10
127.2345352189994
 20
53.086533694841222
 30
0.0
 11
135.23453521899941
 21
48.740104065808111
 31
0.0
 12
136.6041529029215
 22
48.740104065808111
 32
0.0
 13
136.6041529029215
 23
48.740104065808111
 33
0.0
210
0.0
220
0.0
230
1.0
  0
SOLID
  5
647
  8
DRG
  6
CONTINUOUS
 62
     7
 10
127.2345352189994
 20
53.086533694841222
 30
0.0
 11
133.67381264287039
 21
48.586386309033962
 31
0.0
 12
135.23453521899941
 22
48.740104065808111
 32
0.0
 13
135.23453521899941
 23
48.740104065808111
 33
0.0
  0
SOLID
  5
648
  8
DRG
  6
CONTINUOUS
 62
     7
 10
127.2345352189994
 20
53.086533694841222
 30
0.0
 11
132.17306776007871
 21
48.1311403258984
 31
0.0
 12
133.67381264287039
 22
48.586386309033962
 32
0.0
 13
133.67381264287039
 23
48.586386309033962
 33
0.0
210
0.0
220
0.0
230
1.0
  0
SOLID
  5
649
  8
DRG
  6
CONTINUOUS
 62
     7
 10
127.2345352189994
 20
53.086533694841222
 30
0.0
 11
130.7899733548426
 21
47.391860964228471
 31
0.0
 12
132.17306776007871
 22
48.1311403258984
 32
0.0
 13
132.17306776007871
 23
48.1311403258984
 33
0.0
210
0.0
220
0.0
230
1.0
  0
SOLID
  5
64A
  8
DRG
  6
CONTINUOUS
 62
     7
 10
127.2345352189994
 20
53.086533694841222
 30
0.0
 11
129.57768096950701
 21
46.396958315300481
 31
0.0
 12
130.7899733548426
 22
47.391860964228471
 32
0.0
 13
130.7899733548426
 23
47.391860964228471
 33
0.0
210
0.0
220
0.0
230
1.0
  0
SOLID
  5
64B
  8
DRG
  6
CONTINUOUS
 62
     7
 10
127.2345352189994
 20
53.086533694841222
 30
0.0
 11
128.582778320579
 21
45.184665929964922
 31
0.0
 12
129.57768096950701
 22
46.396958315300481
 32
0.0
 13
129.57768096950701
 23
46.396958315300481
 33
0.0
210
0.0
220
0.0
230
1.0
  0
SOLID
  5
64C
  8
DRG
  6
CONTINUOUS
 62
     7
 10
127.2345352189994
 20
53.086533694841222
 30
0.0
 11
127.84349895890909
 21
43.801571524728807
 31
0.0
 12
128.582778320579
 22
45.184665929964922
 32
0.0
 13
128.582778320579
 23
45.184665929964922
 33
0.0
210
0.0
220
0.0
230
1.0
  0
SOLID
  5
64D
  8
DRG
  6
CONTINUOUS
 62
     7
 10
127.2345352189994
 20
53.086533694841222
 30
0.0
 11
116.19314081319391
 21
17.28637227261407
 31
0.0
 12
127.84349895890909
 22
43.801571524728807
 32
0.0
 13
127.84349895890909
 23
43.801571524728807
 33
0.0
210
0.0
220
0.0
230
1.0
  0
SOLID
  5
64E
  8
DRG
  6
CONTINUOUS
 62
     7
 10
84.558593906947152
 20
53.130057461733223
 30
0.0
 11
83.343047985181556
 21
51.544921497210481
 31
0.0
 12
108.4448462953879
 22
52.774058607485159
 32
0.0
 13
108.4448462953879
 23
52.774058607485159
 33
0.0
210
0.0
220
0.0
230
1.0
  0
SOLID
  5
64F
  8
DRG
  6
CONTINUOUS
 62
     7
 10
9.7539947019666684
 20
53.684392316206711
 30
0.0
 11
8.6055953189183132
 21
52.005722280183178
 31
0.0
 12
26.699742183985649
 22
52.856551873435983
 32
0.0
 13
26.699742183985649
 23
52.856551873435983
 33
0.0
210
0.0
220
0.0
230
1.0
  0
SOLID
  5
650
  8
DRG
  6
CONTINUOUS
 62
     7
 10
145.4184453895744
 20
54.126605982059239
 30
0.0
 11
143.93294546550231
 21
52.585782330668849
 31
0.0
 12
168.22826368170399
 22
52.840959978153741
 32
0.0
 13
168.22826368170399
 23
52.840959978153741
 33
0.0
210
0.0
220
0.0
230
1.0
  0
SOLID
  5
651
  8
DRG
  6
CONTINUOUS
 62
     7
 10
69.993987737777658
 20
54.253140608674421
 30
0.0
 11
47.275949076660723
 21
52.774058607485273
 31
0.0
 12
71.473069738966913
 22
52.774058607485159
 32
0.0
 13
71.473069738966913
 23
52.774058607485159
 33
0.0
210
0.0
220
0.0
230
1.0
  0
SOLID
  5
652
  8
DRG
  6
CONTINUOUS
 62
     7
 10
106.96576429419861
 20
54.253140608674421
 30
0.0
 11
84.558593906947152
 21
53.130057461733223
 31
0.0
 12
108.4448462953879
 22
52.774058607485159
 32
0.0
 13
108.4448462953879
 23
52.774058607485159
 33
0.0
210
0.0
220
0.0
230
1.0
  0
SOLID
  5
653
  8
DRG
  6
CONTINUOUS
 62
     7
 10
48.755031077849978
 20
54.253140608674499
 30
0.0
 11
47.275949076660723
 21
52.774058607485273
 31
0.0
 12
69.993987737777658
 22
54.253140608674421
 32
0.0
 13
69.993987737777658
 23
54.253140608674421
 33
0.0
210
0.0
220
0.0
230
1.0
  0
SOLID
  5
654
  8
DRG
  6
CONTINUOUS
 62
     7
 10
166.75191876934821
 20
54.298031490057269
 30
0.0
 11
145.4184453895744
 21
54.126605982059239
 31
0.0
 12
168.22826368170399
 22
52.840959978153741
 32
0.0
 13
168.22826368170399
 23
52.840959978153741
 33
0.0
210
0.0
220
0.0
230
1.0
  0
SOLID
  5
655
  8
DRG
  6
CONTINUOUS
 62
     7
 10
25.844798136495001
 20
54.32395555433007
 30
0.0
 11
9.7539947019666684
 21
53.684392316206711
 31
0.0
 12
26.699742183985649
 22
52.856551873435983
 32
0.0
 13
26.699742183985649
 23
52.856551873435983
 33
0.0
210
0.0
220
0.0
230
1.0
  0
SOLID
  5
656
  8
DRG
  6
CONTINUOUS
 62
     7
 10
128.4120288872063
 20
54.426660978047501
 30
0.0
 11
127.2345352189994
 21
53.086533694841222
 31
0.0
 12
136.6041529029215
 22
48.740104065808111
 32
0.0
 13
136.6041529029215
 23
48.740104065808111
 33
0.0
  0
SOLID
  5
657
  8
DRG
  6
CONTINUOUS
 62
     7
 10
86.020248788058765
 20
54.4915907600653
 30
0.0
 11
84.558593906947152
 21
53.130057461733223
 31
0.0
 12
106.96576429419861
 22
54.253140608674421
 32
0.0
 13
106.96576429419861
 23
54.253140608674421
 33
0.0
210
0.0
220
0.0
230
1.0
  0
SOLID
  5
658
  8
DRG
  6
CONTINUOUS
 62
     7
 10
11.167182630469171
 20
55.147147973028417
 30
0.0
 11
9.7539947019666684
 21
53.684392316206711
 31
0.0
 12
25.844798136495001
 22
54.32395555433007
 32
0.0
 13
25.844798136495001
 23
54.32395555433007
 33
0.0
  0
SOLID
  5
659
  8
DRG
  6
CONTINUOUS
 62
     7
 10
147.15404003459591
 20
55.379027148151209
 30
0.0
 11
145.4184453895744
 21
54.126605982059239
 31
0.0
 12
166.75191876934821
 22
54.298031490057269
 32
0.0
 13
166.75191876934821
 23
54.298031490057269
 33
0.0
210
0.0
220
0.0
230
1.0
  0
SOLID
  5
65A
  8
DRG
  6
CONTINUOUS
 62
     7
 10
105.2523129779601
 20
55.452912136659961
 30
0.0
 11
86.020248788058765
 21
54.4915907600653
 31
0.0
 12
106.96576429419861
 22
54.253140608674421
 32
0.0
 13
106.96576429419861
 23
54.253140608674421
 33
0.0
210
0.0
220
0.0
230
1.0
  0
SOLID
  5
65B
  8
DRG
  6
CONTINUOUS
 62
     7
 10
68.280536421539182
 20
55.452912136659961
 30
0.0
 11
48.755031077849978
 21
54.253140608674499
 31
0.0
 12
69.993987737777658
 22
54.253140608674421
 32
0.0
 13
69.993987737777658
 23
54.253140608674421
 33
0.0
210
0.0
220
0.0
230
1.0
  0
SOLID
  5
65C
  8
DRG
  6
CONTINUOUS
 62
     7
 10
50.46848239408844
 20
55.452912136660011
 30
0.0
 11
48.755031077849978
 21
54.253140608674499
 31
0.0
 12
68.280536421539182
 22
55.452912136659961
 32
0.0
 13
68.280536421539182
 23
55.452912136659961
 33
0.0
210
0.0
220
0.0
230
1.0
  0
SOLID
  5
65D
  8
DRG
  6
CONTINUOUS
 62
     7
 10
165.0467076242989
 20
55.479093148836768
 30
0.0
 11
147.15404003459591
 21
55.379027148151209
 31
0.0
 12
166.75191876934821
 22
54.298031490057269
 32
0.0
 13
166.75191876934821
 23
54.298031490057269
 33
0.0
210
0.0
220
0.0
230
1.0
  0
SOLID
  5
65E
  8
DRG
  6
CONTINUOUS
 62
     7
 10
129.80398889070241
 20
55.542402804156168
 30
0.0
 11
128.4120288872063
 21
54.426660978047501
 31
0.0
 12
136.6041529029215
 22
48.740104065808111
 32
0.0
 13
136.6041529029215
 23
48.740104065808111
 33
0.0
210
0.0
220
0.0
230
1.0
  0
SOLID
  5
65F
  8
DRG
  6
CONTINUOUS
 62
     7
 10
87.687510497446496
 20
55.591793607886558
 30
0.0
 11
86.020248788058765
 21
54.4915907600653
 31
0.0
 12
105.2523129779601
 22
55.452912136659961
 32
0.0
 13
105.2523129779601
 23
55.452912136659961
 33
0.0
210
0.0
220
0.0
230
1.0
  0
SOLID
  5
660
  8
DRG
  6
CONTINUOUS
 62
     7
 10
24.732069813226278
 20
55.606935899322451
 30
0.0
 11
11.167182630469171
 21
55.147147973028417
 31
0.0
 12
25.844798136495001
 22
54.32395555433007
 32
0.0
 13
25.844798136495001
 23
54.32395555433007
 33
0.0
  0
SOLID
  5
661
  8
DRG
  6
CONTINUOUS
 62
     7
 10
149.084517633373
 20
56.303204506520188
 30
0.0
 11
147.15404003459591
 21
55.379027148151209
 31
0.0
 12
165.0467076242989
 22
55.479093148836768
 32
0.0
 13
165.0467076242989
 23
55.479093148836768
 33
0.0
210
0.0
220
0.0
230
1.0
  0
SOLID
  5
662
  8
DRG
  6
CONTINUOUS
 62
     7
 10
103.35655469786811
 20
56.336918740677604
 30
0.0
 11
87.687510497446496
 21
55.591793607886558
 31
0.0
 12
105.2523129779601
 22
55.452912136659961
 32
0.0
 13
105.2523129779601
 23
55.452912136659961
 33
0.0
210
0.0
220
0.0
230
1.0
  0
SOLID
  5
663
  8
DRG
  6
CONTINUOUS
 62
     7
 10
66.384778141447214
 20
56.336918740677604
 30
0.0
 11
50.46848239408844
 21
55.452912136660011
 31
0.0
 12
68.280536421539182
 22
55.452912136659961
 32
0.0
 13
68.280536421539182
 23
55.452912136659961
 33
0.0
210
0.0
220
0.0
230
1.0
  0
SOLID
  5
664
  8
DRG
  6
CONTINUOUS
 62
     7
 10
52.364240674180387
 20
56.336918740677611
 30
0.0
 11
50.46848239408844
 21
55.452912136660011
 31
0.0
 12
66.384778141447214
 22
56.336918740677604
 32
0.0
 13
66.384778141447214
 23
56.336918740677604
 33
0.0
210
0.0
220
0.0
230
1.0
  0
SOLID
  5
665
  8
DRG
  6
CONTINUOUS
 62
     7
 10
163.16358114667281
 20
56.348855392385488
 30
0.0
 11
149.084517633373
 21
56.303204506520188
 31
0.0
 12
165.0467076242989
 22
55.479093148836768
 32
0.0
 13
165.0467076242989
 23
55.479093148836768
 33
0.0
210
0.0
220
0.0
230
1.0
  0
SOLID
  5
666
  8
DRG
  6
CONTINUOUS
 62
     7
 10
12.805281404658791
 20
56.352712835998311
 30
0.0
 11
11.167182630469171
 21
55.147147973028417
 31
0.0
 12
24.732069813226278
 22
55.606935899322451
 32
0.0
 13
24.732069813226278
 23
55.606935899322451
 33
0.0
  0
SOLID
  5
667
  8
DRG
  6
CONTINUOUS
 62
     7
 10
131.36827517159969
 20
56.399981316747272
 30
0.0
 11
129.80398889070241
 21
55.542402804156168
 31
0.0
 12
136.6041529029215
 22
48.740104065808111
 32
0.0
 13
136.6041529029215
 23
48.740104065808111
 33
0.0
210
0.0
220
0.0
230
1.0
  0
SOLID
  5
668
  8
DRG
  6
CONTINUOUS
 62
     7
 10
89.514179584642136
 20
56.400179629430873
 30
0.0
 11
87.687510497446496
 21
55.591793607886558
 31
0.0
 12
103.35655469786811
 22
56.336918740677604
 32
0.0
 13
103.35655469786811
 23
56.336918740677604
 33
0.0
210
0.0
220
0.0
230
1.0
  0
SOLID
  5
669
  8
DRG
  6
CONTINUOUS
 62
     7
 10
23.40031659456379
 20
56.660803183008269
 30
0.0
 11
12.805281404658791
 21
56.352712835998311
 31
0.0
 12
24.732069813226278
 22
55.606935899322451
 32
0.0
 13
24.732069813226278
 23
55.606935899322451
 33
0.0
210
0.0
220
0.0
230
1.0
  0
SOLID
  5
66A
  8
DRG
  6
CONTINUOUS
 62
     7
 10
151.1484669110659
 20
56.869738643367441
 30
0.0
 11
149.084517633373
 21
56.303204506520188
 31
0.0
 12
163.16358114667281
 22
56.348855392385488
 32
0.0
 13
163.16358114667281
 23
56.348855392385488
 33
0.0
210
0.0
220
0.0
230
1.0
  0
SOLID
  5
66B
  8
DRG
  6
CONTINUOUS
 62
     7
 10
64.364314553542343
 20
56.878300327393191
 30
0.0
 11
52.364240674180387
 21
56.336918740677611
 31
0.0
 12
66.384778141447214
 22
56.336918740677604
 32
0.0
 13
66.384778141447214
 23
56.336918740677604
 33
0.0
210
0.0
220
0.0
230
1.0
  0
SOLID
  5
66C
  8
DRG
  6
CONTINUOUS
 62
     7
 10
101.33609110996331
 20
56.878300327393191
 30
0.0
 11
89.514179584642136
 21
56.400179629430873
 31
0.0
 12
103.35655469786811
 22
56.336918740677604
 32
0.0
 13
103.35655469786811
 23
56.336918740677604
 33
0.0
210
0.0
220
0.0
230
1.0
  0
SOLID
  5
66D
  8
DRG
  6
CONTINUOUS
 62
     7
 10
54.384704262085243
 20
56.878300327393198
 30
0.0
 11
52.364240674180387
 21
56.336918740677611
 31
0.0
 12
64.364314553542343
 22
56.878300327393191
 32
0.0
 13
64.364314553542343
 23
56.878300327393191
 33
0.0
210
0.0
220
0.0
230
1.0
  0
SOLID
  5
66E
  8
DRG
  6
CONTINUOUS
 62
     7
 10
161.15880626232681
 20
56.881330137453389
 30
0.0
 11
151.1484669110659
 21
56.869738643367441
 31
0.0
 12
163.16358114667281
 22
56.348855392385488
 32
0.0
 13
163.16358114667281
 23
56.348855392385488
 33
0.0
210
0.0
220
0.0
230
1.0
  0
SOLID
  5
66F
  8
DRG
  6
CONTINUOUS
 62
     7
 10
91.449639456257628
 20
56.894348628165673
 30
0.0
 11
89.514179584642136
 21
56.400179629430873
 31
0.0
 12
101.33609110996331
 22
56.878300327393191
 32
0.0
 13
101.33609110996331
 23
56.878300327393191
 33
0.0
  0
SOLID
  5
670
  8
DRG
  6
CONTINUOUS
 62
     7
 10
133.05753068352811
 20
56.973434269726511
 30
0.0
 11
131.36827517159969
 21
56.399981316747272
 31
0.0
 12
136.6041529029215
 22
48.740104065808111
 32
0.0
 13
136.6041529029215
 23
48.740104065808111
 33
0.0
210
0.0
220
0.0
230
1.0
  0
SOLID
  5
671
  8
DRG
  6
CONTINUOUS
 62
     7
 10
27.267121908897021
 20
51.255838552818979
 30
0.0
 11
37.639779947293832
 21
57.06060729124669
 31
0.0
 12
27.267121908897028
 22
57.06060729124669
 32
0.0
 13
27.267121908897028
 23
57.06060729124669
 33
0.0
210
0.0
220
0.0
230
1.0
  0
SOLID
  5
672
  8
DRG
  6
CONTINUOUS
 62
     7
 10
37.639779947293832
 20
57.06060729124669
 30
0.0
 11
27.267121908897021
 21
51.255838552818979
 31
0.0
 12
37.639779947293839
 22
13.760967175618781
 32
0.0
 13
37.639779947293839
 23
13.760967175618781
 33
0.0
  0
SOLID
  5
673
  8
DRG
  6
CONTINUOUS
 62
     7
 10
54.384704262085243
 20
56.878300327393198
 30
0.0
 11
62.280536421539182
 21
57.06060729124669
 31
0.0
 12
56.468482394088369
 22
57.06060729124669
 32
0.0
 13
56.468482394088369
 23
57.06060729124669
 33
0.0
  0
SOLID
  5
674
  8
DRG
  6
CONTINUOUS
 62
     7
 10
62.280536421539182
 20
57.06060729124669
 30
0.0
 11
54.384704262085243
 21
56.878300327393198
 31
0.0
 12
64.364314553542343
 22
56.878300327393191
 32
0.0
 13
64.364314553542343
 23
56.878300327393191
 33
0.0
210
0.0
220
0.0
230
1.0
  0
SOLID
  5
675
  8
DRG
  6
CONTINUOUS
 62
     7
 10
91.449639456257628
 20
56.894348628165673
 30
0.0
 11
99.252312977960173
 21
57.06060729124669
 31
0.0
 12
93.440258950509346
 22
57.06060729124669
 32
0.0
 13
93.440258950509346
 23
57.06060729124669
 33
0.0
210
0.0
220
0.0
230
1.0
  0
SOLID
  5
676
  8
DRG
  6
CONTINUOUS
 62
     7
 10
99.252312977960173
 20
57.06060729124669
 30
0.0
 11
91.449639456257628
 21
56.894348628165673
 31
0.0
 12
101.33609110996331
 22
56.878300327393191
 32
0.0
 13
101.33609110996331
 23
56.878300327393191
 33
0.0
  0
SOLID
  5
677
  8
DRG
  6
CONTINUOUS
 62
     7
 10
161.15880626232681
 20
56.881330137453389
 30
0.0
 11
159.0922846938046
 21
57.06060729124669
 31
0.0
 12
153.28023066635379
 22
57.06060729124669
 32
0.0
 13
153.28023066635379
 23
57.06060729124669
 33
0.0
210
0.0
220
0.0
230
1.0
  0
SOLID
  5
678
  8
DRG
  6
CONTINUOUS
 62
     7
 10
153.28023066635379
 20
57.06060729124669
 30
0.0
 11
151.1484669110659
 21
56.869738643367441
 31
0.0
 12
161.15880626232681
 22
56.881330137453389
 32
0.0
 13
161.15880626232681
 23
56.881330137453389
 33
0.0
210
0.0
220
0.0
230
1.0
  0
SOLID
  5
679
  8
DRG
  6
CONTINUOUS
 62
     7
 10
127.2345352189994
 20
53.086533694841222
 30
0.0
 11
127.2345352189994
 21
57.207648031108022
 31
0.0
 12
116.19314081319391
 22
57.207648031108022
 32
0.0
 13
116.19314081319391
 23
57.207648031108022
 33
0.0
210
0.0
220
0.0
230
1.0
  0
SOLID
  5
67A
  8
DRG
  6
CONTINUOUS
 62
     7
 10
116.19314081319391
 20
57.207648031108022
 30
0.0
 11
116.19314081319391
 21
17.28637227261407
 31
0.0
 12
127.2345352189994
 22
53.086533694841222
 32
0.0
 13
127.2345352189994
 23
53.086533694841222
 33
0.0
210
0.0
220
0.0
230
1.0
  0
SOLID
  5
67B
  8
DRG
  6
CONTINUOUS
 62
     7
 10
136.6041529029215
 20
57.207648031108022
 30
0.0
 11
133.05753068352811
 21
56.973434269726511
 31
0.0
 12
136.6041529029215
 22
48.740104065808111
 32
0.0
 13
136.6041529029215
 23
48.740104065808111
 33
0.0
210
0.0
220
0.0
230
1.0
  0
SOLID
  5
67C
  8
DRG
  6
CONTINUOUS
 62
     7
 10
134.8206150741201
 20
57.245401005766141
 30
0.0
 11
133.05753068352811
 21
56.973434269726511
 31
0.0
 12
136.6041529029215
 22
57.207648031108022
 32
0.0
 13
136.6041529029215
 23
57.207648031108022
 33
0.0
210
0.0
220
0.0
230
1.0
  0
SOLID
  5
67D
  8
DRG
  6
CONTINUOUS
 62
     7
 10
14.62206673278469
 20
57.267067966314521
 30
0.0
 11
12.805281404658791
 21
56.352712835998311
 31
0.0
 12
23.40031659456379
 22
56.660803183008269
 32
0.0
 13
23.40031659456379
 23
56.660803183008269
 33
0.0
210
0.0
220
0.0
230
1.0
  0
SOLID
  5
67E
  8
DRG
  6
CONTINUOUS
 62
     7
 10
21.895927098915749
 20
57.448848316503202
 30
0.0
 11
14.62206673278469
 21
57.267067966314521
 31
0.0
 12
23.40031659456379
 22
56.660803183008269
 32
0.0
 13
23.40031659456379
 23
56.660803183008269
 33
0.0
210
0.0
220
0.0
230
1.0
  0
SOLID
  5
67F
  8
DRG
  6
CONTINUOUS
 62
     7
 10
16.566272100043751
 20
57.864411856172083
 30
0.0
 11
14.62206673278469
 21
57.267067966314521
 31
0.0
 12
21.895927098915749
 22
57.448848316503202
 32
0.0
 13
21.895927098915749
 23
57.448848316503202
 33
0.0
210
0.0
220
0.0
230
1.0
  0
SOLID
  5
680
  8
DRG
  6
CONTINUOUS
 62
     7
 10
20.271303339863209
 20
57.943621525724573
 30
0.0
 11
16.566272100043751
 21
57.864411856172083
 31
0.0
 12
21.895927098915749
 22
57.448848316503202
 32
0.0
 13
21.895927098915749
 23
57.448848316503202
 33
0.0
210
0.0
220
0.0
230
1.0
  0
SOLID
  5
681
  8
DRG
  6
CONTINUOUS
 62
     7
 10
18.58303542025671
 20
58.127888502333931
 30
0.0
 11
16.566272100043751
 21
57.864411856172083
 31
0.0
 12
20.271303339863209
 22
57.943621525724573
 32
0.0
 13
20.271303339863209
 23
57.943621525724573
 33
0.0
210
0.0
220
0.0
230
1.0
  0
SOLID
  5
682
  8
DRG
  6
CONTINUOUS
 62
     7
 10
82.01868759770089
 20
61.040289496156653
 30
0.0
 11
75.331191210151701
 21
60.89733173546756
 31
0.0
 12
80.675802928262684
 22
60.89733173546756
 32
0.0
 13
80.675802928262684
 23
60.89733173546756
 33
0.0
210
0.0
220
0.0
230
1.0
  0
SOLID
  5
683
  8
DRG
  6
CONTINUOUS
 62
     7
 10
73.770468634022663
 20
61.051049492241717
 30
0.0
 11
75.331191210151701
 21
60.89733173546756
 31
0.0
 12
82.01868759770089
 22
61.040289496156653
 32
0.0
 13
82.01868759770089
 23
61.040289496156653
 33
0.0
210
0.0
220
0.0
230
1.0
  0
SOLID
  5
684
  8
DRG
  6
CONTINUOUS
 62
     7
 10
49.733971184486521
 20
61.079638016119333
 30
0.0
 11
41.838142899665847
 21
60.89733173546756
 31
0.0
 12
47.650196927116667
 22
60.89733173546756
 32
0.0
 13
47.650196927116667
 23
60.89733173546756
 33
0.0
210
0.0
220
0.0
230
1.0
  0
SOLID
  5
685
  8
DRG
  6
CONTINUOUS
 62
     7
 10
105.7456110215207
 20
61.079638016119333
 30
0.0
 11
97.849782736700035
 21
60.89733173546756
 31
0.0
 12
103.66183676415081
 22
60.89733173546756
 32
0.0
 13
103.66183676415081
 23
60.89733173546756
 33
0.0
210
0.0
220
0.0
230
1.0
  0
SOLID
  5
686
  8
DRG
  6
CONTINUOUS
 62
     7
 10
39.754364767662722
 20
61.079638699321052
 30
0.0
 11
41.838142899665847
 21
60.89733173546756
 31
0.0
 12
49.733971184486521
 22
61.079638016119333
 32
0.0
 13
49.733971184486521
 23
61.079638016119333
 33
0.0
210
0.0
220
0.0
230
1.0
  0
SOLID
  5
687
  8
DRG
  6
CONTINUOUS
 62
     7
 10
95.766004604696874
 20
61.079638699321059
 30
0.0
 11
97.849782736700035
 21
60.89733173546756
 31
0.0
 12
105.7456110215207
 22
61.079638016119333
 32
0.0
 13
105.7456110215207
 23
61.079638016119333
 33
0.0
210
0.0
220
0.0
230
1.0
  0
SOLID
  5
688
  8
DRG
  6
CONTINUOUS
 62
     7
 10
83.309615438619744
 20
61.436876770654941
 30
0.0
 11
73.770468634022663
 21
61.051049492241717
 31
0.0
 12
82.01868759770089
 22
61.040289496156653
 32
0.0
 13
82.01868759770089
 23
61.040289496156653
 33
0.0
  0
SOLID
  5
689
  8
DRG
  6
CONTINUOUS
 62
     7
 10
72.269723751230984
 20
61.506295475377271
 30
0.0
 11
73.770468634022663
 21
61.051049492241717
 31
0.0
 12
83.309615438619744
 22
61.436876770654941
 32
0.0
 13
83.309615438619744
 23
61.436876770654941
 33
0.0
210
0.0
220
0.0
230
1.0
  0
SOLID
  5
68A
  8
DRG
  6
CONTINUOUS
 62
     7
 10
51.754431252759858
 20
61.621017594747101
 30
0.0
 11
39.754364767662722
 21
61.079638699321052
 31
0.0
 12
49.733971184486521
 22
61.079638016119333
 32
0.0
 13
49.733971184486521
 23
61.079638016119333
 33
0.0
  0
SOLID
  5
68B
  8
DRG
  6
CONTINUOUS
 62
     7
 10
107.766071089794
 20
61.621017594747101
 30
0.0
 11
95.766004604696874
 21
61.079638699321059
 31
0.0
 12
105.7456110215207
 22
61.079638016119333
 32
0.0
 13
105.7456110215207
 23
61.079638016119333
 33
0.0
210
0.0
220
0.0
230
1.0
  0
SOLID
  5
68C
  8
DRG
  6
CONTINUOUS
 62
     7
 10
37.7339011797579
 20
61.621020286036632
 30
0.0
 11
39.754364767662722
 21
61.079638699321052
 31
0.0
 12
51.754431252759858
 22
61.621017594747101
 32
0.0
 13
51.754431252759858
 23
61.621017594747101
 33
0.0
210
0.0
220
0.0
230
1.0
  0
SOLID
  5
68D
  8
DRG
  6
CONTINUOUS
 62
     7
 10
93.745541016792032
 20
61.621020286036661
 30
0.0
 11
95.766004604696874
 21
61.079638699321059
 31
0.0
 12
107.766071089794
 22
61.621017594747101
 32
0.0
 13
107.766071089794
 23
61.621017594747101
 33
0.0
  0
SOLID
  5
68E
  8
DRG
  6
CONTINUOUS
 62
     7
 10
84.501142256151084
 20
62.072518178885289
 30
0.0
 11
72.269723751230984
 21
61.506295475377271
 31
0.0
 12
83.309615438619744
 22
61.436876770654941
 32
0.0
 13
83.309615438619744
 23
61.436876770654941
 33
0.0
  0
SOLID
  5
68F
  8
DRG
  6
CONTINUOUS
 62
     7
 10
70.886629345994876
 20
62.245574837047201
 30
0.0
 11
72.269723751230984
 21
61.506295475377271
 31
0.0
 12
84.501142256151084
 22
62.072518178885289
 32
0.0
 13
84.501142256151084
 23
62.072518178885289
 33
0.0
210
0.0
220
0.0
230
1.0
  0
SOLID
  5
690
  8
DRG
  6
CONTINUOUS
 62
     7
 10
109.66182654226211
 20
62.505020988450823
 30
0.0
 11
93.745541016792032
 21
61.621020286036661
 31
0.0
 12
107.766071089794
 22
61.621017594747101
 32
0.0
 13
107.766071089794
 23
61.621017594747101
 33
0.0
210
0.0
220
0.0
230
1.0
  0
SOLID
  5
691
  8
DRG
  6
CONTINUOUS
 62
     7
 10
53.650186705228002
 20
62.505020988450823
 30
0.0
 11
37.7339011797579
 21
61.621020286036632
 31
0.0
 12
51.754431252759858
 22
61.621017594747101
 32
0.0
 13
51.754431252759858
 23
61.621017594747101
 33
0.0
  0
SOLID
  5
692
  8
DRG
  6
CONTINUOUS
 62
     7
 10
35.838142899665947
 20
62.505026890054239
 30
0.0
 11
37.7339011797579
 21
61.621020286036632
 31
0.0
 12
53.650186705228002
 22
62.505020988450823
 32
0.0
 13
53.650186705228002
 23
62.505020988450823
 33
0.0
  0
SOLID
  5
693
  8
DRG
  6
CONTINUOUS
 62
     7
 10
91.849782736700064
 20
62.505026890054282
 30
0.0
 11
93.745541016792032
 21
61.621020286036661
 31
0.0
 12
109.66182654226211
 22
62.505020988450823
 32
0.0
 13
109.66182654226211
 23
62.505020988450823
 33
0.0
210
0.0
220
0.0
230
1.0
  0
SOLID
  5
694
  8
DRG
  6
CONTINUOUS
 62
     7
 10
69.674336960659303
 20
63.240477485975177
 30
0.0
 11
70.886629345994876
 21
62.245574837047201
 31
0.0
 12
84.501142256151084
 22
62.072518178885289
 32
0.0
 13
84.501142256151084
 23
62.072518178885289
 33
0.0
210
0.0
220
0.0
230
1.0
  0
SOLID
  5
695
  8
DRG
  6
CONTINUOUS
 62
     7
 10
55.363636187630121
 20
63.704788302098869
 30
0.0
 11
35.838142899665947
 21
62.505026890054239
 31
0.0
 12
53.650186705228002
 22
62.505020988450823
 32
0.0
 13
53.650186705228002
 23
62.505020988450823
 33
0.0
210
0.0
220
0.0
230
1.0
  0
SOLID
  5
696
  8
DRG
  6
CONTINUOUS
 62
     7
 10
111.3752760246642
 20
63.704788302098869
 30
0.0
 11
91.849782736700064
 21
62.505026890054282
 31
0.0
 12
109.66182654226211
 22
62.505020988450823
 32
0.0
 13
109.66182654226211
 23
62.505020988450823
 33
0.0
210
0.0
220
0.0
230
1.0
  0
SOLID
  5
697
  8
DRG
  6
CONTINUOUS
 62
     7
 10
34.124691583427499
 20
63.704798418039722
 30
0.0
 11
35.838142899665947
 21
62.505026890054239
 31
0.0
 12
55.363636187630121
 22
63.704788302098869
 32
0.0
 13
55.363636187630121
 23
63.704788302098869
 33
0.0
210
0.0
220
0.0
230
1.0
  0
SOLID
  5
698
  8
DRG
  6
CONTINUOUS
 62
     7
 10
90.136331420461573
 20
63.7047984180398
 30
0.0
 11
91.849782736700064
 21
62.505026890054282
 31
0.0
 12
111.3752760246642
 22
63.704788302098869
 32
0.0
 13
111.3752760246642
 23
63.704788302098869
 33
0.0
210
0.0
220
0.0
230
1.0
  0
SOLID
  5
699
  8
DRG
  6
CONTINUOUS
 62
     7
 10
68.679434311731342
 20
64.45276987131075
 30
0.0
 11
69.674336960659303
 21
63.240477485975177
 31
0.0
 12
84.501142256151084
 22
62.072518178885289
 32
0.0
 13
84.501142256151084
 23
62.072518178885289
 33
0.0
210
0.0
220
0.0
230
1.0
  0
SOLID
  5
69A
  8
DRG
  6
CONTINUOUS
 62
     7
 10
56.842717599595979
 20
65.183865349591471
 30
0.0
 11
34.124691583427499
 21
63.704798418039722
 31
0.0
 12
55.363636187630121
 22
63.704788302098869
 32
0.0
 13
55.363636187630121
 23
63.704788302098869
 33
0.0
210
0.0
220
0.0
230
1.0
  0
SOLID
  5
69B
  8
DRG
  6
CONTINUOUS
 62
     7
 10
112.8543574366301
 20
65.183865349591471
 30
0.0
 11
90.136331420461573
 21
63.7047984180398
 31
0.0
 12
111.3752760246642
 22
63.704788302098869
 32
0.0
 13
111.3752760246642
 23
63.704788302098869
 33
0.0
210
0.0
220
0.0
230
1.0
  0
SOLID
  5
69C
  8
DRG
  6
CONTINUOUS
 62
     7
 10
32.645609582238237
 20
65.183880419228927
 30
0.0
 11
34.124691583427499
 21
63.704798418039722
 31
0.0
 12
56.842717599595979
 22
65.183865349591471
 32
0.0
 13
56.842717599595979
 23
65.183865349591471
 33
0.0
210
0.0
220
0.0
230
1.0
  0
SOLID
  5
69D
  8
DRG
  6
CONTINUOUS
 62
     7
 10
88.657249419272333
 20
65.183880419229055
 30
0.0
 11
90.136331420461573
 21
63.7047984180398
 31
0.0
 12
112.8543574366301
 22
65.183865349591471
 32
0.0
 13
112.8543574366301
 23
65.183865349591471
 33
0.0
210
0.0
220
0.0
230
1.0
  0
SOLID
  5
69E
  8
DRG
  6
CONTINUOUS
 62
     7
 10
67.940154950061412
 20
65.835864276546843
 30
0.0
 11
68.679434311731342
 21
64.45276987131075
 31
0.0
 12
84.501142256151084
 22
62.072518178885289
 32
0.0
 13
84.501142256151084
 23
62.072518178885289
 33
0.0
210
0.0
220
0.0
230
1.0
  0
SOLID
  5
69F
  8
DRG
  6
CONTINUOUS
 62
     7
 10
114.054129806327
 20
66.897311291707624
 30
0.0
 11
88.657249419272333
 21
65.183880419229055
 31
0.0
 12
112.8543574366301
 22
65.183865349591471
 32
0.0
 13
112.8543574366301
 23
65.183865349591471
 33
0.0
210
0.0
220
0.0
230
1.0
  0
SOLID
  5
6A0
  8
DRG
  6
CONTINUOUS
 62
     7
 10
58.042489969292809
 20
66.897311291707624
 30
0.0
 11
32.645609582238237
 21
65.183880419228927
 31
0.0
 12
56.842717599595979
 22
65.183865349591471
 32
0.0
 13
56.842717599595979
 23
65.183865349591471
 33
0.0
210
0.0
220
0.0
230
1.0
  0
SOLID
  5
6A1
  8
DRG
  6
CONTINUOUS
 62
     7
 10
31.445838054252711
 20
66.897331735467347
 30
0.0
 11
32.645609582238237
 21
65.183880419228927
 31
0.0
 12
58.042489969292809
 22
66.897311291707624
 32
0.0
 13
58.042489969292809
 23
66.897311291707624
 33
0.0
210
0.0
220
0.0
230
1.0
  0
SOLID
  5
6A2
  8
DRG
  6
CONTINUOUS
 62
     7
 10
87.4574778912868
 20
66.897331735467503
 30
0.0
 11
88.657249419272333
 21
65.183880419229055
 31
0.0
 12
114.054129806327
 22
66.897311291707624
 32
0.0
 13
114.054129806327
 23
66.897311291707624
 33
0.0
210
0.0
220
0.0
230
1.0
  0
SOLID
  5
6A3
  8
DRG
  6
CONTINUOUS
 62
     7
 10
67.484908966925857
 20
67.336609159338536
 30
0.0
 11
67.940154950061412
 21
65.835864276546843
 31
0.0
 12
84.501142256151084
 22
62.072518178885289
 32
0.0
 13
84.501142256151084
 23
62.072518178885289
 33
0.0
210
0.0
220
0.0
230
1.0
  0
SOLID
  5
6A4
  8
DRG
  6
CONTINUOUS
 62
     7
 10
114.9381387940301
 20
68.793064135646546
 30
0.0
 11
87.4574778912868
 21
66.897331735467503
 31
0.0
 12
114.054129806327
 22
66.897311291707624
 32
0.0
 13
114.054129806327
 23
66.897311291707624
 33
0.0
210
0.0
220
0.0
230
1.0
  0
SOLID
  5
6A5
  8
DRG
  6
CONTINUOUS
 62
     7
 10
58.926498956995943
 20
68.793064135646546
 30
0.0
 11
31.445838054252711
 21
66.897331735467347
 31
0.0
 12
58.042489969292809
 22
66.897311291707624
 32
0.0
 13
58.042489969292809
 23
66.897311291707624
 33
0.0
210
0.0
220
0.0
230
1.0
  0
SOLID
  5
6A6
  8
DRG
  6
CONTINUOUS
 62
     7
 10
30.561831450235051
 20
68.793090015559272
 30
0.0
 11
31.445838054252711
 21
66.897331735467347
 31
0.0
 12
58.926498956995943
 22
68.793064135646546
 32
0.0
 13
58.926498956995943
 23
68.793064135646546
 33
0.0
  0
SOLID
  5
6A7
  8
DRG
  6
CONTINUOUS
 62
     7
 10
86.573471287269157
 20
68.793090015559471
 30
0.0
 11
87.4574778912868
 21
66.897331735467503
 31
0.0
 12
114.9381387940301
 22
68.793064135646546
 32
0.0
 13
114.9381387940301
 23
68.793064135646546
 33
0.0
210
0.0
220
0.0
230
1.0
  0
SOLID
  5
6A8
  8
DRG
  6
CONTINUOUS
 62
     7
 10
44.744171147941039
 20
68.794444026784149
 30
0.0
 11
30.561831450235051
 21
68.793090015559272
 31
0.0
 12
58.926498956995943
 22
68.793064135646546
 32
0.0
 13
58.926498956995943
 23
68.793064135646546
 33
0.0
210
0.0
220
0.0
230
1.0
  0
SOLID
  5
6A9
  8
DRG
  6
CONTINUOUS
 62
     7
 10
100.7558109849752
 20
68.794444026784163
 30
0.0
 11
86.573471287269157
 21
68.793090015559471
 31
0.0
 12
114.9381387940301
 22
68.793064135646546
 32
0.0
 13
114.9381387940301
 23
68.793064135646546
 33
0.0
210
0.0
220
0.0
230
1.0
  0
SOLID
  5
6AA
  8
DRG
  6
CONTINUOUS
 62
     7
 10
67.331191210151701
 20
68.89733173546756
 30
0.0
 11
67.484908966925857
 21
67.336609159338536
 31
0.0
 12
84.501142256151084
 22
62.072518178885289
 32
0.0
 13
84.501142256151084
 23
62.072518178885289
 33
0.0
210
0.0
220
0.0
230
1.0
  0
SOLID
  5
6AB
  8
DRG
  6
CONTINUOUS
 62
     7
 10
45.937347357229378
 20
68.983424572900503
 30
0.0
 11
44.744171147941039
 21
68.794444026784149
 31
0.0
 12
58.926498956995943
 22
68.793064135646546
 32
0.0
 13
58.926498956995943
 23
68.793064135646546
 33
0.0
  0
SOLID
  5
6AC
  8
DRG
  6
CONTINUOUS
 62
     7
 10
101.94898719426349
 20
68.983424572900518
 30
0.0
 11
100.7558109849752
 21
68.794444026784163
 31
0.0
 12
114.9381387940301
 22
68.793064135646546
 32
0.0
 13
114.9381387940301
 23
68.793064135646546
 33
0.0
210
0.0
220
0.0
230
1.0
  0
SOLID
  5
6AD
  8
DRG
  6
CONTINUOUS
 62
     7
 10
43.550994938652813
 20
68.983424572901143
 30
0.0
 11
30.561831450235051
 21
68.793090015559272
 31
0.0
 12
44.744171147941039
 22
68.794444026784149
 32
0.0
 13
44.744171147941039
 23
68.794444026784149
 33
0.0
210
0.0
220
0.0
230
1.0
  0
SOLID
  5
6AE
  8
DRG
  6
CONTINUOUS
 62
     7
 10
99.562634775687002
 20
68.983424572901157
 30
0.0
 11
86.573471287269157
 21
68.793090015559471
 31
0.0
 12
100.7558109849752
 22
68.794444026784163
 32
0.0
 13
100.7558109849752
 23
68.794444026784163
 33
0.0
210
0.0
220
0.0
230
1.0
  0
SOLID
  5
6AF
  8
DRG
  6
CONTINUOUS
 62
     7
 10
47.013727165805179
 20
69.531867478691453
 30
0.0
 11
45.937347357229378
 21
68.983424572900503
 31
0.0
 12
58.926498956995943
 22
68.793064135646546
 32
0.0
 13
58.926498956995943
 23
68.793064135646546
 33
0.0
210
0.0
220
0.0
230
1.0
  0
SOLID
  5
6B0
  8
DRG
  6
CONTINUOUS
 62
     7
 10
103.0253670028393
 20
69.531867478691467
 30
0.0
 11
101.94898719426349
 21
68.983424572900518
 31
0.0
 12
114.9381387940301
 22
68.793064135646546
 32
0.0
 13
114.9381387940301
 23
68.793064135646546
 33
0.0
210
0.0
220
0.0
230
1.0
  0
SOLID
  5
6B1
  8
DRG
  6
CONTINUOUS
 62
     7
 10
42.474615130077296
 20
69.531867478692675
 30
0.0
 11
30.561831450235051
 21
68.793090015559272
 31
0.0
 12
43.550994938652813
 22
68.983424572901143
 32
0.0
 13
43.550994938652813
 23
68.983424572901143
 33
0.0
  0
SOLID
  5
6B2
  8
DRG
  6
CONTINUOUS
 62
     7
 10
98.486254967111506
 20
69.531867478692689
 30
0.0
 11
86.573471287269157
 21
68.793090015559471
 31
0.0
 12
99.562634775687002
 22
68.983424572901157
 32
0.0
 13
99.562634775687002
 23
68.983424572901157
 33
0.0
210
0.0
220
0.0
230
1.0
  0
SOLID
  5
6B3
  8
DRG
  6
CONTINUOUS
 62
     7
 10
80.482556033578916
 20
69.876055965300111
 30
0.0
 11
67.331191210151701
 21
68.89733173546756
 31
0.0
 12
84.501142256151084
 22
62.072518178885289
 32
0.0
 13
84.501142256151084
 23
62.072518178885289
 33
0.0
210
0.0
220
0.0
230
1.0
  0
SOLID
  5
6B4
  8
DRG
  6
CONTINUOUS
 62
     7
 10
84.501142256151084
 20
62.072518178885289
 30
0.0
 11
83.501142256151255
 21
69.876055965300111
 31
0.0
 12
80.482556033578916
 22
69.876055965300111
 32
0.0
 13
80.482556033578916
 23
69.876055965300111
 33
0.0
210
0.0
220
0.0
230
1.0
  0
SOLID
  5
6B5
  8
DRG
  6
CONTINUOUS
 62
     7
 10
84.015250681967487
 20
70.00375669518948
 30
0.0
 11
83.501142256151255
 21
69.876055965300111
 31
0.0
 12
84.501142256151084
 22
62.072518178885289
 32
0.0
 13
84.501142256151084
 23
62.072518178885289
 33
0.0
  0
SOLID
  5
6B6
  8
DRG
  6
CONTINUOUS
 62
     7
 10
79.555505050454073
 20
70.02288641641465
 30
0.0
 11
67.331191210151701
 21
68.89733173546756
 31
0.0
 12
80.482556033578916
 22
69.876055965300111
 32
0.0
 13
80.482556033578916
 23
69.876055965300111
 33
0.0
210
0.0
220
0.0
230
1.0
  0
SOLID
  5
6B7
  8
DRG
  6
CONTINUOUS
 62
     7
 10
84.501142256151084
 20
70.214764581409185
 30
0.0
 11
84.015250681967487
 21
70.00375669518948
 31
0.0
 12
84.501142256151084
 22
62.072518178885289
 32
0.0
 13
84.501142256151084
 23
62.072518178885289
 33
0.0
210
0.0
220
0.0
230
1.0
  0
SOLID
  5
6B8
  8
DRG
  6
CONTINUOUS
 62
     7
 10
47.867947018425959
 20
70.386087331311757
 30
0.0
 11
47.013727165805179
 21
69.531867478691453
 31
0.0
 12
58.926498956995943
 22
68.793064135646546
 32
0.0
 13
58.926498956995943
 23
68.793064135646546
 33
0.0
210
0.0
220
0.0
230
1.0
  0
SOLID
  5
6B9
  8
DRG
  6
CONTINUOUS
 62
     7
 10
103.8795868554601
 20
70.386087331311771
 30
0.0
 11
103.0253670028393
 21
69.531867478691467
 31
0.0
 12
114.9381387940301
 22
68.793064135646546
 32
0.0
 13
114.9381387940301
 23
68.793064135646546
 33
0.0
210
0.0
220
0.0
230
1.0
  0
SOLID
  5
6BA
  8
DRG
  6
CONTINUOUS
 62
     7
 10
41.620395277457
 20
70.386087331313433
 30
0.0
 11
30.561831450235051
 21
68.793090015559272
 31
0.0
 12
42.474615130077296
 22
69.531867478692675
 32
0.0
 13
42.474615130077296
 23
69.531867478692675
 33
0.0
  0
SOLID
  5
6BB
  8
DRG
  6
CONTINUOUS
 62
     7
 10
97.632035114491202
 20
70.386087331313462
 30
0.0
 11
86.573471287269157
 21
68.793090015559471
 31
0.0
 12
98.486254967111506
 22
69.531867478692689
 32
0.0
 13
98.486254967111506
 23
69.531867478692689
 33
0.0
210
0.0
220
0.0
230
1.0
  0
SOLID
  5
6BC
  8
DRG
  6
CONTINUOUS
 62
     7
 10
78.719200276701514
 20
70.449004982175254
 30
0.0
 11
67.331191210151701
 21
68.89733173546756
 31
0.0
 12
79.555505050454073
 22
70.02288641641465
 32
0.0
 13
79.555505050454073
 23
70.02288641641465
 33
0.0
210
0.0
220
0.0
230
1.0
  0
SOLID
  5
6BD
  8
DRG
  6
CONTINUOUS
 62
     7
 10
115.4795243346376
 20
70.81352260640594
 30
0.0
 11
103.8795868554601
 21
70.386087331311771
 31
0.0
 12
114.9381387940301
 22
68.793064135646546
 32
0.0
 13
114.9381387940301
 23
68.793064135646546
 33
0.0
  0
SOLID
  5
6BE
  8
DRG
  6
CONTINUOUS
 62
     7
 10
59.467884497603507
 20
70.81352260640594
 30
0.0
 11
47.867947018425959
 21
70.386087331311757
 31
0.0
 12
58.926498956995943
 22
68.793064135646546
 32
0.0
 13
58.926498956995943
 23
68.793064135646546
 33
0.0
210
0.0
220
0.0
230
1.0
  0
SOLID
  5
6BF
  8
DRG
  6
CONTINUOUS
 62
     7
 10
30.02044986351941
 20
70.813553603464072
 30
0.0
 11
30.561831450235051
 21
68.793090015559272
 31
0.0
 12
41.620395277457
 22
70.386087331313433
 32
0.0
 13
41.620395277457
 23
70.386087331313433
 33
0.0
210
0.0
220
0.0
230
1.0
  0
SOLID
  5
6C0
  8
DRG
  6
CONTINUOUS
 62
     7
 10
86.032089700553556
 20
70.813553603464314
 30
0.0
 11
86.573471287269157
 21
68.793090015559471
 31
0.0
 12
97.632035114491202
 22
70.386087331313462
 32
0.0
 13
97.632035114491202
 23
70.386087331313462
 33
0.0
210
0.0
220
0.0
230
1.0
  0
SOLID
  5
6C1
  8
DRG
  6
CONTINUOUS
 62
     7
 10
78.055505050454087
 20
71.112700208422694
 30
0.0
 11
67.331191210151701
 21
68.89733173546756
 31
0.0
 12
78.719200276701514
 22
70.449004982175254
 32
0.0
 13
78.719200276701514
 23
70.449004982175254
 33
0.0
210
0.0
220
0.0
230
1.0
  0
SOLID
  5
6C2
  8
DRG
  6
CONTINUOUS
 62
     7
 10
48.416389924217491
 20
71.462467139887266
 30
0.0
 11
47.867947018425959
 21
70.386087331311757
 31
0.0
 12
59.467884497603507
 22
70.81352260640594
 32
0.0
 13
59.467884497603507
 23
70.81352260640594
 33
0.0
210
0.0
220
0.0
230
1.0
  0
SOLID
  5
6C3
  8
DRG
  6
CONTINUOUS
 62
     7
 10
104.42802976125159
 20
71.462467139887281
 30
0.0
 11
103.8795868554601
 21
70.386087331311771
 31
0.0
 12
115.4795243346376
 22
70.81352260640594
 32
0.0
 13
115.4795243346376
 23
70.81352260640594
 33
0.0
210
0.0
220
0.0
230
1.0
  0
SOLID
  5
6C4
  8
DRG
  6
CONTINUOUS
 62
     7
 10
41.07195237166605
 20
71.462467139889256
 30
0.0
 11
30.02044986351941
 21
70.813553603464072
 31
0.0
 12
41.620395277457
 22
70.386087331313433
 32
0.0
 13
41.620395277457
 23
70.386087331313433
 33
0.0
  0
SOLID
  5
6C5
  8
DRG
  6
CONTINUOUS
 62
     7
 10
97.083592208700239
 20
71.46246713988927
 30
0.0
 11
86.032089700553556
 21
70.813553603464314
 31
0.0
 12
97.632035114491202
 22
70.386087331313462
 32
0.0
 13
97.632035114491202
 23
70.386087331313462
 33
0.0
210
0.0
220
0.0
230
1.0
  0
SOLID
  5
6C6
  8
DRG
  6
CONTINUOUS
 62
     7
 10
77.62938648469347
 20
71.949004982175268
 30
0.0
 11
67.331191210151701
 21
68.89733173546756
 31
0.0
 12
78.055505050454087
 22
71.112700208422694
 32
0.0
 13
78.055505050454087
 23
71.112700208422694
 33
0.0
210
0.0
220
0.0
230
1.0
  0
SOLID
  5
6C7
  8
DRG
  6
CONTINUOUS
 62
     7
 10
48.605370470334492
 20
72.655643349175492
 30
0.0
 11
48.416389924217491
 21
71.462467139887266
 31
0.0
 12
59.467884497603507
 22
70.81352260640594
 32
0.0
 13
59.467884497603507
 23
70.81352260640594
 33
0.0
210
0.0
220
0.0
230
1.0
  0
SOLID
  5
6C8
  8
DRG
  6
CONTINUOUS
 62
     7
 10
104.6170103073686
 20
72.655643349175506
 30
0.0
 11
104.42802976125159
 21
71.462467139887281
 31
0.0
 12
115.4795243346376
 22
70.81352260640594
 32
0.0
 13
115.4795243346376
 23
70.81352260640594
 33
0.0
210
0.0
220
0.0
230
1.0
  0
SOLID
  5
6C9
  8
DRG
  6
CONTINUOUS
 62
     7
 10
40.882971825549703
 20
72.655643349177566
 30
0.0
 11
30.02044986351941
 21
70.813553603464072
 31
0.0
 12
41.07195237166605
 22
71.462467139889256
 32
0.0
 13
41.07195237166605
 23
71.462467139889256
 33
0.0
210
0.0
220
0.0
230
1.0
  0
SOLID
  5
6CA
  8
DRG
  6
CONTINUOUS
 62
     7
 10
96.894611662583884
 20
72.655643349177595
 30
0.0
 11
86.032089700553556
 21
70.813553603464314
 31
0.0
 12
97.083592208700239
 22
71.46246713988927
 32
0.0
 13
97.083592208700239
 23
71.46246713988927
 33
0.0
  0
SOLID
  5
6CB
  8
DRG
  6
CONTINUOUS
 62
     7
 10
77.482556033578931
 20
72.876055965300111
 30
0.0
 11
67.331191210151701
 21
68.89733173546756
 31
0.0
 12
77.62938648469347
 22
71.949004982175268
 32
0.0
 13
77.62938648469347
 23
71.949004982175268
 33
0.0
210
0.0
220
0.0
230
1.0
  0
SOLID
  5
6CC
  8
DRG
  6
CONTINUOUS
 62
     7
 10
115.6618367640986
 20
72.897296325816527
 30
0.0
 11
104.6170103073686
 21
72.655643349175506
 31
0.0
 12
115.4795243346376
 22
70.81352260640594
 32
0.0
 13
115.4795243346376
 23
70.81352260640594
 33
0.0
210
0.0
220
0.0
230
1.0
  0
SOLID
  5
6CD
  8
DRG
  6
CONTINUOUS
 62
     7
 10
59.650196927064421
 20
72.897296325816555
 30
0.0
 11
48.605370470334492
 21
72.655643349175492
 31
0.0
 12
59.467884497603507
 22
70.81352260640594
 32
0.0
 13
59.467884497603507
 23
70.81352260640594
 33
0.0
210
0.0
220
0.0
230
1.0
  0
SOLID
  5
6CE
  8
DRG
  6
CONTINUOUS
 62
     7
 10
29.838142899665851
 20
72.897331735467191
 30
0.0
 11
30.02044986351941
 21
70.813553603464072
 31
0.0
 12
40.882971825549703
 22
72.655643349177566
 32
0.0
 13
40.882971825549703
 23
72.655643349177566
 33
0.0
210
0.0
220
0.0
230
1.0
  0
SOLID
  5
6CF
  8
DRG
  6
CONTINUOUS
 62
     7
 10
85.849782736700035
 20
72.897331735467475
 30
0.0
 11
86.032089700553556
 21
70.813553603464314
 31
0.0
 12
96.894611662583884
 22
72.655643349177595
 32
0.0
 13
96.894611662583884
 23
72.655643349177595
 33
0.0
210
0.0
220
0.0
230
1.0
  0
SOLID
  5
6D0
  8
DRG
  6
CONTINUOUS
 62
     7
 10
165.4162645291251
 20
78.311404477182364
 30
0.0
 11
161.3332883364622
 21
62.115696081838678
 31
0.0
 12
171.78072804963571
 22
62.115696081838678
 32
0.0
 13
171.78072804963571
 23
62.115696081838678
 33
0.0
210
0.0
220
0.0
230
1.0
  0
SOLID
  5
6D1
  8
DRG
  6
CONTINUOUS
 62
     7
 10
115.9280150750885
 20
78.628250557125298
 30
0.0
 11
104.6170103073686
 21
72.655643349175506
 31
0.0
 12
115.6618367640986
 22
72.897296325816527
 32
0.0
 13
115.6618367640986
 23
72.897296325816527
 33
0.0
210
0.0
220
0.0
230
1.0
  0
SOLID
  5
6D2
  8
DRG
  6
CONTINUOUS
 62
     7
 10
59.916375238054371
 20
78.628250557125327
 30
0.0
 11
48.605370470334492
 21
72.655643349175492
 31
0.0
 12
59.650196927064421
 22
72.897296325816555
 32
0.0
 13
59.650196927064421
 23
72.897296325816555
 33
0.0
210
0.0
220
0.0
230
1.0
  0
SOLID
  5
6D3
  8
DRG
  6
CONTINUOUS
 62
     7
 10
29.57196678328226
 20
78.628262385817905
 30
0.0
 11
29.838142899665851
 21
72.897331735467191
 31
0.0
 12
40.882971825549703
 22
72.655643349177566
 32
0.0
 13
40.882971825549703
 23
72.655643349177566
 33
0.0
210
0.0
220
0.0
230
1.0
  0
SOLID
  5
6D4
  8
DRG
  6
CONTINUOUS
 62
     7
 10
85.583606620316473
 20
78.628262385818132
 30
0.0
 11
85.849782736700035
 21
72.897331735467475
 31
0.0
 12
96.894611662583884
 22
72.655643349177595
 32
0.0
 13
96.894611662583884
 23
72.655643349177595
 33
0.0
210
0.0
220
0.0
230
1.0
  0
SOLID
  5
6D5
  8
DRG
  6
CONTINUOUS
 62
     7
 10
48.825355035771203
 20
81.496816718755184
 30
0.0
 11
48.605370470334492
 21
72.655643349175492
 31
0.0
 12
59.916375238054371
 22
78.628250557125327
 32
0.0
 13
59.916375238054371
 23
78.628250557125327
 33
0.0
210
0.0
220
0.0
230
1.0
  0
SOLID
  5
6D6
  8
DRG
  6
CONTINUOUS
 62
     7
 10
104.83699487280531
 20
81.496816718755184
 30
0.0
 11
104.6170103073686
 21
72.655643349175506
 31
0.0
 12
115.9280150750885
 22
78.628250557125298
 32
0.0
 13
115.9280150750885
 23
78.628250557125298
 33
0.0
210
0.0
220
0.0
230
1.0
  0
SOLID
  5
6D7
  8
DRG
  6
CONTINUOUS
 62
     7
 10
40.662987260112992
 20
81.496816718755866
 30
0.0
 11
29.57196678328226
 21
78.628262385817905
 31
0.0
 12
40.882971825549703
 22
72.655643349177566
 32
0.0
 13
40.882971825549703
 23
72.655643349177566
 33
0.0
210
0.0
220
0.0
230
1.0
  0
SOLID
  5
6D8
  8
DRG
  6
CONTINUOUS
 62
     7
 10
96.674627097147194
 20
81.496816718756293
 30
0.0
 11
85.583606620316473
 21
78.628262385818132
 31
0.0
 12
96.894611662583884
 22
72.655643349177595
 32
0.0
 13
96.894611662583884
 23
72.655643349177595
 33
0.0
210
0.0
220
0.0
230
1.0
  0
SOLID
  5
6D9
  8
DRG
  6
CONTINUOUS
 62
     7
 10
153.2899770207527
 20
82.583583780839575
 30
0.0
 11
161.3332883364622
 21
62.115696081838678
 31
0.0
 12
165.4162645291251
 22
78.311404477182364
 32
0.0
 13
165.4162645291251
 23
78.311404477182364
 33
0.0
210
0.0
220
0.0
230
1.0
  0
SOLID
  5
6DA
  8
DRG
  6
CONTINUOUS
 62
     7
 10
29.57196678328226
 20
84.365371051693273
 30
0.0
 11
29.57196678328226
 21
78.628262385817905
 31
0.0
 12
40.662987260112992
 22
81.496816718755866
 32
0.0
 13
40.662987260112992
 23
81.496816718755866
 33
0.0
210
0.0
220
0.0
230
1.0
  0
SOLID
  5
6DB
  8
DRG
  6
CONTINUOUS
 62
     7
 10
85.583606620316473
 20
84.365371051693415
 30
0.0
 11
85.583606620316473
 21
78.628262385818132
 31
0.0
 12
96.674627097147194
 22
81.496816718756293
 32
0.0
 13
96.674627097147194
 23
81.496816718756293
 33
0.0
  0
SOLID
  5
6DC
  8
DRG
  6
CONTINUOUS
 62
     7
 10
115.9280150750885
 20
84.365382880385525
 30
0.0
 11
104.83699487280531
 21
81.496816718755184
 31
0.0
 12
115.9280150750885
 22
78.628250557125298
 32
0.0
 13
115.9280150750885
 23
78.628250557125298
 33
0.0
210
0.0
220
0.0
230
1.0
  0
SOLID
  5
6DD
  8
DRG
  6
CONTINUOUS
 62
     7
 10
59.916375238054371
 20
84.365382880385553
 30
0.0
 11
48.825355035771203
 21
81.496816718755184
 31
0.0
 12
59.916375238054371
 22
78.628250557125327
 32
0.0
 13
59.916375238054371
 23
78.628250557125327
 33
0.0
210
0.0
220
0.0
230
1.0
  0
SOLID
  5
6DE
  8
DRG
  6
CONTINUOUS
 62
     7
 10
18.821661727211438
 20
85.569427875032716
 30
0.0
 11
7.7802673214059723
 21
62.115696081838671
 31
0.0
 12
18.821661727211438
 22
62.115696081838678
 32
0.0
 13
18.821661727211438
 23
62.115696081838678
 33
0.0
  0
SOLID
  5
6DF
  8
DRG
  6
CONTINUOUS
 62
     7
 10
130.05101171535759
 20
85.569427875032716
 30
0.0
 11
119.0096173095521
 21
62.115696081838678
 31
0.0
 12
130.05101171535759
 22
62.115696081838671
 32
0.0
 13
130.05101171535759
 23
62.115696081838671
 33
0.0
210
0.0
220
0.0
230
1.0
  0
SOLID
  5
6E0
  8
DRG
  6
CONTINUOUS
 62
     7
 10
176.9709164189357
 20
86.855763084496857
 30
0.0
 11
153.2899770207527
 21
82.583583780839575
 31
0.0
 12
165.4162645291251
 22
78.311404477182364
 32
0.0
 13
165.4162645291251
 23
78.311404477182364
 33
0.0
210
0.0
220
0.0
230
1.0
  0
SOLID
  5
6E1
  8
DRG
  6
CONTINUOUS
 62
     7
 10
176.9709164189357
 20
86.855763084496857
 30
0.0
 11
165.4162645291251
 21
78.311404477182364
 31
0.0
 12
176.9709164189357
 22
78.31140447718235
 32
0.0
 13
176.9709164189357
 23
78.31140447718235
 33
0.0
210
0.0
220
0.0
230
1.0
  0
SOLID
  5
6E2
  8
DRG
  6
CONTINUOUS
 62
     7
 10
165.4162645291251
 20
86.855763084496886
 30
0.0
 11
153.2899770207527
 21
82.583583780839575
 31
0.0
 12
176.9709164189357
 22
86.855763084496857
 32
0.0
 13
176.9709164189357
 23
86.855763084496857
 33
0.0
210
0.0
220
0.0
230
1.0
  0
SOLID
  5
6E3
  8
DRG
  6
CONTINUOUS
 62
     7
 10
18.975379483985598
 20
87.13015045116174
 30
0.0
 11
7.7802673214059723
 21
62.115696081838671
 31
0.0
 12
18.821661727211438
 22
85.569427875032716
 32
0.0
 13
18.821661727211438
 23
85.569427875032716
 33
0.0
210
0.0
220
0.0
230
1.0
  0
SOLID
  5
6E4
  8
DRG
  6
CONTINUOUS
 62
     7
 10
130.2047294721317
 20
87.130150451161754
 30
0.0
 11
119.0096173095521
 21
62.115696081838678
 31
0.0
 12
130.05101171535759
 22
85.569427875032716
 32
0.0
 13
130.05101171535759
 23
85.569427875032716
 33
0.0
  0
SOLID
  5
6E5
  8
DRG
  6
CONTINUOUS
 62
     7
 10
19.43062546712115
 20
88.630895333953447
 30
0.0
 11
7.7802673214059723
 21
62.115696081838671
 31
0.0
 12
18.975379483985598
 22
87.13015045116174
 32
0.0
 13
18.975379483985598
 23
87.13015045116174
 33
0.0
210
0.0
220
0.0
230
1.0
  0
SOLID
  5
6E6
  8
DRG
  6
CONTINUOUS
 62
     7
 10
130.6599754552673
 20
88.630895333953447
 30
0.0
 11
119.0096173095521
 21
62.115696081838678
 31
0.0
 12
130.2047294721317
 22
87.130150451161754
 32
0.0
 13
130.2047294721317
 23
87.130150451161754
 33
0.0
210
0.0
220
0.0
230
1.0
  0
SOLID
  5
6E7
  8
DRG
  6
CONTINUOUS
 62
     7
 10
29.83814289966584
 20
90.096301702044016
 30
0.0
 11
29.57196678328226
 21
84.365371051693273
 31
0.0
 12
40.662987260112992
 22
81.496816718755866
 32
0.0
 13
40.662987260112992
 23
81.496816718755866
 33
0.0
  0
SOLID
  5
6E8
  8
DRG
  6
CONTINUOUS
 62
     7
 10
85.849782736700035
 20
90.096301702044045
 30
0.0
 11
85.583606620316473
 21
84.365371051693415
 31
0.0
 12
96.674627097147194
 22
81.496816718756293
 32
0.0
 13
96.674627097147194
 23
81.496816718756293
 33
0.0
  0
SOLID
  5
6E9
  8
DRG
  6
CONTINUOUS
 62
     7
 10
115.6618367640986
 20
90.096337111694325
 30
0.0
 11
104.83699487280531
 21
81.496816718755184
 31
0.0
 12
115.9280150750885
 22
84.365382880385525
 32
0.0
 13
115.9280150750885
 23
84.365382880385525
 33
0.0
210
0.0
220
0.0
230
1.0
  0
SOLID
  5
6EA
  8
DRG
  6
CONTINUOUS
 62
     7
 10
59.650196927064421
 20
90.096337111694368
 30
0.0
 11
48.825355035771203
 21
81.496816718755184
 31
0.0
 12
59.916375238054371
 22
84.365382880385553
 32
0.0
 13
59.916375238054371
 23
84.365382880385553
 33
0.0
210
0.0
220
0.0
230
1.0
  0
SOLID
  5
6EB
  8
DRG
  6
CONTINUOUS
 62
     7
 10
40.882971825549703
 20
90.337990088334166
 30
0.0
 11
29.83814289966584
 21
90.096301702044016
 31
0.0
 12
40.662987260112992
 22
81.496816718755866
 32
0.0
 13
40.662987260112992
 23
81.496816718755866
 33
0.0
  0
SOLID
  5
6EC
  8
DRG
  6
CONTINUOUS
 62
     7
 10
104.6170103073686
 20
90.337990088334735
 30
0.0
 11
104.83699487280531
 21
81.496816718755184
 31
0.0
 12
115.6618367640986
 22
90.096337111694325
 32
0.0
 13
115.6618367640986
 23
90.096337111694325
 33
0.0
210
0.0
220
0.0
230
1.0
  0
SOLID
  5
6ED
  8
DRG
  6
CONTINUOUS
 62
     7
 10
48.605370470334456
 20
90.337990088334735
 30
0.0
 11
48.825355035771203
 21
81.496816718755184
 31
0.0
 12
59.650196927064421
 22
90.096337111694368
 32
0.0
 13
59.650196927064421
 23
90.096337111694368
 33
0.0
210
0.0
220
0.0
230
1.0
  0
SOLID
  5
6EE
  8
DRG
  6
CONTINUOUS
 62
     7
 10
96.894611662583884
 20
90.337990088335033
 30
0.0
 11
85.849782736700035
 21
90.096301702044045
 31
0.0
 12
96.674627097147194
 22
81.496816718756293
 32
0.0
 13
96.674627097147194
 23
81.496816718756293
 33
0.0
210
0.0
220
0.0
230
1.0
  0
SOLID
  5
6EF
  8
DRG
  6
CONTINUOUS
 62
     7
 10
41.071952371666292
 20
91.531166297622477
 30
0.0
 11
29.83814289966584
 21
90.096301702044016
 31
0.0
 12
40.882971825549703
 22
90.337990088334166
 32
0.0
 13
40.882971825549703
 23
90.337990088334166
 33
0.0
210
0.0
220
0.0
230
1.0
  0
SOLID
  5
6F0
  8
DRG
  6
CONTINUOUS
 62
     7
 10
48.416389924217718
 20
91.531166297623017
 30
0.0
 11
48.605370470334456
 21
90.337990088334735
 31
0.0
 12
59.650196927064421
 22
90.096337111694368
 32
0.0
 13
59.650196927064421
 23
90.096337111694368
 33
0.0
210
0.0
220
0.0
230
1.0
  0
SOLID
  5
6F1
  8
DRG
  6
CONTINUOUS
 62
     7
 10
104.42802976125201
 20
91.531166297623059
 30
0.0
 11
104.6170103073686
 21
90.337990088334735
 31
0.0
 12
115.6618367640986
 22
90.096337111694325
 32
0.0
 13
115.6618367640986
 23
90.096337111694325
 33
0.0
210
0.0
220
0.0
230
1.0
  0
SOLID
  5
6F2
  8
DRG
  6
CONTINUOUS
 62
     7
 10
97.083592208700608
 20
91.531166297623315
 30
0.0
 11
85.849782736700035
 21
90.096301702044045
 31
0.0
 12
96.894611662583884
 22
90.337990088335033
 32
0.0
 13
96.894611662583884
 23
90.337990088335033
 33
0.0
210
0.0
220
0.0
230
1.0
  0
SOLID
  5
6F3
  8
DRG
  6
CONTINUOUS
 62
     7
 10
86.03208970055357
 20
92.180079834047149
 30
0.0
 11
85.849782736700035
 21
90.096301702044045
 31
0.0
 12
97.083592208700608
 22
91.531166297623315
 32
0.0
 13
97.083592208700608
 23
91.531166297623315
 33
0.0
210
0.0
220
0.0
230
1.0
  0
SOLID
  5
6F4
  8
DRG
  6
CONTINUOUS
 62
     7
 10
30.020449863519389
 20
92.180079834047149
 30
0.0
 11
29.83814289966584
 21
90.096301702044016
 31
0.0
 12
41.071952371666292
 22
91.531166297622477
 32
0.0
 13
41.071952371666292
 23
91.531166297622477
 33
0.0
210
0.0
220
0.0
230
1.0
  0
SOLID
  5
6F5
  8
DRG
  6
CONTINUOUS
 62
     7
 10
115.4795243346377
 20
92.180110831105026
 30
0.0
 11
104.42802976125201
 21
91.531166297623059
 31
0.0
 12
115.6618367640986
 22
90.096337111694325
 32
0.0
 13
115.6618367640986
 23
90.096337111694325
 33
0.0
210
0.0
220
0.0
230
1.0
  0
SOLID
  5
6F6
  8
DRG
  6
CONTINUOUS
 62
     7
 10
59.467884497603578
 20
92.180110831105026
 30
0.0
 11
48.416389924217718
 21
91.531166297623017
 31
0.0
 12
59.650196927064421
 22
90.096337111694368
 32
0.0
 13
59.650196927064421
 23
90.096337111694368
 33
0.0
210
0.0
220
0.0
230
1.0
  0
SOLID
  5
6F7
  8
DRG
  6
CONTINUOUS
 62
     7
 10
41.620395277457447
 20
92.607546106198185
 30
0.0
 11
30.020449863519389
 21
92.180079834047149
 31
0.0
 12
41.071952371666292
 22
91.531166297622477
 32
0.0
 13
41.071952371666292
 23
91.531166297622477
 33
0.0
  0
SOLID
  5
6F8
  8
DRG
  6
CONTINUOUS
 62
     7
 10
47.867947018426399
 20
92.60754610619864
 30
0.0
 11
48.416389924217718
 21
91.531166297623017
 31
0.0
 12
59.467884497603578
 22
92.180110831105026
 32
0.0
 13
59.467884497603578
 23
92.180110831105026
 33
0.0
210
0.0
220
0.0
230
1.0
  0
SOLID
  5
6F9
  8
DRG
  6
CONTINUOUS
 62
     7
 10
103.8795868554608
 20
92.607546106198754
 30
0.0
 11
104.42802976125201
 21
91.531166297623059
 31
0.0
 12
115.4795243346377
 22
92.180110831105026
 32
0.0
 13
115.4795243346377
 23
92.180110831105026
 33
0.0
210
0.0
220
0.0
230
1.0
  0
SOLID
  5
6FA
  8
DRG
  6
CONTINUOUS
 62
     7
 10
97.632035114491885
 20
92.607546106198967
 30
0.0
 11
86.03208970055357
 21
92.180079834047149
 31
0.0
 12
97.083592208700608
 22
91.531166297623315
 32
0.0
 13
97.083592208700608
 23
91.531166297623315
 33
0.0
  0
SOLID
  5
6FB
  8
DRG
  6
CONTINUOUS
 62
     7
 10
42.474615130077929
 20
93.461765958818759
 30
0.0
 11
30.020449863519389
 21
92.180079834047149
 31
0.0
 12
41.620395277457447
 22
92.607546106198185
 32
0.0
 13
41.620395277457447
 23
92.607546106198185
 33
0.0
210
0.0
220
0.0
230
1.0
  0
SOLID
  5
6FC
  8
DRG
  6
CONTINUOUS
 62
     7
 10
47.013727165805797
 20
93.461765958819115
 30
0.0
 11
47.867947018426399
 21
92.60754610619864
 31
0.0
 12
59.467884497603578
 22
92.180110831105026
 32
0.0
 13
59.467884497603578
 23
92.180110831105026
 33
0.0
210
0.0
220
0.0
230
1.0
  0
SOLID
  5
6FD
  8
DRG
  6
CONTINUOUS
 62
     7
 10
103.0253670028403
 20
93.461765958819299
 30
0.0
 11
103.8795868554608
 21
92.607546106198754
 31
0.0
 12
115.4795243346377
 22
92.180110831105026
 32
0.0
 13
115.4795243346377
 23
92.180110831105026
 33
0.0
210
0.0
220
0.0
230
1.0
  0
SOLID
  5
6FE
  8
DRG
  6
CONTINUOUS
 62
     7
 10
98.486254967112458
 20
93.461765958819484
 30
0.0
 11
86.03208970055357
 21
92.180079834047149
 31
0.0
 12
97.632035114491885
 22
92.607546106198967
 32
0.0
 13
97.632035114491885
 23
92.607546106198967
 33
0.0
210
0.0
220
0.0
230
1.0
  0
SOLID
  5
6FF
  8
DRG
  6
CONTINUOUS
 62
     7
 10
43.550994938653538
 20
94.010208864610107
 30
0.0
 11
30.020449863519389
 21
92.180079834047149
 31
0.0
 12
42.474615130077929
 22
93.461765958818759
 32
0.0
 13
42.474615130077929
 23
93.461765958818759
 33
0.0
210
0.0
220
0.0
230
1.0
  0
SOLID
  5
700
  8
DRG
  6
CONTINUOUS
 62
     7
 10
45.937347357230102
 20
94.010208864610263
 30
0.0
 11
47.013727165805797
 21
93.461765958819115
 31
0.0
 12
59.467884497603578
 22
92.180110831105026
 32
0.0
 13
59.467884497603578
 23
92.180110831105026
 33
0.0
  0
SOLID
  5
701
  8
DRG
  6
CONTINUOUS
 62
     7
 10
101.9489871942646
 20
94.010208864610576
 30
0.0
 11
103.0253670028403
 21
93.461765958819299
 31
0.0
 12
115.4795243346377
 22
92.180110831105026
 32
0.0
 13
115.4795243346377
 23
92.180110831105026
 33
0.0
210
0.0
220
0.0
230
1.0
  0
SOLID
  5
702
  8
DRG
  6
CONTINUOUS
 62
     7
 10
99.562634775688124
 20
94.010208864610675
 30
0.0
 11
86.03208970055357
 21
92.180079834047149
 31
0.0
 12
98.486254967112458
 22
93.461765958819484
 32
0.0
 13
98.486254967112458
 23
93.461765958819484
 33
0.0
210
0.0
220
0.0
230
1.0
  0
SOLID
  5
703
  8
DRG
  6
CONTINUOUS
 62
     7
 10
44.744171147941813
 20
94.199189410726845
 30
0.0
 11
30.020449863519389
 21
92.180079834047149
 31
0.0
 12
43.550994938653538
 22
94.010208864610107
 32
0.0
 13
43.550994938653538
 23
94.010208864610107
 33
0.0
  0
SOLID
  5
704
  8
DRG
  6
CONTINUOUS
 62
     7
 10
44.744171147941813
 20
94.199189410726845
 30
0.0
 11
45.937347357230102
 21
94.010208864610263
 31
0.0
 12
59.467884497603578
 22
92.180110831105026
 32
0.0
 13
59.467884497603578
 23
92.180110831105026
 33
0.0
210
0.0
220
0.0
230
1.0
  0
SOLID
  5
705
  8
DRG
  6
CONTINUOUS
 62
     7
 10
100.75581098497641
 20
94.199189410727286
 30
0.0
 11
86.03208970055357
 21
92.180079834047149
 31
0.0
 12
99.562634775688124
 22
94.010208864610675
 32
0.0
 13
99.562634775688124
 23
94.010208864610675
 33
0.0
210
0.0
220
0.0
230
1.0
  0
SOLID
  5
706
  8
DRG
  6
CONTINUOUS
 62
     7
 10
100.75581098497641
 20
94.199189410727286
 30
0.0
 11
101.9489871942646
 21
94.010208864610576
 31
0.0
 12
115.4795243346377
 22
92.180110831105026
 32
0.0
 13
115.4795243346377
 23
92.180110831105026
 33
0.0
210
0.0
220
0.0
230
1.0
  0
SOLID
  5
707
  8
DRG
  6
CONTINUOUS
 62
     7
 10
86.5734712872692
 20
94.200543421951977
 30
0.0
 11
86.03208970055357
 21
92.180079834047149
 31
0.0
 12
100.75581098497641
 22
94.199189410727286
 32
0.0
 13
100.75581098497641
 23
94.199189410727286
 33
0.0
  0
SOLID
  5
708
  8
DRG
  6
CONTINUOUS
 62
     7
 10
30.561831450235012
 20
94.200543421951977
 30
0.0
 11
30.020449863519389
 21
92.180079834047149
 31
0.0
 12
44.744171147941813
 22
94.199189410726845
 32
0.0
 13
44.744171147941813
 23
94.199189410726845
 33
0.0
210
0.0
220
0.0
230
1.0
  0
SOLID
  5
709
  8
DRG
  6
CONTINUOUS
 62
     7
 10
114.93813879403019
 20
94.200569301864448
 30
0.0
 11
86.5734712872692
 21
94.200543421951977
 31
0.0
 12
100.75581098497641
 22
94.199189410727286
 32
0.0
 13
100.75581098497641
 23
94.199189410727286
 33
0.0
210
0.0
220
0.0
230
1.0
  0
SOLID
  5
70A
  8
DRG
  6
CONTINUOUS
 62
     7
 10
114.93813879403019
 20
94.200569301864448
 30
0.0
 11
100.75581098497641
 21
94.199189410727286
 31
0.0
 12
115.4795243346377
 22
92.180110831105026
 32
0.0
 13
115.4795243346377
 23
92.180110831105026
 33
0.0
210
0.0
220
0.0
230
1.0
  0
SOLID
  5
70B
  8
DRG
  6
CONTINUOUS
 62
     7
 10
58.926498956996042
 20
94.200569301864505
 30
0.0
 11
30.561831450235012
 21
94.200543421951977
 31
0.0
 12
44.744171147941813
 22
94.199189410726845
 32
0.0
 13
44.744171147941813
 23
94.199189410726845
 33
0.0
210
0.0
220
0.0
230
1.0
  0
SOLID
  5
70C
  8
DRG
  6
CONTINUOUS
 62
     7
 10
58.926498956996042
 20
94.200569301864505
 30
0.0
 11
44.744171147941813
 21
94.199189410726845
 31
0.0
 12
59.467884497603578
 22
92.180110831105026
 32
0.0
 13
59.467884497603578
 23
92.180110831105026
 33
0.0
210
0.0
220
0.0
230
1.0
  0
SOLID
  5
70D
  8
DRG
  6
CONTINUOUS
 62
     7
 10
77.482556033578931
 20
94.593352860836134
 30
0.0
 11
67.331191210151701
 21
68.89733173546756
 31
0.0
 12
77.482556033578931
 22
72.876055965300111
 32
0.0
 13
77.482556033578931
 23
72.876055965300111
 33
0.0
210
0.0
220
0.0
230
1.0
  0
SOLID
  5
70E
  8
DRG
  6
CONTINUOUS
 62
     7
 10
67.331191210151687
 20
94.593352860836134
 30
0.0
 11
77.482556033578931
 21
94.593352860836134
 31
0.0
 12
84.553623006881026
 22
94.593352860836134
 32
0.0
 13
84.553623006881026
 23
94.593352860836134
 33
0.0
210
0.0
220
0.0
230
1.0
  0
SOLID
  5
70F
  8
DRG
  6
CONTINUOUS
 62
     7
 10
67.331191210151687
 20
94.593352860836134
 30
0.0
 11
67.331191210151701
 21
68.89733173546756
 31
0.0
 12
77.482556033578931
 22
94.593352860836134
 32
0.0
 13
77.482556033578931
 23
94.593352860836134
 33
0.0
210
0.0
220
0.0
230
1.0
  0
SOLID
  5
710
  8
DRG
  6
CONTINUOUS
 62
     7
 10
87.457477891286857
 20
96.096301702043917
 30
0.0
 11
86.5734712872692
 21
94.200543421951977
 31
0.0
 12
114.93813879403019
 22
94.200569301864448
 32
0.0
 13
114.93813879403019
 23
94.200569301864448
 33
0.0
  0
SOLID
  5
711
  8
DRG
  6
CONTINUOUS
 62
     7
 10
31.445838054252661
 20
96.096301702043917
 30
0.0
 11
30.561831450235012
 21
94.200543421951977
 31
0.0
 12
58.926498956996042
 22
94.200569301864505
 32
0.0
 13
58.926498956996042
 23
94.200569301864505
 33
0.0
  0
SOLID
  5
712
  8
DRG
  6
CONTINUOUS
 62
     7
 10
114.0541298063271
 20
96.096322145803441
 30
0.0
 11
87.457477891286857
 21
96.096301702043917
 31
0.0
 12
114.93813879403019
 22
94.200569301864448
 32
0.0
 13
114.93813879403019
 23
94.200569301864448
 33
0.0
210
0.0
220
0.0
230
1.0
  0
SOLID
  5
713
  8
DRG
  6
CONTINUOUS
 62
     7
 10
58.042489969292951
 20
96.09632214580347
 30
0.0
 11
31.445838054252661
 21
96.096301702043917
 31
0.0
 12
58.926498956996042
 22
94.200569301864505
 32
0.0
 13
58.926498956996042
 23
94.200569301864505
 33
0.0
210
0.0
220
0.0
230
1.0
  0
SOLID
  5
714
  8
DRG
  6
CONTINUOUS
 62
     7
 10
32.645609582238201
 20
97.80975301828235
 30
0.0
 11
31.445838054252661
 21
96.096301702043917
 31
0.0
 12
58.042489969292951
 22
96.09632214580347
 32
0.0
 13
58.042489969292951
 23
96.09632214580347
 33
0.0
210
0.0
220
0.0
230
1.0
  0
SOLID
  5
715
  8
DRG
  6
CONTINUOUS
 62
     7
 10
88.657249419272375
 20
97.80975301828235
 30
0.0
 11
87.457477891286857
 21
96.096301702043917
 31
0.0
 12
114.0541298063271
 22
96.096322145803441
 32
0.0
 13
114.0541298063271
 23
96.096322145803441
 33
0.0
210
0.0
220
0.0
230
1.0
  0
SOLID
  5
716
  8
DRG
  6
CONTINUOUS
 62
     7
 10
112.85435743663029
 20
97.809768087919693
 30
0.0
 11
88.657249419272375
 21
97.80975301828235
 31
0.0
 12
114.0541298063271
 22
96.096322145803441
 32
0.0
 13
114.0541298063271
 23
96.096322145803441
 33
0.0
210
0.0
220
0.0
230
1.0
  0
SOLID
  5
717
  8
DRG
  6
CONTINUOUS
 62
     7
 10
56.842717599596121
 20
97.809768087919693
 30
0.0
 11
32.645609582238201
 21
97.80975301828235
 31
0.0
 12
58.042489969292951
 22
96.09632214580347
 32
0.0
 13
58.042489969292951
 23
96.09632214580347
 33
0.0
210
0.0
220
0.0
230
1.0
  0
SOLID
  5
718
  8
DRG
  6
CONTINUOUS
 62
     7
 10
130.05101171535759
 20
97.915857504065855
 30
0.0
 11
138.05101171535759
 21
93.569427875032716
 31
0.0
 12
139.4206293992797
 22
93.56942787503273
 32
0.0
 13
139.4206293992797
 23
93.56942787503273
 33
0.0
210
0.0
220
0.0
230
1.0
  0
SOLID
  5
719
  8
DRG
  6
CONTINUOUS
 62
     7
 10
130.05101171535759
 20
97.915857504065855
 30
0.0
 11
136.49028913922859
 21
93.415710118258545
 31
0.0
 12
138.05101171535759
 22
93.569427875032716
 32
0.0
 13
138.05101171535759
 23
93.569427875032716
 33
0.0
  0
SOLID
  5
71A
  8
DRG
  6
CONTINUOUS
 62
     7
 10
130.05101171535759
 20
97.915857504065855
 30
0.0
 11
134.9895442564368
 21
92.960464135123019
 31
0.0
 12
136.49028913922859
 22
93.415710118258545
 32
0.0
 13
136.49028913922859
 23
93.415710118258545
 33
0.0
210
0.0
220
0.0
230
1.0
  0
SOLID
  5
71B
  8
DRG
  6
CONTINUOUS
 62
     7
 10
130.05101171535759
 20
97.915857504065855
 30
0.0
 11
133.60644985120081
 21
92.221184773453075
 31
0.0
 12
134.9895442564368
 22
92.960464135123019
 32
0.0
 13
134.9895442564368
 23
92.960464135123019
 33
0.0
210
0.0
220
0.0
230
1.0
  0
SOLID
  5
71C
  8
DRG
  6
CONTINUOUS
 62
     7
 10
130.05101171535759
 20
97.915857504065855
 30
0.0
 11
132.39415746586519
 21
91.226282124525085
 31
0.0
 12
133.60644985120081
 22
92.221184773453075
 32
0.0
 13
133.60644985120081
 23
92.221184773453075
 33
0.0
210
0.0
220
0.0
230
1.0
  0
SOLID
  5
71D
  8
DRG
  6
CONTINUOUS
 62
     7
 10
130.05101171535759
 20
97.915857504065855
 30
0.0
 11
131.3992548169372
 21
90.01398973918954
 31
0.0
 12
132.39415746586519
 22
91.226282124525085
 32
0.0
 13
132.39415746586519
 23
91.226282124525085
 33
0.0
210
0.0
220
0.0
230
1.0
  0
SOLID
  5
71E
  8
DRG
  6
CONTINUOUS
 62
     7
 10
130.05101171535759
 20
97.915857504065855
 30
0.0
 11
130.6599754552673
 21
88.630895333953447
 31
0.0
 12
131.3992548169372
 22
90.01398973918954
 32
0.0
 13
131.3992548169372
 23
90.01398973918954
 33
0.0
210
0.0
220
0.0
230
1.0
  0
SOLID
  5
71F
  8
DRG
  6
CONTINUOUS
 62
     7
 10
130.05101171535759
 20
97.915857504065855
 30
0.0
 11
119.0096173095521
 21
62.115696081838678
 31
0.0
 12
130.6599754552673
 22
88.630895333953447
 32
0.0
 13
130.6599754552673
 23
88.630895333953447
 33
0.0
210
0.0
220
0.0
230
1.0
  0
SOLID
  5
720
  8
DRG
  6
CONTINUOUS
 62
     7
 10
18.821661727211438
 20
97.915857504065912
 30
0.0
 11
26.821661727211438
 21
93.569427875032716
 31
0.0
 12
28.191279411133561
 22
93.56942787503273
 32
0.0
 13
28.191279411133561
 23
93.56942787503273
 33
0.0
  0
SOLID
  5
721
  8
DRG
  6
CONTINUOUS
 62
     7
 10
18.821661727211438
 20
97.915857504065912
 30
0.0
 11
25.260939151082422
 21
93.415710118258545
 31
0.0
 12
26.821661727211438
 22
93.569427875032716
 32
0.0
 13
26.821661727211438
 23
93.569427875032716
 33
0.0
210
0.0
220
0.0
230
1.0
  0
SOLID
  5
722
  8
DRG
  6
CONTINUOUS
 62
     7
 10
18.821661727211438
 20
97.915857504065912
 30
0.0
 11
23.760194268290729
 21
92.960464135123004
 31
0.0
 12
25.260939151082422
 22
93.415710118258545
 32
0.0
 13
25.260939151082422
 23
93.415710118258545
 33
0.0
210
0.0
220
0.0
230
1.0
  0
SOLID
  5
723
  8
DRG
  6
CONTINUOUS
 62
     7
 10
18.821661727211438
 20
97.915857504065912
 30
0.0
 11
22.377099863054632
 21
92.221184773453075
 31
0.0
 12
23.760194268290729
 22
92.960464135123004
 32
0.0
 13
23.760194268290729
 23
92.960464135123004
 33
0.0
  0
SOLID
  5
724
  8
DRG
  6
CONTINUOUS
 62
     7
 10
18.821661727211438
 20
97.915857504065912
 30
0.0
 11
21.164807477719069
 21
91.226282124525085
 31
0.0
 12
22.377099863054632
 22
92.221184773453075
 32
0.0
 13
22.377099863054632
 23
92.221184773453075
 33
0.0
210
0.0
220
0.0
230
1.0
  0
SOLID
  5
725
  8
DRG
  6
CONTINUOUS
 62
     7
 10
18.821661727211438
 20
97.915857504065912
 30
0.0
 11
20.169904828791079
 21
90.013989739189526
 31
0.0
 12
21.164807477719069
 22
91.226282124525085
 32
0.0
 13
21.164807477719069
 23
91.226282124525085
 33
0.0
210
0.0
220
0.0
230
1.0
  0
SOLID
  5
726
  8
DRG
  6
CONTINUOUS
 62
     7
 10
18.821661727211438
 20
97.915857504065912
 30
0.0
 11
19.43062546712115
 21
88.630895333953447
 31
0.0
 12
20.169904828791079
 22
90.013989739189526
 32
0.0
 13
20.169904828791079
 23
90.013989739189526
 33
0.0
210
0.0
220
0.0
230
1.0
  0
SOLID
  5
727
  8
DRG
  6
CONTINUOUS
 62
     7
 10
18.821661727211438
 20
97.915857504065912
 30
0.0
 11
7.7802673214059723
 21
62.115696081838671
 31
0.0
 12
19.43062546712115
 22
88.630895333953447
 32
0.0
 13
19.43062546712115
 23
88.630895333953447
 33
0.0
210
0.0
220
0.0
230
1.0
  0
SOLID
  5
728
  8
DRG
  6
CONTINUOUS
 62
     7
 10
131.22850538356451
 20
99.255984787272112
 30
0.0
 11
130.05101171535759
 21
97.915857504065855
 31
0.0
 12
139.4206293992797
 22
93.56942787503273
 32
0.0
 13
139.4206293992797
 23
93.56942787503273
 33
0.0
210
0.0
220
0.0
230
1.0
  0
SOLID
  5
729
  8
DRG
  6
CONTINUOUS
 62
     7
 10
19.999155395418381
 20
99.255984787272155
 30
0.0
 11
18.821661727211438
 21
97.915857504065912
 31
0.0
 12
28.191279411133561
 22
93.56942787503273
 32
0.0
 13
28.191279411133561
 23
93.56942787503273
 33
0.0
210
0.0
220
0.0
230
1.0
  0
SOLID
  5
72A
  8
DRG
  6
CONTINUOUS
 62
     7
 10
90.136331420461644
 20
99.288835019471577
 30
0.0
 11
88.657249419272375
 21
97.80975301828235
 31
0.0
 12
112.85435743663029
 22
97.809768087919693
 32
0.0
 13
112.85435743663029
 23
97.809768087919693
 33
0.0
  0
SOLID
  5
72B
  8
DRG
  6
CONTINUOUS
 62
     7
 10
34.124691583427463
 20
99.288835019471577
 30
0.0
 11
32.645609582238201
 21
97.80975301828235
 31
0.0
 12
56.842717599596121
 22
97.809768087919693
 32
0.0
 13
56.842717599596121
 23
97.809768087919693
 33
0.0
  0
SOLID
  5
72C
  8
DRG
  6
CONTINUOUS
 62
     7
 10
111.3752760246644
 20
99.288845135412345
 30
0.0
 11
90.136331420461644
 21
99.288835019471577
 31
0.0
 12
112.85435743663029
 22
97.809768087919693
 32
0.0
 13
112.85435743663029
 23
97.809768087919693
 33
0.0
210
0.0
220
0.0
230
1.0
  0
SOLID
  5
72D
  8
DRG
  6
CONTINUOUS
 62
     7
 10
55.363636187630249
 20
99.288845135412345
 30
0.0
 11
34.124691583427463
 21
99.288835019471577
 31
0.0
 12
56.842717599596121
 22
97.809768087919693
 32
0.0
 13
56.842717599596121
 23
97.809768087919693
 33
0.0
210
0.0
220
0.0
230
1.0
  0
SOLID
  5
72E
  8
DRG
  6
CONTINUOUS
 62
     7
 10
132.62046538706059
 20
100.3717266133807
 30
0.0
 11
131.22850538356451
 21
99.255984787272112
 31
0.0
 12
139.4206293992797
 22
93.56942787503273
 32
0.0
 13
139.4206293992797
 23
93.56942787503273
 33
0.0
210
0.0
220
0.0
230
1.0
  0
SOLID
  5
72F
  8
DRG
  6
CONTINUOUS
 62
     7
 10
21.391115398914501
 20
100.3717266133808
 30
0.0
 11
19.999155395418381
 21
99.255984787272155
 31
0.0
 12
28.191279411133561
 22
93.56942787503273
 32
0.0
 13
28.191279411133561
 23
93.56942787503273
 33
0.0
210
0.0
220
0.0
230
1.0
  0
SOLID
  5
730
  8
DRG
  6
CONTINUOUS
 62
     7
 10
35.838142899665918
 20
100.488606547457
 30
0.0
 11
34.124691583427463
 21
99.288835019471577
 31
0.0
 12
55.363636187630249
 22
99.288845135412345
 32
0.0
 13
55.363636187630249
 23
99.288845135412345
 33
0.0
210
0.0
220
0.0
230
1.0
  0
SOLID
  5
731
  8
DRG
  6
CONTINUOUS
 62
     7
 10
91.849782736700107
 20
100.488606547457
 30
0.0
 11
90.136331420461644
 21
99.288835019471577
 31
0.0
 12
111.3752760246644
 22
99.288845135412345
 32
0.0
 13
111.3752760246644
 23
99.288845135412345
 33
0.0
210
0.0
220
0.0
230
1.0
  0
SOLID
  5
732
  8
DRG
  6
CONTINUOUS
 62
     7
 10
109.6618265422623
 20
100.4886124490604
 30
0.0
 11
91.849782736700107
 21
100.488606547457
 31
0.0
 12
111.3752760246644
 22
99.288845135412345
 32
0.0
 13
111.3752760246644
 23
99.288845135412345
 33
0.0
210
0.0
220
0.0
230
1.0
  0
SOLID
  5
733
  8
DRG
  6
CONTINUOUS
 62
     7
 10
53.650186705228109
 20
100.4886124490604
 30
0.0
 11
35.838142899665918
 21
100.488606547457
 31
0.0
 12
55.363636187630249
 22
99.288845135412345
 32
0.0
 13
55.363636187630249
 23
99.288845135412345
 33
0.0
210
0.0
220
0.0
230
1.0
  0
SOLID
  5
734
  8
DRG
  6
CONTINUOUS
 62
     7
 10
134.18475166795781
 20
101.22930512597181
 30
0.0
 11
132.62046538706059
 21
100.3717266133807
 31
0.0
 12
139.4206293992797
 22
93.56942787503273
 32
0.0
 13
139.4206293992797
 23
93.56942787503273
 33
0.0
  0
SOLID
  5
735
  8
DRG
  6
CONTINUOUS
 62
     7
 10
22.955401679811722
 20
101.2293051259719
 30
0.0
 11
21.391115398914501
 21
100.3717266133808
 31
0.0
 12
28.191279411133561
 22
93.56942787503273
 32
0.0
 13
28.191279411133561
 23
93.56942787503273
 33
0.0
210
0.0
220
0.0
230
1.0
  0
SOLID
  5
736
  8
DRG
  6
CONTINUOUS
 62
     7
 10
37.733901179757879
 20
101.3726131514746
 30
0.0
 11
35.838142899665918
 21
100.488606547457
 31
0.0
 12
53.650186705228109
 22
100.4886124490604
 32
0.0
 13
53.650186705228109
 23
100.4886124490604
 33
0.0
210
0.0
220
0.0
230
1.0
  0
SOLID
  5
737
  8
DRG
  6
CONTINUOUS
 62
     7
 10
93.745541016792075
 20
101.3726131514746
 30
0.0
 11
91.849782736700107
 21
100.488606547457
 31
0.0
 12
109.6618265422623
 22
100.4886124490604
 32
0.0
 13
109.6618265422623
 23
100.4886124490604
 33
0.0
210
0.0
220
0.0
230
1.0
  0
SOLID
  5
738
  8
DRG
  6
CONTINUOUS
 62
     7
 10
51.754431252759943
 20
101.3726158427642
 30
0.0
 11
37.733901179757879
 21
101.3726131514746
 31
0.0
 12
53.650186705228109
 22
100.4886124490604
 32
0.0
 13
53.650186705228109
 23
100.4886124490604
 33
0.0
210
0.0
220
0.0
230
1.0
  0
SOLID
  5
739
  8
DRG
  6
CONTINUOUS
 62
     7
 10
107.7660710897941
 20
101.3726158427642
 30
0.0
 11
93.745541016792075
 21
101.3726131514746
 31
0.0
 12
109.6618265422623
 22
100.4886124490604
 32
0.0
 13
109.6618265422623
 23
100.4886124490604
 33
0.0
210
0.0
220
0.0
230
1.0
  0
SOLID
  5
73A
  8
DRG
  6
CONTINUOUS
 62
     7
 10
135.87400717988629
 20
101.802758078951
 30
0.0
 11
134.18475166795781
 21
101.22930512597181
 31
0.0
 12
139.4206293992797
 22
93.56942787503273
 32
0.0
 13
139.4206293992797
 23
93.56942787503273
 33
0.0
210
0.0
220
0.0
230
1.0
  0
SOLID
  5
73B
  8
DRG
  6
CONTINUOUS
 62
     7
 10
24.644657191740151
 20
101.8027580789511
 30
0.0
 11
22.955401679811722
 21
101.2293051259719
 31
0.0
 12
28.191279411133561
 22
93.56942787503273
 32
0.0
 13
28.191279411133561
 23
93.56942787503273
 33
0.0
  0
SOLID
  5
73C
  8
DRG
  6
CONTINUOUS
 62
     7
 10
39.754364767662707
 20
101.9139947381902
 30
0.0
 11
37.733901179757879
 21
101.3726131514746
 31
0.0
 12
51.754431252759943
 22
101.3726158427642
 32
0.0
 13
51.754431252759943
 23
101.3726158427642
 33
0.0
210
0.0
220
0.0
230
1.0
  0
SOLID
  5
73D
  8
DRG
  6
CONTINUOUS
 62
     7
 10
95.766004604696889
 20
101.9139947381902
 30
0.0
 11
93.745541016792075
 21
101.3726131514746
 31
0.0
 12
107.7660710897941
 22
101.3726158427642
 32
0.0
 13
107.7660710897941
 23
101.3726158427642
 33
0.0
210
0.0
220
0.0
230
1.0
  0
SOLID
  5
73E
  8
DRG
  6
CONTINUOUS
 62
     7
 10
49.733971184486549
 20
101.913995421392
 30
0.0
 11
39.754364767662707
 21
101.9139947381902
 31
0.0
 12
51.754431252759943
 22
101.3726158427642
 32
0.0
 13
51.754431252759943
 23
101.3726158427642
 33
0.0
210
0.0
220
0.0
230
1.0
  0
SOLID
  5
73F
  8
DRG
  6
CONTINUOUS
 62
     7
 10
105.7456110215207
 20
101.913995421392
 30
0.0
 11
95.766004604696889
 21
101.9139947381902
 31
0.0
 12
107.7660710897941
 22
101.3726158427642
 32
0.0
 13
107.7660710897941
 23
101.3726158427642
 33
0.0
210
0.0
220
0.0
230
1.0
  0
SOLID
  5
740
  8
DRG
  6
CONTINUOUS
 62
     7
 10
77.482556033578931
 20
101.9948050433795
 30
0.0
 11
62.478989637268569
 21
94.593352860836134
 31
0.0
 12
67.331191210151687
 22
94.593352860836134
 32
0.0
 13
67.331191210151687
 23
94.593352860836134
 33
0.0
210
0.0
220
0.0
230
1.0
  0
SOLID
  5
741
  8
DRG
  6
CONTINUOUS
 62
     7
 10
77.482556033578931
 20
101.9948050433795
 30
0.0
 11
67.331191210151687
 21
94.593352860836134
 31
0.0
 12
84.553623006881026
 22
94.593352860836134
 32
0.0
 13
84.553623006881026
 23
94.593352860836134
 33
0.0
210
0.0
220
0.0
230
1.0
  0
SOLID
  5
742
  8
DRG
  6
CONTINUOUS
 62
     7
 10
62.478989637268562
 20
101.9948050433795
 30
0.0
 11
62.478989637268569
 21
94.593352860836134
 31
0.0
 12
77.482556033578931
 22
101.9948050433795
 32
0.0
 13
77.482556033578931
 23
101.9948050433795
 33
0.0
  0
SOLID
  5
743
  8
DRG
  6
CONTINUOUS
 62
     7
 10
84.553623006881026
 20
101.9948050433795
 30
0.0
 11
77.482556033578931
 21
101.9948050433795
 31
0.0
 12
84.553623006881026
 22
94.593352860836134
 32
0.0
 13
84.553623006881026
 23
94.593352860836134
 33
0.0
210
0.0
220
0.0
230
1.0
  0
SOLID
  5
744
  8
DRG
  6
CONTINUOUS
 62
     7
 10
67.331191210151701
 20
101.9948050433795
 30
0.0
 11
62.478989637268562
 21
101.9948050433795
 31
0.0
 12
77.482556033578931
 22
101.9948050433795
 32
0.0
 13
77.482556033578931
 23
101.9948050433795
 33
0.0
210
0.0
220
0.0
230
1.0
  0
SOLID
  5
745
  8
DRG
  6
CONTINUOUS
 62
     7
 10
139.4206293992797
 20
102.0369718403325
 30
0.0
 11
135.87400717988629
 21
101.802758078951
 31
0.0
 12
139.4206293992797
 22
93.56942787503273
 32
0.0
 13
139.4206293992797
 23
93.56942787503273
 33
0.0
210
0.0
220
0.0
230
1.0
  0
SOLID
  5
746
  8
DRG
  6
CONTINUOUS
 62
     7
 10
7.7802673214059723
 20
102.0369718403326
 30
0.0
 11
7.7802673214059723
 21
62.115696081838671
 31
0.0
 12
18.821661727211438
 22
97.915857504065912
 32
0.0
 13
18.821661727211438
 23
97.915857504065912
 33
0.0
210
0.0
220
0.0
230
1.0
  0
SOLID
  5
747
  8
DRG
  6
CONTINUOUS
 62
     7
 10
18.821661727211438
 20
102.0369718403326
 30
0.0
 11
7.7802673214059723
 21
102.0369718403326
 31
0.0
 12
18.821661727211438
 22
97.915857504065912
 32
0.0
 13
18.821661727211438
 23
97.915857504065912
 33
0.0
  0
SOLID
  5
748
  8
DRG
  6
CONTINUOUS
 62
     7
 10
142.11987082690661
 20
62.115696081838678
 30
0.0
 11
153.2899770207527
 21
102.0369718403326
 31
0.0
 12
142.11987082690661
 22
102.0369718403326
 32
0.0
 13
142.11987082690661
 23
102.0369718403326
 33
0.0
  0
SOLID
  5
749
  8
DRG
  6
CONTINUOUS
 62
     7
 10
153.2899770207527
 20
102.0369718403326
 30
0.0
 11
142.11987082690661
 21
62.115696081838678
 31
0.0
 12
153.2899770207527
 22
62.115696081838678
 32
0.0
 13
153.2899770207527
 23
62.115696081838678
 33
0.0
210
0.0
220
0.0
230
1.0
  0
SOLID
  5
74A
  8
DRG
  6
CONTINUOUS
 62
     7
 10
130.05101171535759
 20
102.0369718403326
 30
0.0
 11
119.0096173095521
 21
62.115696081838678
 31
0.0
 12
130.05101171535759
 22
97.915857504065855
 32
0.0
 13
130.05101171535759
 23
97.915857504065855
 33
0.0
210
0.0
220
0.0
230
1.0
  0
SOLID
  5
74B
  8
DRG
  6
CONTINUOUS
 62
     7
 10
165.4162645291251
 20
86.855763084496886
 30
0.0
 11
171.38205787173379
 21
102.0369718403326
 31
0.0
 12
160.9346181585602
 22
102.0369718403326
 32
0.0
 13
160.9346181585602
 23
102.0369718403326
 33
0.0
210
0.0
220
0.0
230
1.0
  0
SOLID
  5
74C
  8
DRG
  6
CONTINUOUS
 62
     7
 10
160.9346181585602
 20
102.0369718403326
 30
0.0
 11
153.2899770207527
 21
82.583583780839575
 31
0.0
 12
165.4162645291251
 22
86.855763084496886
 32
0.0
 13
165.4162645291251
 23
86.855763084496886
 33
0.0
  0
SOLID
  5
74D
  8
DRG
  6
CONTINUOUS
 62
     7
 10
119.0096173095521
 20
102.0369718403326
 30
0.0
 11
119.0096173095521
 21
62.115696081838678
 31
0.0
 12
130.05101171535759
 22
102.0369718403326
 32
0.0
 13
130.05101171535759
 23
102.0369718403326
 33
0.0
210
0.0
220
0.0
230
1.0
  0
SOLID
  5
74E
  8
DRG
  6
CONTINUOUS
 62
     7
 10
28.191279411133561
 20
102.0369718403326
 30
0.0
 11
24.644657191740151
 21
101.8027580789511
 31
0.0
 12
28.191279411133561
 22
93.56942787503273
 32
0.0
 13
28.191279411133561
 23
93.56942787503273
 33
0.0
  0
SOLID
  5
74F
  8
DRG
  6
CONTINUOUS
 62
     7
 10
137.6370915704783
 20
102.0747248149906
 30
0.0
 11
135.87400717988629
 21
101.802758078951
 31
0.0
 12
139.4206293992797
 22
102.0369718403325
 32
0.0
 13
139.4206293992797
 23
102.0369718403325
 33
0.0
210
0.0
220
0.0
230
1.0
  0
SOLID
  5
750
  8
DRG
  6
CONTINUOUS
 62
     7
 10
26.40774158233215
 20
102.0747248149907
 30
0.0
 11
24.644657191740151
 21
101.8027580789511
 31
0.0
 12
28.191279411133561
 22
102.0369718403326
 32
0.0
 13
28.191279411133561
 23
102.0369718403326
 33
0.0
210
0.0
220
0.0
230
1.0
  0
SOLID
  5
751
  8
DRG
  6
CONTINUOUS
 62
     7
 10
49.733971184486549
 20
101.913995421392
 30
0.0
 11
47.650196927116667
 21
102.0963017020437
 31
0.0
 12
41.838142899665847
 22
102.0963017020437
 32
0.0
 13
41.838142899665847
 23
102.0963017020437
 33
0.0
210
0.0
220
0.0
230
1.0
  0
SOLID
  5
752
  8
DRG
  6
CONTINUOUS
 62
     7
 10
41.838142899665847
 20
102.0963017020437
 30
0.0
 11
39.754364767662707
 21
101.9139947381902
 31
0.0
 12
49.733971184486549
 22
101.913995421392
 32
0.0
 13
49.733971184486549
 23
101.913995421392
 33
0.0
210
0.0
220
0.0
230
1.0
  0
SOLID
  5
753
  8
DRG
  6
CONTINUOUS
 62
     7
 10
105.7456110215207
 20
101.913995421392
 30
0.0
 11
103.66183676415081
 21
102.0963017020437
 31
0.0
 12
97.849782736700035
 22
102.0963017020437
 32
0.0
 13
97.849782736700035
 23
102.0963017020437
 33
0.0
210
0.0
220
0.0
230
1.0
  0
SOLID
  5
754
  8
DRG
  6
CONTINUOUS
 62
     7
 10
97.849782736700035
 20
102.0963017020437
 30
0.0
 11
95.766004604696889
 21
101.9139947381902
 31
0.0
 12
105.7456110215207
 22
101.913995421392
 32
0.0
 13
105.7456110215207
 23
101.913995421392
 33
0.0
210
0.0
220
0.0
230
1.0
  0
SOLID
  5
755
  8
DRG
  6
CONTINUOUS
 62
     7
 10
77.482556033578931
 20
107.1280725498991
 30
0.0
 11
67.331191210151701
 21
101.9948050433795
 31
0.0
 12
77.482556033578931
 22
101.9948050433795
 32
0.0
 13
77.482556033578931
 23
101.9948050433795
 33
0.0
  0
SOLID
  5
756
  8
DRG
  6
CONTINUOUS
 62
     7
 10
67.331191210151701
 20
107.1280725498991
 30
0.0
 11
67.331191210151701
 21
101.9948050433795
 31
0.0
 12
77.482556033578931
 22
107.1280725498991
 32
0.0
 13
77.482556033578931
 23
107.1280725498991
 33
0.0
210
0.0
220
0.0
230
1.0
  0
ENDBLK
  5
758
  8
0
  0
ENDSEC
  0
SECTION
  2
ENTITIES
  0
TEXT
  5
39
  8
BORT
 10
197.8420272960482
 20
26.268448923031389
 30
0.0
 40
6.0
  1
EXEECO LTD   C   1996
  0
TEXT
  5
3A
  8
BORT
 10
583.45638722086494
 20
65.0
 30
0.0
 40
5.0
  1
DRAWN:-
  0
TEXT
  5
3B
  8
BORT
 10
77.833333333333329
 20
102.4999999999999
 30
0.0
 40
5.0
  1
ALTERATIONS
 72
     4
 11
102.0
 21
105.0
 31
0.0
  0
TEXT
  5
3C
  8
BORT
 10
73.071428571428555
 20
116.5
 30
0.0
 40
5.0
  1
ORIGINAL ISSUE
 72
     4
 11
102.0
 21
119.0
 31
0.0
  0
TEXT
  5
3D
  8
BORT
 10
14.11904761904762
 20
102.4999999999999
 30
0.0
 40
5.0
  1
ISSUE
 72
     4
 11
24.0
 21
105.0
 31
0.0
  0
TEXT
  5
3E
  8
BORT
 10
22.095238095238091
 20
116.5
 30
0.0
 40
5.0
  1
A
 72
     4
 11
24.0
 21
119.0
 31
0.0
  0
TEXT
  5
3F
  8
BORT
 10
613.66666666666663
 20
23.0
 30
0.0
 40
14.0
  1
PUB\IS6CD
 72
     4
 11
670.0
 21
29.0
 31
0.0
  0
TEXT
  5
40
  8
BORT
 10
583.16740467642956
 20
49.32441631859313
 30
0.0
 40
5.0
  1
CHECKED:-
  0
TEXT
  5
41
  8
BORT
 10
725.78627429561266
 20
65.0
 30
0.0
 40
5.0
  1
SCALE
  0
TEXT
  5
42
  8
BORT
 10
470.0
 20
52.0
 30
0.0
 40
5.0
  1

 72
     4
 11
470.0
 21
52.0
 31
0.0
  0
CIRCLE
  5
43
  8
BORT
 10
272.15469896790501
 20
29.191286540329269
 30
0.0
 40
5.6547997464713049
  0
TEXT
  5
44
  8
BORT
 10
379.75680365535419
 20
31.187435372907171
 30
0.0
 40
10.0
  1
OUTLINE DETAILS OF IS6
 72
     4
 11
472.85204175059238
 21
36.187435372907167
 31
0.0
  0
TEXT
  5
45
  8
BORT
 10
639.8227916173704
 20
65.5
 30
0.0
 40
5.0
  1
S.W.   10.9.96
 72
     4
 11
667.20374399832281
 21
68.0
 31
0.0
  0
TEXT
  5
46
  8
BORT
 10
730.99184548397261
 20
49.0
 30
0.0
 40
5.0
  1
1:1
  0
LINE
  5
47
  8
BORT
 39
1.8
 10
166.0
 20
98.0
 30
0.0
 11
10.0
 21
98.0
 31
0.0
  0
LINE
  5
48
  8
BORT
 39
1.8
 10
166.0
 20
98.0
 30
0.0
 11
10.0
 21
98.0
 31
0.0
  0
LINE
  5
49
  8
BORT
 39
1.8
 10
10.0
 20
14.0
 30
0.0
 11
10.0
 21
193.76922981885039
 31
0.0
  0
LINE
  5
4A
  8
BORT
 39
1.8
 10
760.0
 20
76.0
 30
0.0
 11
760.0
 21
14.0
 31
0.0
  0
LINE
  5
4B
  8
BORT
 39
1.8
 10
760.0
 20
14.0
 30
0.0
 11
10.0
 21
14.0
 31
0.0
  0
LINE
  5
4C
  8
BORT
 39
1.8
 10
760.0
 20
44.0
 30
0.0
 11
166.0
 21
44.0
 31
0.0
  0
TEXT
  5
4D
  8
BORT
 10
387.85204175059238
 20
18.47120504870189
 30
0.0
 40
10.0
  1
ISO & USA STANDARD
 72
     4
 11
472.85204175059238
 21
23.47120504870189
 31
0.0
  0
LINE
  5
4E
  8
DRG
 62
     1
 10
210.02036449838249
 20
770.60790118621208
 30
0.0
 11
210.02036449838249
 21
670.38975232581026
 31
0.0
  0
LINE
  5
4F
  8
DRG
 10
195.9953644983826
 20
705.60790118621151
 30
0.0
 11
90.495364498382614
 21
705.60790118621117
 31
0.0
  0
LINE
  5
50
  8
DRG
 10
195.9953644983826
 20
735.60790118621151
 30
0.0
 11
90.495364498382614
 21
735.60790118621151
 31
0.0
  0
LINE
  5
51
  8
DRG2
 10
90.495364498382614
 20
735.60790118621151
 30
0.0
 11
90.495364498382614
 21
705.60790118621117
 31
0.0
  0
LINE
  5
52
  8
DRG
 10
88.995364498382628
 20
734.10790118621151
 30
0.0
 11
88.995364498382628
 21
707.10790118621128
 31
0.0
  0
LINE
  5
53
  8
DRG
 10
88.995364498382628
 20
707.10790118621128
 30
0.0
 11
90.495364498382614
 21
705.60790118621117
 31
0.0
  0
LINE
  5
54
  8
DRG
 10
90.495364498382614
 20
735.60790118621151
 30
0.0
 11
88.995364498382628
 21
734.10790118621151
 31
0.0
  0
LINE
  5
55
  8
DRG
 62
     1
 10
201.9953644983826
 20
770.60790118621208
 30
0.0
 11
201.9953644983826
 21
670.38975232581026
 31
0.0
  0
LINE
  5
56
  8
DRG
 62
     1
 10
201.9953644983826
 20
670.38975232581026
 30
0.0
 11
210.02036449838249
 21
670.38975232581026
 31
0.0
  0
LINE
  5
57
  8
DRG
 62
     1
 10
308.04536449838281
 20
770.60790118621082
 30
0.0
 11
308.04536449838281
 21
670.38975232581026
 31
0.0
  0
LINE
  5
58
  8
DRG
 10
300.02036449838272
 20
670.38975232581026
 30
0.0
 11
308.04536449838281
 21
670.38975232581026
 31
0.0
  0
LINE
  5
59
  8
DIM
 10
94.995364498382628
 20
845.43569364156372
 30
0.0
 11
204.02036449838249
 21
845.43569364156372
 31
0.0
  0
SOLID
  5
5A
  8
DIM
 10
94.995364498382628
 20
846.43569364156372
 30
0.0
 11
94.995364498382628
 21
844.43569364156372
 31
0.0
 12
88.995364498382628
 22
845.43569364156372
 32
0.0
 13
88.995364498382628
 23
845.43569364156372
 33
0.0
  0
SOLID
  5
5B
  8
DIM
 10
204.02036449838249
 20
846.43569364156372
 30
0.0
 11
204.02036449838249
 21
844.43569364156372
 31
0.0
 12
210.02036449838249
 22
845.43569364156372
 32
0.0
 13
210.02036449838249
 23
845.43569364156372
 33
0.0
  0
TEXT
  5
5C
  8
DIM
 10
144.62691211743029
 20
847.93569364156372
 30
0.0
 40
5.0
  1
121
 72
     1
 11
149.50786449838259
 21
850.43569364156372
 31
0.0
 73
     2
  0
LINE
  5
5D
  8
DIM
 10
210.02036449838249
 20
775.60790118621208
 30
0.0
 11
210.02036449838249
 21
847.66086754040168
 31
0.0
  0
LINE
  5
5E
  8
DIM
 10
88.995364498382628
 20
738.20419778703581
 30
0.0
 11
88.995364498382628
 21
847.66086754040168
 31
0.0
  0
LINE
  5
5F
  8
DIM
 10
216.02036449838269
 20
845.43569364156372
 30
0.0
 11
318.02036449838232
 21
845.43569364156372
 31
0.0
  0
SOLID
  5
60
  8
DIM
 10
216.02036449838249
 20
846.43569364156372
 30
0.0
 11
216.02036449838249
 21
844.43569364156372
 31
0.0
 12
210.02036449838249
 22
845.43569364156372
 32
0.0
 13
210.02036449838249
 23
845.43569364156372
 33
0.0
  0
SOLID
  5
61
  8
DIM
 10
318.02036449838232
 20
846.43569364156372
 30
0.0
 11
318.02036449838232
 21
844.43569364156372
 31
0.0
 12
324.02036449838232
 22
845.43569364156372
 32
0.0
 13
324.02036449838232
 23
845.43569364156372
 33
0.0
  0
LINE
  5
62
  8
DIM
 10
201.9953644983826
 20
775.60790118621208
 30
0.0
 11
201.9953644983826
 21
812.44530470720485
 31
0.0
  0
LINE
  5
63
  8
DIM
 10
216.02036449838249
 20
810.44530470720485
 30
0.0
 11
222.02036449838249
 21
810.44530470720485
 31
0.0
  0
LINE
  5
64
  8
DIM
 10
195.9953644983826
 20
810.44530470720485
 30
0.0
 11
172.9620333307802
 21
810.44530470720485
 31
0.0
  0
LINE
  5
65
  8
DIM
 10
172.9620333307802
 20
810.44530470720485
 30
0.0
 11
168.12869999744669
 21
810.44530470720485
 31
0.0
  0
SOLID
  5
66
  8
DIM
 10
216.02036449838249
 20
811.44530470720485
 30
0.0
 11
216.02036449838249
 21
809.44530470720485
 31
0.0
 12
210.02036449838249
 22
810.44530470720485
 32
0.0
 13
210.02036449838249
 23
810.44530470720485
 33
0.0
  0
SOLID
  5
67
  8
DIM
 10
195.9953644983826
 20
811.44530470720485
 30
0.0
 11
195.9953644983826
 21
809.44530470720485
 31
0.0
 12
201.9953644983826
 22
810.44530470720485
 32
0.0
 13
201.9953644983826
 23
810.44530470720485
 33
0.0
  0
TEXT
  5
68
  8
DIM
 10
179.13227146126991
 20
812.94530470720485
 30
0.0
 40
5.0
  1
8
 72
     1
 11
180.79893812793659
 21
815.44530470720485
 31
0.0
 73
     2
  0
LINE
  5
69
  8
DRG
 10
133.9953644983826
 20
738.60790118621151
 30
0.0
 11
93.995364498382628
 21
738.60790118621151
 31
0.0
  0
LINE
  5
6A
  8
DRG
 10
133.9953644983826
 20
735.60790118621151
 30
0.0
 11
133.9953644983826
 21
738.60790118621151
 31
0.0
  0
LINE
  5
6B
  8
DRG
 10
93.995364498382628
 20
735.60790118621151
 30
0.0
 11
93.995364498382628
 21
738.60790118621151
 31
0.0
  0
LINE
  5
6C
  8
DIM
 10
93.995364498382742
 20
743.60790118621151
 30
0.0
 11
93.995364498382742
 21
812.44530470720485
 31
0.0
  0
SOLID
  5
6D
  8
DIM
 10
99.995364498382742
 20
811.44530470720485
 30
0.0
 11
99.995364498382742
 21
809.44530470720485
 31
0.0
 12
93.995364498382742
 22
810.44530470720485
 32
0.0
 13
93.995364498382742
 23
810.44530470720485
 33
0.0
  0
LINE
  5
6E
  8
DIM
 10
82.995364498382614
 20
810.44530470720485
 30
0.0
 11
60.358166349057562
 21
810.44530470720485
 31
0.0
  0
LINE
  5
6F
  8
DIM
 10
60.358166349057562
 20
810.44530470720485
 30
0.0
 11
55.524833015724312
 21
810.44530470720485
 31
0.0
  0
SOLID
  5
70
  8
DIM
 10
82.995364498382614
 20
811.44530470720485
 30
0.0
 11
82.995364498382614
 21
809.44530470720485
 31
0.0
 12
88.995364498382628
 22
810.44530470720485
 32
0.0
 13
88.995364498382628
 23
810.44530470720485
 33
0.0
  0
TEXT
  5
71
  8
DIM
 10
66.220175286592124
 20
812.94530470720485
 30
0.0
 40
5.0
  1
5
 72
     1
 11
67.886841953258795
 21
815.44530470720485
 31
0.0
 73
     2
  0
TEXT
  5
72
  8
DIM
 10
456.91637181793948
 20
793.01276858056269
 30
0.0
 40
5.0
  1
4 OFF M10 SCREWS (EACH SIDE)
  0
TEXT
  5
73
  8
DIM
 10
456.91637181793948
 20
784.44134000913425
 30
0.0
 40
5.0
  1
ON %%c105 (%%c4.13") P.C.
  0
SOLID
  5
74
  8
DIM
 10
628.67349608870825
 20
768.49831789053894
 30
0.0
 11
627.3006661912932
 21
767.04389770614819
 31
0.0
 12
632.35034169317328
 22
763.65261810609854
 32
0.0
 13
632.35034169317328
 23
763.65261810609854
 33
0.0
  0
LINE
  5
75
  8
DIM
 10
627.98708114000056
 20
767.77110779834356
 30
0.0
 11
603.31571713650442
 21
791.05845383321298
 31
0.0
  0
LINE
  5
76
  8
DIM
 10
588.61392121450103
 20
791.05845383321287
 30
0.0
 11
603.31571713650442
 21
791.05845383321298
 31
0.0
  0
LINE
  5
77
  8
DIM
 10
205.02036449838261
 20
340.763558730765
 30
0.0
 11
205.02036449838261
 21
188.7079011862113
 31
0.0
  0
LINE
  5
78
  8
DIM
 10
211.02036449838261
 20
190.70790118621119
 30
0.0
 11
324.02036449838261
 21
190.70790118621119
 31
0.0
  0
SOLID
  5
79
  8
DIM
 10
211.02036449838261
 20
191.7079011862113
 30
0.0
 11
211.02036449838261
 21
189.70790118621119
 31
0.0
 12
205.02036449838261
 22
190.70790118621119
 32
0.0
 13
205.02036449838261
 23
190.70790118621119
 33
0.0
  0
SOLID
  5
7A
  8
DIM
 10
318.02036449838261
 20
191.7079011862113
 30
0.0
 11
318.02036449838261
 21
189.7079011862113
 31
0.0
 12
324.02036449838261
 22
190.7079011862113
 32
0.0
 13
324.02036449838261
 23
190.7079011862113
 33
0.0
  0
TEXT
  5
7B
  8
DIM
 10
262.67841477533182
 20
193.2079011862113
 30
0.0
 40
5.0
  1
119
 72
     4
 11
268.03555763247471
 21
195.7079011862113
 31
0.0
  0
LINE
  5
7C
  8
DIM
 10
334.02036449838272
 20
190.7079011862113
 30
0.0
 11
345.53238739140772
 21
190.7079011862113
 31
0.0
  0
LINE
  5
7D
  8
DIM
 10
345.53238739140772
 20
190.7079011862113
 30
0.0
 11
360.10657415401329
 21
190.7079011862113
 31
0.0
  0
SOLID
  5
7E
  8
DIM
 10
334.02036449838272
 20
191.7079011862113
 30
0.0
 11
334.02036449838272
 21
189.7079011862113
 31
0.0
 12
328.02036449838272
 22
190.7079011862113
 32
0.0
 13
328.02036449838272
 23
190.7079011862113
 33
0.0
  0
TEXT
  5
7F
  8
DIM
 10
345.83909512591589
 20
193.2079011862113
 30
0.0
 40
5.0
  1
4
 72
     4
 11
347.62480941163011
 21
195.7079011862113
 31
0.0
  0
LINE
  5
80
  8
DIM
 10
330.17588994867072
 20
368.08290118621051
 30
0.0
 11
364.99199753901331
 21
368.08290118621051
 31
0.0
  0
LINE
  5
81
  8
DIM
 10
330.17588994867111
 20
463.33290118621062
 30
0.0
 11
364.99199753901382
 21
463.33290118621062
 31
0.0
  0
LINE
  5
82
  8
DIM
 10
362.99199753901331
 20
374.08290118621051
 30
0.0
 11
362.99199753901382
 21
457.33290118621062
 31
0.0
  0
SOLID
  5
83
  8
DIM
 10
361.99199753901331
 20
374.08290118621051
 30
0.0
 11
363.99199753901331
 21
374.08290118621051
 31
0.0
 12
362.99199753901331
 22
368.08290118621051
 32
0.0
 13
362.99199753901331
 23
368.08290118621051
 33
0.0
  0
SOLID
  5
84
  8
DIM
 10
361.99199753901382
 20
457.33290118621062
 30
0.0
 11
363.99199753901382
 21
457.33290118621062
 31
0.0
 12
362.99199753901382
 22
463.33290118621062
 32
0.0
 13
362.99199753901382
 23
463.33290118621062
 33
0.0
  0
TEXT
  5
85
  8
DIM
 10
360.49199753901348
 20
386.30313928144932
 30
0.0
 40
5.0
  1
SEE TABLE FOR
 50
90.0
 72
     4
 11
357.9919975390136
 21
415.70790118621119
 31
0.0
  0
TEXT
  5
86
  8
DIM
 10
370.53633127153722
 20
394.89478949078642
 30
0.0
 40
5.0
  1
SPIGOT DIA.
 50
90.0
 72
     4
 11
368.03633127153722
 21
416.56145615745311
 31
0.0
  0
TEXT
  5
87
  8
DIM
 10
360.02192641338291
 20
278.06571137668561
 30
0.0
 40
5.0
  1

  0
TEXT
  5
88
  8
DIM
 10
422.62528945225591
 20
321.45492069144461
 30
0.0
 40
5.0
  1
SEE TABLE FOR
  0
TEXT
  5
89
  8
DIM
 10
422.62528945225591
 20
312.88349212001611
 30
0.0
 40
5.0
  1
HOLE DETAILS
  0
LINE
  5
8A
  8
DIM
 10
486.58333000953888
 20
319.39109102640037
 30
0.0
 11
522.8947336105922
 21
319.39109102640037
 31
0.0
  0
SOLID
  5
8B
  8
DIM
 10
107.2028505482028
 20
744.05140311374259
 30
0.0
 11
105.2906629590228
 21
744.63752479375978
 31
0.0
 12
104.4883917135612
 22
738.60790118621151
 32
0.0
 13
104.4883917135612
 23
738.60790118621151
 33
0.0
  0
LINE
  5
8C
  8
DIM
 10
104.4883917135612
 20
738.60790118621151
 30
0.0
 11
116.3569245513998
 21
777.32829315946856
 31
0.0
  0
LINE
  5
8D
  8
DIM
 10
103.7035825526653
 20
810.44530470720485
 30
0.0
 11
99.995364498382742
 21
810.44530470720485
 31
0.0
  0
LINE
  5
8E
  8
DIM
 10
85.495364498382614
 20
735.60790118621151
 30
0.0
 11
55.871467978604642
 21
735.60790118621151
 31
0.0
  0
LINE
  5
8F
  8
DIM
 10
85.495364498382614
 20
705.60790118621117
 30
0.0
 11
55.871467978604642
 21
705.60790118621117
 31
0.0
  0
LINE
  5
90
  8
DIM
 10
57.871467978604642
 20
735.60790118621128
 30
0.0
 11
57.871467978604642
 21
633.21875734375965
 31
0.0
  0
SOLID
  5
91
  8
DIM
 10
56.871467978604642
 20
729.60790118621151
 30
0.0
 11
58.871467978604642
 21
729.60790118621151
 31
0.0
 12
57.871467978604642
 22
735.60790118621151
 32
0.0
 13
57.871467978604642
 23
735.60790118621151
 33
0.0
  0
SOLID
  5
92
  8
DIM
 10
56.871467978604642
 20
711.60790118621128
 30
0.0
 11
58.871467978604642
 21
711.60790118621128
 31
0.0
 12
57.871467978604642
 22
705.60790118621117
 32
0.0
 13
57.871467978604642
 23
705.60790118621117
 33
0.0
  0
TEXT
  5
93
  8
DIM
 10
53.866761750220462
 20
641.60428258112995
 30
0.0
 40
5.0
  1
%%c30.00 -0.05
 50
90.0
 72
     4
 11
51.366761750220462
 21
667.5566635335108
 31
0.0
  0
TEXT
  5
94
  8
DIM
 10
65.547291051243775
 20
633.86618734303465
 30
0.0
 40
5.0
  1
(%%c1.181" -0.002")
 50
90.0
 72
     4
 11
63.404433908386643
 21
667.5566635335108
 31
0.0
  0
LINE
  5
95
  8
DIM
 10
200.02036449838269
 20
465.95790118621119
 30
0.0
 11
105.4267737349424
 21
465.95790118621119
 31
0.0
  0
LINE
  5
96
  8
DIM
 10
200.02036449838269
 20
365.45790118621119
 30
0.0
 11
165.88477255514189
 21
365.45790118621119
 31
0.0
  0
TEXT
  5
97
  8
DIM
 10
102.6965224316229
 20
389.2793297576398
 30
0.0
 40
5.0
  1
SCREWED 3.5"
 50
90.0
 72
     4
 11
99.720331955432471
 21
415.70790118621119
 31
0.0
  0
LINE
  5
98
  8
DIM
 10
107.4267737349424
 20
371.45790118621119
 30
0.0
 11
107.4267737349424
 21
459.9579011862113
 31
0.0
  0
SOLID
  5
99
  8
DIM
 10
106.4267737349424
 20
371.45790118621119
 30
0.0
 11
108.4267737349424
 21
371.45790118621119
 31
0.0
 12
107.4267737349424
 22
365.45790118621119
 32
0.0
 13
107.4267737349424
 23
365.45790118621119
 33
0.0
  0
SOLID
  5
9A
  8
DIM
 10
106.4267737349424
 20
459.9579011862113
 30
0.0
 11
108.4267737349424
 21
459.9579011862113
 31
0.0
 12
107.4267737349424
 22
465.95790118621119
 32
0.0
 13
107.4267737349424
 23
465.95790118621119
 33
0.0
  0
LINE
  5
9B
  8
CRS
 10
306.27438390958798
 20
683.48479517391854
 30
0.0
 11
320.05466519834982
 21
683.48479517391854
 31
0.0
  0
LINE
  5
9C
  8
CRS
 10
203.7663450871772
 20
757.73100719850584
 30
0.0
 11
189.98606379841539
 21
757.73100719850584
 31
0.0
  0
LINE
  5
9D
  8
CRS
 10
203.7663450871772
 20
683.48479517391854
 30
0.0
 11
189.98606379841539
 21
683.48479517391854
 31
0.0
  0
LINE
  5
9E
  8
DRG2
 10
308.04536449838281
 20
691.48479517391854
 30
0.0
 11
316.5453644983827
 21
691.48479517391854
 31
0.0
  0
LINE
  5
9F
  8
DRG2
 10
316.5453644983827
 20
691.48479517391854
 30
0.0
 11
316.5453644983827
 21
675.48479517391854
 31
0.0
  0
LINE
  5
A0
  8
DRG2
 10
316.5453644983827
 20
675.48479517391854
 30
0.0
 11
308.04536449838281
 21
675.48479517391854
 31
0.0
  0
LINE
  5
A1
  8
CRS
 10
306.27438390958798
 20
757.73100719850584
 30
0.0
 11
320.05466519834982
 21
757.73100719850584
 31
0.0
  0
LINE
  5
A2
  8
DRG2
 10
316.5453644983827
 20
675.48479517391854
 30
0.0
 11
318.04536449838281
 21
676.98479517391854
 31
0.0
  0
LINE
  5
A3
  8
DRG2
 10
318.04536449838281
 20
676.98479517391854
 30
0.0
 11
318.04536449838281
 21
689.98479517391854
 31
0.0
  0
LINE
  5
A4
  8
DRG2
 10
318.04536449838281
 20
689.98479517391854
 30
0.0
 11
316.5453644983827
 21
691.48479517391854
 31
0.0
  0
LINE
  5
A5
  8
DIM
 10
308.04536449838281
 20
775.60790118621208
 30
0.0
 11
308.04536449838281
 21
812.44530470720485
 31
0.0
  0
TEXT
  5
A6
  8
DIM
 10
283.3965571755557
 20
812.94530470720485
 30
0.0
 40
5.0
  1
16
 72
     4
 11
286.84893812793672
 21
815.44530470720485
 31
0.0
  0
LINE
  5
A7
  8
DIM
 10
278.61591298483972
 20
810.44530470720485
 30
0.0
 11
273.78257965150618
 21
810.44530470720485
 31
0.0
  0
LINE
  5
A8
  8
DIM
 10
302.0453644983827
 20
810.44530470720485
 30
0.0
 11
278.61591298483972
 21
810.44530470720485
 31
0.0
  0
SOLID
  5
A9
  8
DIM
 10
302.0453644983827
 20
811.44530470720485
 30
0.0
 11
302.0453644983827
 21
809.44530470720485
 31
0.0
 12
308.04536449838281
 22
810.44530470720485
 32
0.0
 13
308.04536449838281
 23
810.44530470720485
 33
0.0
  0
LINE
  5
AA
  8
DIM
 10
330.02036449838232
 20
810.44530470720485
 30
0.0
 11
336.02036449838232
 21
810.44530470720485
 31
0.0
  0
SOLID
  5
AB
  8
DIM
 10
330.02036449838232
 20
811.44530470720485
 30
0.0
 11
330.02036449838232
 21
809.44530470720485
 31
0.0
 12
324.02036449838232
 22
810.44530470720485
 32
0.0
 13
324.02036449838232
 23
810.44530470720485
 33
0.0
  0
LINE
  5
AC
  8
DIM
 10
252.12036449838229
 20
430.71633435394779
 30
0.0
 11
313.3703644983824
 21
430.71633435394779
 31
0.0
  0
LINE
  5
AD
  8
HID
 10
293.27036449838238
 20
450.50790118621097
 30
0.0
 11
268.27036449838249
 21
450.50790118621097
 31
0.0
  0
LINE
  5
AE
  8
HID
 10
293.27036449838238
 20
380.90790118621101
 30
0.0
 11
268.27036449838249
 21
380.90790118621101
 31
0.0
  0
LINE
  5
AF
  8
HID
 10
246.12036449838229
 20
446.00790118621092
 30
0.0
 11
246.12036449838229
 21
389.70790118621102
 31
0.0
  0
LINE
  5
B0
  8
HID
 10
257.27036449838238
 20
382.70790118621102
 30
0.0
 11
257.27036449838238
 21
380.90790118621101
 31
0.0
  0
LINE
  5
B1
  8
HID
 10
262.77036449838238
 20
380.70790118621102
 30
0.0
 11
261.27036449838238
 21
381.57790118621102
 31
0.0
  0
LINE
  5
B2
  8
HID
 10
246.12036449838229
 20
381.40790118621101
 30
0.0
 11
246.6203644983824
 21
380.90790118621101
 31
0.0
  0
LINE
  5
B3
  8
HID
 10
257.27036449838238
 20
380.90790118621101
 30
0.0
 11
246.6203644983824
 21
380.90790118621101
 31
0.0
  0
LINE
  5
B4
  8
HID
 10
268.27036449838249
 20
380.70790118621102
 30
0.0
 11
262.77036449838238
 21
380.70790118621102
 31
0.0
  0
LINE
  5
B5
  8
HID
 10
268.27036449838249
 20
380.90790118621101
 30
0.0
 11
268.27036449838249
 21
380.70790118621102
 31
0.0
  0
LINE
  5
B6
  8
HID
 10
261.27036449838238
 20
382.70790118621102
 30
0.0
 11
257.27036449838238
 21
382.70790118621102
 31
0.0
  0
LINE
  5
B7
  8
HID
 10
246.12036449838249
 20
382.30790118621098
 30
0.0
 11
257.27036449838238
 21
382.30790118621098
 31
0.0
  0
LINE
  5
B8
  8
HID
 10
246.12036449838229
 20
381.40790118621101
 30
0.0
 11
246.12036449838229
 21
389.70790118621102
 31
0.0
  0
SOLID
  5
B9
  8
DIM
 10
252.12036449838229
 20
431.7163343539479
 30
0.0
 11
252.12036449838229
 21
429.71633435394779
 31
0.0
 12
246.12036449838229
 22
430.71633435394779
 32
0.0
 13
246.12036449838229
 23
430.71633435394779
 33
0.0
  0
LINE
  5
BA
  8
HID
 10
261.27036449838238
 20
381.57790118621102
 30
0.0
 11
261.27036449838238
 21
382.70790118621102
 31
0.0
  0
LINE
  5
BB
  8
HID
 10
261.27036449838238
 20
448.70790118621102
 30
0.0
 11
257.27036449838238
 21
448.70790118621102
 31
0.0
  0
LINE
  5
BC
  8
HID
 10
257.27036449838238
 20
450.50790118621097
 30
0.0
 11
246.6203644983824
 21
450.50790118621097
 31
0.0
  0
LINE
  5
BD
  8
HID
 10
246.12036449838229
 20
449.107901186211
 30
0.0
 11
257.27036449838238
 21
449.107901186211
 31
0.0
  0
LINE
  5
BE
  8
HID
 10
246.12036449838229
 20
450.00790118621092
 30
0.0
 11
246.12036449838229
 21
446.00790118621092
 31
0.0
  0
LINE
  5
BF
  8
HID
 10
246.6203644983824
 20
450.50790118621097
 30
0.0
 11
246.12036449838229
 21
450.00790118621092
 31
0.0
  0
LINE
  5
C0
  8
HID
 10
257.27036449838238
 20
448.70790118621102
 30
0.0
 11
257.27036449838238
 21
450.50790118621097
 31
0.0
  0
LINE
  5
C1
  8
HID
 10
268.27036449838249
 20
450.70790118621102
 30
0.0
 11
262.77036449838238
 21
450.70790118621102
 31
0.0
  0
LINE
  5
C2
  8
HID
 10
261.27036449838238
 20
449.83790118621101
 30
0.0
 11
261.27036449838238
 21
448.70790118621102
 31
0.0
  0
LINE
  5
C3
  8
HID
 10
262.77036449838238
 20
450.70790118621102
 30
0.0
 11
261.27036449838238
 21
449.83790118621101
 31
0.0
  0
LINE
  5
C4
  8
HID
 10
268.27036449838249
 20
450.50790118621097
 30
0.0
 11
268.27036449838249
 21
450.70790118621102
 31
0.0
  0
TEXT
  5
C5
  8
DIM
 10
278.69774545076331
 20
433.2163343539479
 30
0.0
 40
5.0
  1
73
 72
     1
 11
282.74536449838229
 21
435.7163343539479
 31
0.0
 73
     2
  0
LINE
  5
C6
  8
HID
 10
319.37036449838229
 20
446.00790118621097
 30
0.0
 11
319.37036449838229
 21
389.70790118621102
 31
0.0
  0
LINE
  5
C7
  8
HID
 10
312.27036449838249
 20
380.90790118621101
 30
0.0
 11
305.77036449838249
 21
380.90790118621101
 31
0.0
  0
LINE
  5
C8
  8
HID
 10
318.87036449838229
 20
380.70790118621102
 30
0.0
 11
319.37036449838229
 21
381.20790118621102
 31
0.0
  0
LINE
  5
C9
  8
HID
 10
318.87036449838229
 20
380.70790118621102
 30
0.0
 11
312.27036449838249
 21
380.70790118621102
 31
0.0
  0
LINE
  5
CA
  8
HID
 10
312.27036449838249
 20
380.70790118621102
 30
0.0
 11
312.27036449838249
 21
380.90790118621101
 31
0.0
  0
LINE
  5
CB
  8
HID
 10
319.37036449838229
 20
389.70790118621102
 30
0.0
 11
319.37036449838229
 21
381.20790118621102
 31
0.0
  0
SOLID
  5
CC
  8
DIM
 10
313.3703644983824
 20
431.7163343539479
 30
0.0
 11
313.3703644983824
 21
429.71633435394779
 31
0.0
 12
319.37036449838229
 22
430.71633435394779
 32
0.0
 13
319.37036449838229
 23
430.71633435394779
 33
0.0
  0
LINE
  5
CD
  8
HID
 10
312.27036449838249
 20
450.50790118621097
 30
0.0
 11
305.77036449838249
 21
450.50790118621097
 31
0.0
  0
LINE
  5
CE
  8
HID
 10
305.77036449838249
 20
450.50790118621097
 30
0.0
 11
305.77036449838249
 21
461.95790118621107
 31
0.0
  0
LINE
  5
CF
  8
HID
 10
293.27036449838238
 20
461.95790118621107
 30
0.0
 11
293.27036449838238
 21
450.50790118621097
 31
0.0
  0
LINE
  5
D0
  8
HID
 10
305.27036449838249
 20
462.45790118621107
 30
0.0
 11
293.77036449838249
 21
462.45790118621107
 31
0.0
  0
LINE
  5
D1
  8
HID
 10
293.77036449838249
 20
462.45790118621107
 30
0.0
 11
293.27036449838238
 21
461.95790118621107
 31
0.0
  0
LINE
  5
D2
  8
HID
 10
305.77036449838249
 20
461.95790118621107
 30
0.0
 11
305.27036449838249
 21
462.45790118621107
 31
0.0
  0
LINE
  5
D3
  8
HID
 10
318.87036449838229
 20
450.70790118621102
 30
0.0
 11
312.27036449838249
 21
450.70790118621102
 31
0.0
  0
LINE
  5
D4
  8
HID
 10
312.27036449838249
 20
450.70790118621102
 30
0.0
 11
312.27036449838249
 21
450.50790118621097
 31
0.0
  0
LINE
  5
D5
  8
HID
 10
319.37036449838229
 20
446.00790118621092
 30
0.0
 11
319.37036449838229
 21
450.20790118621102
 31
0.0
  0
LINE
  5
D6
  8
HID
 10
318.87036449838229
 20
450.70790118621102
 30
0.0
 11
319.37036449838229
 21
450.20790118621102
 31
0.0
  0
LINE
  5
D7
  8
HID
 10
305.27036449838249
 20
368.95790118621102
 30
0.0
 11
293.77036449838249
 21
368.95790118621102
 31
0.0
  0
LINE
  5
D8
  8
HID
 10
293.27036449838238
 20
369.45790118621102
 30
0.0
 11
293.77036449838249
 21
368.95790118621102
 31
0.0
  0
LINE
  5
D9
  8
HID
 10
293.27036449838238
 20
369.45790118621102
 30
0.0
 11
293.27036449838238
 21
380.90790118621101
 31
0.0
  0
LINE
  5
DA
  8
HID
 10
305.77036449838249
 20
369.45790118621102
 30
0.0
 11
305.27036449838249
 21
368.95790118621102
 31
0.0
  0
LINE
  5
DB
  8
HID
 10
305.77036449838249
 20
380.90790118621101
 30
0.0
 11
305.77036449838249
 21
369.45790118621102
 31
0.0
  0
LINE
  5
DC
  8
DIM
 10
240.02714523234641
 20
449.10790118621111
 30
0.0
 11
160.8162924224319
 21
449.10790118621111
 31
0.0
  0
LINE
  5
DD
  8
DIM
 10
162.8162924224319
 20
449.10790118621111
 30
0.0
 11
162.8162924224319
 21
345.3482585652979
 31
0.0
  0
LINE
  5
DE
  8
DIM
 10
240.02714523234641
 20
382.30790118621121
 30
0.0
 11
160.8162924224319
 21
382.30790118621121
 31
0.0
  0
SOLID
  5
DF
  8
DIM
 10
161.8162924224319
 20
388.30790118621121
 30
0.0
 11
163.8162924224319
 21
388.30790118621121
 31
0.0
 12
162.8162924224319
 22
382.30790118621121
 32
0.0
 13
162.8162924224319
 23
382.30790118621121
 33
0.0
  0
SOLID
  5
E0
  8
DIM
 10
161.8162924224319
 20
443.10790118621111
 30
0.0
 11
163.8162924224319
 21
443.10790118621111
 31
0.0
 12
162.8162924224319
 22
449.10790118621111
 32
0.0
 13
162.8162924224319
 23
449.10790118621111
 33
0.0
  0
TEXT
  5
E1
  8
DIM
 10
165.3128778157471
 20
232.5377535541416
 30
0.0
 40
5.0
  1
MAX. PERMISSIBLE O/D OF
 50
90.0
  0
TEXT
  5
E2
  8
DIM
 10
173.8843063871756
 20
232.5377535541416
 30
0.0
 40
5.0
  1
VALVE SPINDLE LOCKNUT
 50
90.0
  0
TEXT
  5
E3
  8
DIM
 10
156.74144924431849
 20
232.5377535541416
 30
0.0
 40
5.0
  1
%%c66 (%%c2.60") ROOT OF SPLINE
 50
90.0
  0
LINE
  5
E4
  8
DIM
 10
328.02036449838272
 20
364.46357124873617
 30
0.0
 11
328.02036449838272
 21
188.7079011862113
 31
0.0
  0
LINE
  5
E5
  8
DIM
 10
324.02036449838249
 20
348.60459238344458
 30
0.0
 11
324.02036449838249
 21
188.7079011862113
 31
0.0
  0
LINE
  5
E6
  8
DIM
 10
252.12036449838229
 20
220.70790118621119
 30
0.0
 11
318.02036449838249
 21
220.70790118621119
 31
0.0
  0
SOLID
  5
E7
  8
DIM
 10
252.12036449838229
 20
221.7079011862113
 30
0.0
 11
252.12036449838229
 21
219.7079011862113
 31
0.0
 12
246.12036449838229
 22
220.70790118621119
 32
0.0
 13
246.12036449838229
 23
220.70790118621119
 33
0.0
  0
TEXT
  5
E8
  8
DIM
 10
283.3477454507634
 20
223.2079011862113
 30
0.0
 40
5.0
  1
78
 72
     4
 11
287.39536449838238
 21
225.7079011862113
 31
0.0
  0
SOLID
  5
E9
  8
DIM
 10
318.02036449838249
 20
221.7079011862113
 30
0.0
 11
318.02036449838249
 21
219.7079011862113
 31
0.0
 12
324.02036449838249
 22
220.70790118621119
 32
0.0
 13
324.02036449838249
 23
220.70790118621119
 33
0.0
  0
LINE
  5
EA
  8
DIM
 10
246.12036449838229
 20
379.41513028614372
 30
0.0
 11
246.12036449838229
 21
218.9640743033176
 31
0.0
  0
SOLID
  5
EB
  8
DIM
 10
612.37105479931279
 20
361.42731371328409
 30
0.0
 11
613.20313030064858
 21
359.60861902750628
 31
0.0
 12
618.24317660731413
 22
363.01419287440331
 32
0.0
 13
618.24317660731413
 23
363.01419287440331
 33
0.0
  0
LINE
  5
EC
  8
DIM
 10
612.78709254998057
 20
360.51796637039507
 30
0.0
 11
522.8947336105922
 21
319.39109102640037
 31
0.0
  0
LINE
  5
ED
  8
DRG
 10
205.02036449838269
 20
485.70790118621119
 30
0.0
 11
205.02036449838261
 21
345.70790118621119
 31
0.0
  0
LINE
  5
EE
  8
DRG
 10
300.02036449838261
 20
565.23290118621128
 30
0.0
 11
300.02036449838261
 21
467.34498997477431
 31
0.0
  0
LINE
  5
EF
  8
DRG
 10
229.02036449838269
 20
339.70790118621107
 30
0.0
 11
229.02036449838249
 21
269.70790118621107
 31
0.0
  0
LINE
  5
F0
  8
DRG
 10
239.02036449838249
 20
259.70790118621119
 30
0.0
 11
264.02036449838249
 21
259.70790118621119
 31
0.0
  0
ARC
  5
F1
  8
DRG
 10
239.02036449838249
 20
269.70790118621107
 30
0.0
 40
10.0
 50
179.99999999999989
 51
270.0
  0
LINE
  5
F2
  8
DRG
 10
300.02036449838261
 20
266.18290118621121
 30
0.0
 11
300.02036449838261
 21
250.7079011862113
 31
0.0
  0
ARC
  5
F3
  8
DRG
 10
275.63931453700383
 20
256.7079011862113
 30
0.0
 40
6.0
 50
194.47751218593129
 51
270.0
  0
LINE
  5
F4
  8
DRG
 10
275.63931453700383
 20
250.7079011862113
 30
0.0
 11
310.02036449838272
 21
250.7079011862113
 31
0.0
  0
LINE
  5
F5
  8
CRS
 10
311.65353462765478
 20
259.7079011862109
 30
0.0
 11
278.07672240619559
 21
259.7079011862109
 31
0.0
  0
ARC
  5
F6
  8
DRG
 10
264.02036449838249
 20
253.70790118621119
 30
0.0
 40
6.0
 50
14.47751218593158
 51
90.0
  0
LINE
  5
F7
  8
CRS
 10
334.34192134800571
 20
415.70790118621119
 30
0.0
 11
190.026970506309
 21
415.70790118621119
 31
0.0
  0
LINE
  5
F8
  8
HID
 10
205.02036449838269
 20
365.45790118621119
 30
0.0
 11
220.02036449838261
 21
365.45790118621119
 31
0.0
  0
LINE
  5
F9
  8
HID
 10
220.02036449838261
 20
366.95790118621119
 30
0.0
 11
205.02036449838261
 21
366.95790118621119
 31
0.0
  0
LINE
  5
FA
  8
DRG
 10
300.02036449838261
 20
770.60790118621105
 30
0.0
 11
300.02036449838261
 21
670.60790118621105
 31
0.0
  0
LINE
  5
FB
  8
DRG
 10
210.02036449838249
 20
766.10790118621105
 30
0.0
 11
210.02036449838249
 21
675.10790118621117
 31
0.0
  0
LINE
  5
FC
  8
DRG
 10
215.02036449838261
 20
664.60790118621105
 30
0.0
 11
215.02036449838261
 21
491.70790118621119
 31
0.0
  0
LINE
  5
FD
  8
DRG
 10
290.02036449838278
 20
615.13790118621125
 30
0.0
 11
290.02036449838261
 21
578.789495305267
 31
0.0
  0
LINE
  5
FE
  8
HID
 10
205.02036449838269
 20
465.95790118621119
 30
0.0
 11
220.02036449838261
 21
465.95790118621119
 31
0.0
  0
LINE
  5
FF
  8
HID
 10
220.02036449838261
 20
464.45790118621142
 30
0.0
 11
205.02036449838261
 21
464.4579011862113
 31
0.0
  0
LINE
  5
100
  8
DRG
 10
310.02036449838249
 20
580.70790118621119
 30
0.0
 11
290.02036449838261
 21
580.70790118621119
 31
0.0
  0
LINE
  5
101
  8
DRG
 10
300.02036449838261
 20
580.70790118621119
 30
0.0
 11
300.02036449838261
 21
565.23290118621128
 31
0.0
  0
ARC
  5
102
  8
DRG
 10
209.02036449838261
 20
664.60790118621105
 30
0.0
 40
6.0
 50
0.0
 51
80.405931773139471
  0
LINE
  5
103
  8
DRG
 10
210.02036449838249
 20
675.10790118621117
 30
0.0
 11
210.02036449838249
 21
670.52398096931063
 31
0.0
  0
LINE
  5
104
  8
DRG
 10
290.02036449838261
 20
664.60790118621105
 30
0.0
 11
290.02036449838261
 21
615.13790118621102
 31
0.0
  0
ARC
  5
105
  8
DRG
 10
296.02036449838261
 20
664.60790118621105
 30
0.0
 40
6.0
 50
90.0
 51
180.0
  0
LINE
  5
106
  8
DRG
 10
296.02036449838261
 20
670.60790118621105
 30
0.0
 11
300.02036449838261
 21
670.60790118621117
 31
0.0
  0
LINE
  5
107
  8
DRG
 10
239.02036449838249
 20
796.60790118621117
 30
0.0
 11
271.02036449838261
 21
796.60790118621117
 31
0.0
  0
LINE
  5
108
  8
DRG
 10
229.02036449838249
 20
786.60790118621128
 30
0.0
 11
229.02036449838249
 21
776.60790118621151
 31
0.0
  0
ARC
  5
109
  8
DRG
 10
223.02036449838261
 20
776.60790118621151
 30
0.0
 40
6.0
 50
270.0
 51
0.0
  0
LINE
  5
10A
  8
DRG
 10
210.02036449838249
 20
770.60790118621151
 30
0.0
 11
223.02036449838261
 21
770.60790118621151
 31
0.0
  0
LINE
  5
10B
  8
DRG
 10
210.02036449838249
 20
770.60790118621117
 30
0.0
 11
210.02036449838249
 21
766.10790118621105
 31
0.0
  0
ARC
  5
10C
  8
DRG
 10
239.02036449838249
 20
786.60790118621128
 30
0.0
 40
10.0
 50
90.0
 51
180.0
  0
LINE
  5
10D
  8
DRG
 10
281.02036449838249
 20
786.60790118621128
 30
0.0
 11
281.0203644983888
 21
508.8628354301905
 31
0.0
  0
LINE
  5
10E
  8
DRG
 10
287.02036449838278
 20
770.60790118621117
 30
0.0
 11
308.04536449838281
 21
770.60790118621082
 31
0.0
  0
ARC
  5
10F
  8
DRG
 10
287.02036449838278
 20
776.60790118621117
 30
0.0
 40
6.0
 50
180.0
 51
270.0
  0
ARC
  5
110
  8
DRG
 10
271.02036449838261
 20
786.60790118621128
 30
0.0
 40
10.0
 50
0.0
 51
90.0
  0
ARC
  5
111
  8
DRG
 10
674.85252980737528
 20
415.7079011862113
 30
0.0
 40
165.0
 50
90.000000000000071
 51
269.99999999999977
  0
ARC
  5
112
  8
DRG
 10
674.85252980737505
 20
720.60790118621117
 30
0.0
 40
76.0
 50
90.0
 51
165.45539600777491
  0
LINE
  5
113
  8
DRG
 10
538.66457796874943
 20
508.86283543019073
 30
0.0
 11
601.28814516004741
 21
739.69405615414678
 31
0.0
  0
ARC
  5
114
  8
DRG
 10
674.85252980737505
 20
720.60790118621117
 30
0.0
 40
42.5
 50
90.0
 51
270.0
  0
LINE
  5
115
  8
DRG
 10
624.85252980737505
 20
760.60790118621128
 30
0.0
 11
624.85252980737482
 21
680.60790118621105
 31
0.0
  0
ARC
  5
116
  8
DRG
 10
648.85252980737505
 20
584.71973509141424
 30
0.0
 40
6.0
 50
278.74555933997118
 51
0.0
  0
LINE
  5
117
  8
DRG
 10
674.85252980737505
 20
670.60790118621173
 30
0.0
 11
634.85252980737482
 21
670.60790118621196
 31
0.0
  0
LINE
  5
118
  8
DRG
 10
654.85252980737505
 20
664.60790118621128
 30
0.0
 11
654.85252980737505
 21
584.71973509141424
 31
0.0
  0
ARC
  5
119
  8
DRG
 10
674.85252980737528
 20
598.63790118621125
 30
0.0
 40
15.0
 50
90.000000000000867
 51
269.99999999999909
  0
ARC
  5
11A
  8
DRG
 10
634.85252980737482
 20
680.60790118621105
 30
0.0
 40
10.0
 50
180.0
 51
270.0
  0
ARC
  5
11B
  8
DRG
 10
648.85252980737505
 20
664.60790118621128
 30
0.0
 40
6.0
 50
0.0
 51
90.0
  0
LINE
  5
11C
  8
DRG
 10
674.85252980737505
 20
770.60790118621117
 30
0.0
 11
634.85252980737505
 21
770.60790118621117
 31
0.0
  0
ARC
  5
11D
  8
DRG
 10
634.85252980737505
 20
760.60790118621128
 30
0.0
 40
10.0
 50
90.0
 51
180.0
  0
LINE
  5
11E
  8
CRS
 10
674.85252980737505
 20
629.79320124839535
 30
0.0
 11
674.85252980737505
 21
581.79592915720525
 31
0.0
  0
LINE
  5
11F
  8
CRS
 10
674.85252980737505
 20
821.70661368668584
 30
0.0
 11
674.85252980737505
 21
651.0708082216039
 31
0.0
  0
LINE
  5
120
  8
DRG
 10
209.02036449838261
 20
485.70790118621119
 30
0.0
 11
205.02036449838269
 21
485.70790118621119
 31
0.0
  0
LINE
  5
121
  8
DRG
 10
223.02036449838269
 20
345.70790118621107
 30
0.0
 11
205.02036449838261
 21
345.70790118621119
 31
0.0
  0
ARC
  5
122
  8
DRG
 10
209.02036449838261
 20
491.70790118621119
 30
0.0
 40
6.0
 50
270.0
 51
0.0
  0
ARC
  5
123
  8
DRG
 10
223.02036449838269
 20
339.70790118621107
 30
0.0
 40
6.0
 50
0.0
 51
89.999999999999815
  0
LINE
  5
124
  8
DRG
 10
229.02036449838249
 20
776.60790118621151
 30
0.0
 11
229.02036449838249
 21
339.70790118621107
 31
0.0
  0
LINE
  5
125
  8
DRG
 10
270.02036449838261
 20
508.8628354301905
 30
0.0
 11
270.02036449838261
 21
456.53986079094813
 31
0.0
  0
LINE
  5
126
  8
DRG2
 10
308.04536449838281
 20
765.73100719850584
 30
0.0
 11
316.5453644983827
 21
765.73100719850584
 31
0.0
  0
LINE
  5
127
  8
DRG2
 10
316.5453644983827
 20
765.73100719850584
 30
0.0
 11
316.5453644983827
 21
749.73100719850584
 31
0.0
  0
LINE
  5
128
  8
DRG2
 10
316.5453644983827
 20
749.73100719850584
 30
0.0
 11
308.04536449838281
 21
749.73100719850584
 31
0.0
  0
LINE
  5
129
  8
DRG2
 10
316.5453644983827
 20
749.73100719850584
 30
0.0
 11
318.04536449838281
 21
751.23100719850584
 31
0.0
  0
LINE
  5
12A
  8
DRG2
 10
318.04536449838281
 20
751.23100719850584
 30
0.0
 11
318.04536449838281
 21
764.23100719850584
 31
0.0
  0
LINE
  5
12B
  8
DRG2
 10
318.04536449838281
 20
764.23100719850584
 30
0.0
 11
316.5453644983827
 21
765.73100719850584
 31
0.0
  0
LINE
  5
12C
  8
DRG
 62
     1
 10
201.9953644983826
 20
770.82605004661252
 30
0.0
 11
210.02036449838249
 21
770.82605004661252
 31
0.0
  0
TEXT
  5
12D
  8
DIM
 10
262.13981941582779
 20
847.93569364156372
 30
0.0
 40
5.0
  1
114
 72
     4
 11
267.7350575110658
 21
850.43569364156372
 31
0.0
  0
LINE
  5
12E
  8
DRG
 10
310.02036449838249
 20
580.70790118621119
 30
0.0
 11
310.02036449838249
 21
456.37487111292518
 31
0.0
  0
LINE
  5
12F
  8
CRS
 10
625.4611211414948
 20
474.08964391479651
 30
0.0
 11
625.4611211414948
 21
456.10897578938722
 31
0.0
  0
LINE
  5
130
  8
CRS
 10
616.47078707878995
 20
465.09930985209189
 30
0.0
 11
634.45145520419919
 21
465.09930985209189
 31
0.0
  0
ARC
  5
131
  8
DRG
 10
674.85252980737505
 20
415.7079011862113
 30
0.0
 40
55.0
 50
90.0
 51
270.0
  0
ARC
  5
132
  8
DRG
 10
674.85252980737505
 20
415.70790118621119
 30
0.0
 40
35.04999999999999
 50
90.0
 51
270.0
  0
ARC
  5
133
  8
DRG
 10
674.85252980737505
 20
415.70790118621119
 30
0.0
 40
62.5
 50
153.468419104475
 51
206.53158089552491
  0
ARC
  5
134
  8
DRG
 10
625.35252980737528
 20
465.20790118621119
 30
0.0
 40
13.0
 50
41.915906123664811
 51
228.08409387633409
  0
ARC
  5
135
  8
DRG
 10
609.98762909955053
 20
448.0930004783869
 30
0.0
 40
10.0
 50
333.4684191044019
 51
48.084093876333867
  0
ARC
  5
136
  8
DRG
 10
642.46743051519979
 20
480.57280189403588
 30
0.0
 40
10.0
 50
221.91590612366539
 51
296.53158089553682
  0
ARC
  5
137
  8
DRG
 10
674.85252980737505
 20
415.70790118621119
 30
0.0
 40
62.5
 50
90.0
 51
116.53158089553649
  0
ARC
  5
138
  8
DRG
 10
642.46743051519979
 20
350.84300047838661
 30
0.0
 40
10.0
 50
63.468419104463159
 51
138.08409387633449
  0
ARC
  5
139
  8
DRG
 10
625.35252980737528
 20
366.20790118621119
 30
0.0
 40
13.0
 50
131.91590612366579
 51
318.08409387633509
  0
ARC
  5
13A
  8
DRG
 10
609.98762909955053
 20
383.32280189403559
 30
0.0
 40
10.0
 50
311.9159061236661
 51
26.531580895586409
  0
ARC
  5
13B
  8
DRG
 10
674.85252980737505
 20
415.70790118621119
 30
0.0
 40
62.5
 50
243.46841910446349
 51
270.0
  0
LINE
  5
13C
  8
CRS
 10
508.94790123553429
 20
415.70790118621119
 30
0.0
 11
490.1628143943492
 21
415.70790118621119
 31
0.0
  0
LINE
  5
13D
  8
CRS
 10
674.85252980737505
 20
248.03334832761379
 30
0.0
 11
674.85252980737505
 21
239.0832719974093
 31
0.0
  0
LINE
  5
13E
  8
CRS
 10
674.85252980737505
 20
561.37792302369849
 30
0.0
 11
674.85252980737505
 21
271.07671009135822
 31
0.0
  0
LINE
  5
13F
  8
DRG
 10
324.02036449838249
 20
478.2079011862113
 30
0.0
 11
324.02036449838261
 21
353.20790118621119
 31
0.0
  0
LINE
  5
140
  8
DRG
 10
324.02036449838249
 20
478.2079011862113
 30
0.0
 11
316.02036449838249
 21
478.2079011862113
 31
0.0
  0
LINE
  5
141
  8
DRG
 10
310.02036449838249
 20
375.0409312594972
 30
0.0
 11
310.02036449838272
 21
250.7079011862113
 31
0.0
  0
LINE
  5
142
  8
DRG
 10
328.02036449838232
 20
462.73290118621122
 30
0.0
 11
328.02036449838261
 21
368.68290118621132
 31
0.0
  0
LINE
  5
143
  8
DRG
 10
328.02036449838238
 20
462.73290118621111
 30
0.0
 11
327.42036449838253
 21
463.33290118621107
 31
0.0
  0
LINE
  5
144
  8
DRG
 10
324.02036449838249
 20
463.33290118621119
 30
0.0
 11
327.42036449838253
 21
463.33290118621107
 31
0.0
  0
LINE
  5
145
  8
DRG
 10
328.02036449838238
 20
368.68290118621121
 30
0.0
 11
327.42036449838253
 21
368.08290118621107
 31
0.0
  0
LINE
  5
146
  8
DRG
 10
324.02036449838272
 20
368.08290118621119
 30
0.0
 11
327.42036449838253
 21
368.08290118621107
 31
0.0
  0
LINE
  5
147
  8
DRG
 10
300.02036449838261
 20
360.73438034013492
 30
0.0
 11
300.02036449838261
 21
266.18290118621132
 31
0.0
  0
LINE
  5
148
  8
DRG
 10
270.02036449838261
 20
370.81916842214991
 30
0.0
 11
270.02036449838261
 21
254.6037622973781
 31
0.0
  0
ARC
  5
149
  8
DRG2
 10
674.85252980737505
 20
571.7079011862113
 30
0.0
 40
8.0
 50
90.0
 51
270.0
  0
ARC
  5
14A
  8
DRG2
 10
674.85252980737505
 20
571.7079011862113
 30
0.0
 40
7.0
 50
90.0
 51
270.0
  0
CIRCLE
  5
14B
  8
DRG2
 10
564.54387194227365
 20
526.01655905131258
 30
0.0
 40
7.0
  0
CIRCLE
  5
14C
  8
DRG2
 10
564.54387194227365
 20
526.01655905131258
 30
0.0
 40
8.0
  0
CIRCLE
  5
14D
  8
DRG2
 10
564.54387194227365
 20
305.39924332110991
 30
0.0
 40
8.0
  0
CIRCLE
  5
14E
  8
DRG2
 10
564.54387194227365
 20
305.39924332110991
 30
0.0
 40
7.0
  0
ARC
  5
14F
  8
DRG2
 10
674.85252980737505
 20
259.70790118621107
 30
0.0
 40
7.0
 50
90.0
 51
270.0
  0
ARC
  5
150
  8
DRG2
 10
674.85252980737505
 20
259.70790118621107
 30
0.0
 40
8.0
 50
90.0
 51
270.0
  0
CIRCLE
  5
151
  8
DRG2
 10
518.85252980737482
 20
415.70790118621107
 30
0.0
 40
7.0
  0
CIRCLE
  5
152
  8
DRG2
 10
518.85252980737482
 20
415.70790118621107
 30
0.0
 40
8.0
  0
CIRCLE
  5
153
  8
DRG2
 10
637.72942379508106
 20
757.73100719850493
 30
0.0
 40
7.0
  0
CIRCLE
  5
154
  8
DRG2
 10
637.72942379508106
 20
757.73100719850493
 30
0.0
 40
8.0
  0
CIRCLE
  5
155
  8
DRG2
 10
637.72942379508106
 20
683.48479517391763
 30
0.0
 40
8.0
  0
CIRCLE
  5
156
  8
DRG2
 10
637.72942379508106
 20
683.48479517391763
 30
0.0
 40
7.0
  0
LINE
  5
157
  8
DRG2
 10
320.02036449838249
 20
565.20790118621142
 30
0.0
 11
320.02036449838249
 21
578.20790118621142
 31
0.0
  0
LINE
  5
158
  8
DRG2
 10
318.52036449838249
 20
579.70790118621142
 30
0.0
 11
318.52036449838249
 21
563.7079011862113
 31
0.0
  0
LINE
  5
159
  8
CRS
 10
308.24938390958761
 20
571.7079011862113
 30
0.0
 11
322.02966519834951
 21
571.7079011862113
 31
0.0
  0
LINE
  5
15A
  8
DRG2
 10
318.52036449838249
 20
563.7079011862113
 30
0.0
 11
320.02036449838249
 21
565.20790118621142
 31
0.0
  0
LINE
  5
15B
  8
DRG2
 10
318.52036449838249
 20
563.7079011862113
 30
0.0
 11
310.02036449838249
 21
563.7079011862113
 31
0.0
  0
LINE
  5
15C
  8
DRG2
 10
320.02036449838249
 20
578.20790118621142
 30
0.0
 11
318.52036449838249
 21
579.70790118621142
 31
0.0
  0
LINE
  5
15D
  8
DRG2
 10
310.02036449838249
 20
579.70790118621142
 30
0.0
 11
318.52036449838249
 21
579.70790118621142
 31
0.0
  0
LINE
  5
15E
  8
DRG2
 10
320.02036449838249
 20
519.51655905131247
 30
0.0
 11
320.02036449838249
 21
532.51655905131247
 31
0.0
  0
LINE
  5
15F
  8
DRG2
 10
318.52036449838249
 20
534.01655905131258
 30
0.0
 11
318.52036449838249
 21
518.01655905131258
 31
0.0
  0
LINE
  5
160
  8
CRS
 10
308.24938390958761
 20
526.01655905131258
 30
0.0
 11
322.02966519834951
 21
526.01655905131258
 31
0.0
  0
LINE
  5
161
  8
DRG2
 10
318.52036449838249
 20
518.01655905131258
 30
0.0
 11
320.02036449838249
 21
519.51655905131247
 31
0.0
  0
LINE
  5
162
  8
DRG2
 10
318.52036449838249
 20
518.01655905131258
 30
0.0
 11
310.02036449838249
 21
518.01655905131258
 31
0.0
  0
LINE
  5
163
  8
DRG2
 10
320.02036449838249
 20
532.51655905131247
 30
0.0
 11
318.52036449838249
 21
534.01655905131258
 31
0.0
  0
LINE
  5
164
  8
DRG2
 10
310.02036449838249
 20
534.01655905131258
 30
0.0
 11
318.52036449838249
 21
534.01655905131258
 31
0.0
  0
LINE
  5
165
  8
DRG2
 10
318.52036449838249
 20
297.39924332110979
 30
0.0
 11
318.52036449838249
 21
313.39924332110979
 31
0.0
  0
LINE
  5
166
  8
DRG2
 10
320.02036449838249
 20
311.89924332110979
 30
0.0
 11
320.02036449838249
 21
298.89924332110979
 31
0.0
  0
LINE
  5
167
  8
DRG2
 10
318.52036449838249
 20
313.39924332110979
 30
0.0
 11
310.02036449838249
 21
313.39924332110979
 31
0.0
  0
LINE
  5
168
  8
DRG2
 10
318.52036449838249
 20
313.39924332110979
 30
0.0
 11
320.02036449838249
 21
311.89924332110979
 31
0.0
  0
LINE
  5
169
  8
DRG2
 10
318.52036449838249
 20
251.70790118621099
 30
0.0
 11
318.52036449838249
 21
267.70790118621102
 31
0.0
  0
LINE
  5
16A
  8
DRG2
 10
320.02036449838249
 20
266.20790118621102
 30
0.0
 11
320.02036449838249
 21
253.20790118621099
 31
0.0
  0
LINE
  5
16B
  8
DRG2
 10
310.02036449838249
 20
297.39924332110979
 30
0.0
 11
318.52036449838249
 21
297.39924332110979
 31
0.0
  0
LINE
  5
16C
  8
CRS
 10
308.24938390958761
 20
305.39924332110979
 30
0.0
 11
322.02966519834951
 21
305.39924332110979
 31
0.0
  0
LINE
  5
16D
  8
DRG2
 10
320.02036449838249
 20
298.89924332110979
 30
0.0
 11
318.52036449838249
 21
297.39924332110979
 31
0.0
  0
LINE
  5
16E
  8
DRG2
 10
318.52036449838249
 20
267.70790118621102
 30
0.0
 11
310.02036449838249
 21
267.70790118621102
 31
0.0
  0
LINE
  5
16F
  8
CRS
 10
308.24938390958761
 20
259.70790118621102
 30
0.0
 11
322.02966519834951
 21
259.70790118621102
 31
0.0
  0
LINE
  5
170
  8
DRG2
 10
318.52036449838249
 20
267.70790118621102
 30
0.0
 11
320.02036449838249
 21
266.20790118621102
 31
0.0
  0
LINE
  5
171
  8
DRG2
 10
310.02036449838249
 20
251.70790118621099
 30
0.0
 11
318.52036449838249
 21
251.70790118621099
 31
0.0
  0
LINE
  5
172
  8
DRG2
 10
320.02036449838249
 20
253.20790118621099
 30
0.0
 11
318.52036449838249
 21
251.70790118621099
 31
0.0
  0
LINE
  5
173
  8
DIM
 10
324.02036449838232
 20
481.49672874331827
 30
0.0
 11
324.02036449838232
 21
635.97414097768615
 31
0.0
  0
SOLID
  5
174
  8
DIM
 10
330.02036449838232
 20
610.86502331263375
 30
0.0
 11
330.02036449838232
 21
608.86502331263375
 31
0.0
 12
324.02036449838232
 22
609.86502331263375
 32
0.0
 13
324.02036449838232
 23
609.86502331263375
 33
0.0
  0
SOLID
  5
175
  8
DIM
 10
314.02036449838249
 20
610.86502331263375
 30
0.0
 11
314.02036449838249
 21
608.86502331263375
 31
0.0
 12
320.02036449838249
 22
609.86502331263375
 32
0.0
 13
320.02036449838249
 23
609.86502331263375
 33
0.0
  0
LINE
  5
176
  8
DIM
 10
330.02036449838232
 20
609.86502331263375
 30
0.0
 11
356.0350845520752
 21
609.86502331263375
 31
0.0
  0
TEXT
  5
177
  8
DIM
 10
342.30604186101419
 20
612.36502331263375
 30
0.0
 40
5.0
  1
4
 72
     4
 11
344.09175614672853
 21
614.86502331263375
 31
0.0
  0
LINE
  5
178
  8
DIM
 10
320.02036449838249
 20
581.9268891757165
 30
0.0
 11
320.02036449838249
 21
612.03144879278432
 31
0.0
  0
LINE
  5
179
  8
CRS
 10
296.48943356880568
 20
598.63790118621125
 30
0.0
 11
206.81656948085691
 21
598.63790118621125
 31
0.0
  0
LINE
  5
17A
  8
DIM
 10
301.64536449838238
 20
609.86502331263375
 30
0.0
 11
313.64536449838238
 21
609.86502331263375
 31
0.0
  0
TEXT
  5
17B
  8
DIM
 10
926.66041200501797
 20
500.91130027764132
 30
0.0
 40
5.0
  1
 
  0
TEXT
  5
17C
  8
DIM
 10
366.15616068038332
 20
622.69936190981105
 30
0.0
 40
5.0
  1
8 OFF M10 BASEPLATE SECURING
  0
TEXT
  5
17D
  8
DIM
 10
366.15616068038332
 20
605.55650476695394
 30
0.0
 40
5.0
  1
CENTRES ON %%C312 (%%c12.28") P.C.
  0
TEXT
  5
17E
  8
DIM
 10
366.15616068038332
 20
614.1279333383826
 30
0.0
 40
5.0
  1
SCREWS EQUALLY SPACED ON
  0
LINE
  5
17F
  8
DIM
 10
555.51816410307242
 20
536.5039164387864
 30
0.0
 11
508.11096943288862
 21
616.71749063523816
 31
0.0
  0
LINE
  5
180
  8
DIM
 10
508.11096943288862
 20
616.71749063523816
 30
0.0
 11
494.15884915693232
 21
616.71749063523851
 31
0.0
  0
SOLID
  5
181
  8
DIM
 10
556.37905178100357
 20
537.01271149181434
 30
0.0
 11
554.65727642514105
 21
535.99512138575835
 31
0.0
 12
558.57093442124096
 22
531.33859037119794
 32
0.0
 13
558.57093442124096
 23
531.33859037119794
 33
0.0
  0
LINE
  5
182
  8
DIM
 10
727.55272692969015
 20
726.60790118621117
 30
0.0
 11
727.55272692969015
 21
790.60790118621128
 31
0.0
  0
TEXT
  5
183
  8
DIM
 10
725.05272692969015
 20
754.33029532091541
 30
0.0
 40
5.0
  1
76
 50
90.0
 72
     4
 11
722.55272692969015
 21
758.25886674948686
 31
0.0
  0
LINE
  5
184
  8
DIM
 10
695.42698946207202
 20
720.60790118621117
 30
0.0
 11
729.55272692969015
 21
720.60790118621117
 31
0.0
  0
LINE
  5
185
  8
DIM
 10
727.55272692969015
 20
421.70790118621119
 30
0.0
 11
727.55272692969015
 21
714.60790118621151
 31
0.0
  0
SOLID
  5
186
  8
DIM
 10
726.55272692969015
 20
726.60790118621117
 30
0.0
 11
728.55272692969015
 21
726.60790118621117
 31
0.0
 12
727.55272692969015
 22
720.60790118621117
 32
0.0
 13
727.55272692969015
 23
720.60790118621117
 33
0.0
  0
SOLID
  5
187
  8
DIM
 10
726.55272692969015
 20
714.60790118621151
 30
0.0
 11
728.55272692969015
 21
714.60790118621151
 31
0.0
 12
727.55272692969015
 22
720.60790118621117
 32
0.0
 13
727.55272692969015
 23
720.60790118621117
 33
0.0
  0
LINE
  5
188
  8
DIM
 10
679.85820982184532
 20
796.60790118621117
 30
0.0
 11
729.55272692969015
 21
796.60790118621117
 31
0.0
  0
SOLID
  5
189
  8
DIM
 10
726.55272692969015
 20
790.60790118621128
 30
0.0
 11
728.55272692969015
 21
790.60790118621128
 31
0.0
 12
727.55272692969015
 22
796.60790118621117
 32
0.0
 13
727.55272692969015
 23
796.60790118621117
 33
0.0
  0
LINE
  5
18A
  8
DIM
 10
697.07098117614134
 20
415.70790118621119
 30
0.0
 11
729.55272692969015
 21
415.70790118621119
 31
0.0
  0
SOLID
  5
18B
  8
DIM
 10
726.55272692969015
 20
421.70790118621119
 30
0.0
 11
728.55272692969015
 21
421.70790118621119
 31
0.0
 12
727.55272692969015
 22
415.70790118621119
 32
0.0
 13
727.55272692969015
 23
415.70790118621119
 33
0.0
  0
TEXT
  5
18C
  8
DIM
 10
725.05272692969015
 20
561.4926949921088
 30
0.0
 40
5.0
  1
305
 50
90.0
 72
     4
 11
722.55272692969015
 21
567.92126642068035
 31
0.0
  0
LINE
  5
18D
  8
CRS
 10
690.74991987200701
 20
598.63790118621125
 30
0.0
 11
649.17503429074304
 21
598.63790118621125
 31
0.0
  0
LINE
  5
18E
  8
CRS
 10
692.60967853573493
 20
415.70790118621119
 30
0.0
 11
533.18866479783435
 21
415.70790118621119
 31
0.0
  0
LINE
  5
18F
  8
CRS
 10
691.22348706661057
 20
720.60790118621117
 30
0.0
 11
587.59777470226254
 21
720.60790118621117
 31
0.0
  0
LINE
  5
190
  8
DIM
 10
642.09618097764701
 20
429.80382382873478
 30
0.0
 11
571.68602776020225
 21
460.10317367875791
 31
0.0
  0
SOLID
  5
191
  8
DIM
 10
604.51866450420346
 20
447.06308244091792
 30
0.0
 11
603.72810292197437
 21
445.22596176314431
 31
0.0
 12
598.61202167976796
 22
448.5162068487183
 32
0.0
 13
598.61202167976796
 23
448.5162068487183
 33
0.0
  0
SOLID
  5
192
  8
DIM
 10
691.65969820481882
 20
407.38667230559128
 30
0.0
 11
692.45025978704803
 21
409.22379298336489
 31
0.0
 12
697.5663410292542
 22
405.93354789779079
 32
0.0
 13
697.5663410292542
 23
405.93354789779079
 33
0.0
  0
LINE
  5
193
  8
DIM
 10
697.5663410292542
 20
405.93354789779079
 30
0.0
 11
642.09618097764701
 21
429.80382382873478
 31
0.0
  0
SOLID
  5
194
  8
DIM
 10
686.14833617149793
 20
409.75835705227848
 30
0.0
 11
686.93889775372713
 21
411.59547773005221
 31
0.0
 12
692.05497899593342
 22
408.30523264447811
 32
0.0
 13
692.05497899593342
 23
408.30523264447811
 33
0.0
  0
ARC
  5
195
  8
DIM
 10
674.85252980737505
 20
415.70790118621119
 30
0.0
 40
83.0
 50
141.3482617052195
 51
160.5885326183834
  0
LINE
  5
196
  8
DIM
 10
509.85252980737522
 20
384.26505406604531
 30
0.0
 11
509.85252980737522
 21
325.58368622860161
 31
0.0
  0
LINE
  5
197
  8
DIM
 10
515.85252980737528
 20
220.70790118621119
 30
0.0
 11
701.10707229083187
 21
220.70790118621119
 31
0.0
  0
SOLID
  5
198
  8
DIM
 10
515.85252980737505
 20
221.7079011862113
 30
0.0
 11
515.85252980737505
 21
219.7079011862113
 31
0.0
 12
509.85252980737499
 22
220.70790118621119
 32
0.0
 13
509.85252980737499
 23
220.70790118621119
 33
0.0
  0
TEXT
  5
199
  8
DIM
 10
598.88334579075467
 20
223.2079011862113
 30
0.0
 40
5.0
  1
%%C330
 72
     4
 11
607.57382198123082
 21
225.7079011862113
 31
0.0
  0
SOLID
  5
19A
  8
DIM
 10
701.10707229083187
 20
221.7079011862113
 30
0.0
 11
701.10707229083187
 21
219.7079011862113
 31
0.0
 12
707.10707229083175
 22
220.70790118621119
 32
0.0
 13
707.10707229083175
 23
220.70790118621119
 33
0.0
  0
LINE
  5
19B
  8
DIM
 10
509.85252980737522
 20
311.2010105668042
 30
0.0
 11
509.85252980737522
 21
218.7079011862113
 31
0.0
  0
SOLID
  5
19C
  8
DIM
 10
695.10707229083175
 20
221.7079011862113
 30
0.0
 11
695.10707229083175
 21
219.7079011862113
 31
0.0
 12
701.10707229083187
 22
220.70790118621119
 32
0.0
 13
701.10707229083187
 23
220.70790118621119
 33
0.0
  0
LINE
  5
19D
  8
DRG2
 10
193.4953644983826
 20
691.48479517391854
 30
0.0
 11
191.9953644983826
 21
689.98479517391854
 31
0.0
  0
LINE
  5
19E
  8
DRG2
 10
191.9953644983826
 20
689.98479517391854
 30
0.0
 11
191.9953644983826
 21
676.98479517391854
 31
0.0
  0
LINE
  5
19F
  8
DRG2
 10
191.9953644983826
 20
676.98479517391854
 30
0.0
 11
193.4953644983826
 21
675.48479517391854
 31
0.0
  0
LINE
  5
1A0
  8
DRG2
 10
201.9953644983826
 20
675.48479517391854
 30
0.0
 11
193.4953644983826
 21
675.48479517391854
 31
0.0
  0
LINE
  5
1A1
  8
DRG2
 10
193.4953644983826
 20
675.48479517391854
 30
0.0
 11
193.4953644983826
 21
691.48479517391854
 31
0.0
  0
LINE
  5
1A2
  8
DRG2
 10
193.4953644983826
 20
691.48479517391854
 30
0.0
 11
201.9953644983826
 21
691.48479517391854
 31
0.0
  0
LINE
  5
1A3
  8
BORT
 39
1.8
 10
166.0
 20
126.0
 30
0.0
 11
10.0
 21
126.0
 31
0.0
  0
LINE
  5
1A4
  8
BORT
 39
1.8
 10
166.0
 20
112.0
 30
0.0
 11
10.0
 21
112.0
 31
0.0
  0
LINE
  5
1A5
  8
BORT
 39
1.8
 10
38.0
 20
98.0
 30
0.0
 11
38.0
 21
126.0
 31
0.0
  0
LINE
  5
1A6
  8
BORT
 39
1.8
 10
166.0
 20
98.0
 30
0.0
 11
166.0
 21
14.0
 31
0.0
  0
LINE
  5
1A7
  8
BORT
 39
1.8
 10
166.0
 20
126.0
 30
0.0
 11
166.0
 21
98.0
 31
0.0
  0
LINE
  5
1A8
  8
BORT
 39
1.8
 10
360.0
 20
44.0
 30
0.0
 11
360.0
 21
14.0
 31
0.0
  0
LINE
  5
1A9
  8
DRG2
 10
201.9953644983826
 20
749.73100719850584
 30
0.0
 11
193.4953644983826
 21
749.73100719850584
 31
0.0
  0
LINE
  5
1AA
  8
DRG2
 10
193.4953644983826
 20
749.73100719850584
 30
0.0
 11
193.4953644983826
 21
765.73100719850584
 31
0.0
  0
LINE
  5
1AB
  8
DRG2
 10
193.4953644983826
 20
765.73100719850584
 30
0.0
 11
201.9953644983826
 21
765.73100719850584
 31
0.0
  0
LINE
  5
1AC
  8
DRG2
 10
193.4953644983826
 20
765.73100719850584
 30
0.0
 11
191.9953644983826
 21
764.23100719850584
 31
0.0
  0
LINE
  5
1AD
  8
DRG2
 10
191.9953644983826
 20
764.23100719850584
 30
0.0
 11
191.9953644983826
 21
751.23100719850584
 31
0.0
  0
LINE
  5
1AE
  8
DRG2
 10
191.9953644983826
 20
751.23100719850584
 30
0.0
 11
193.4953644983826
 21
749.73100719850584
 31
0.0
  0
LINE
  5
1AF
  8
CRS
 10
637.72942379508106
 20
692.8406662069375
 30
0.0
 11
637.72942379508106
 21
683.48479517391763
 31
0.0
  0
LINE
  5
1B0
  8
CRS
 10
637.72942379508106
 20
683.48479517391763
 30
0.0
 11
637.72942379508106
 21
674.12892414089777
 31
0.0
  0
LINE
  5
1B1
  8
CRS
 10
674.85252980737528
 20
259.70790118621107
 30
0.0
 11
665.49665877435507
 21
259.70790118621107
 31
0.0
  0
LINE
  5
1B2
  8
DRG2
 10
672.54312873061644
 20
255.7079011862111
 30
0.0
 11
670.23372765385795
 21
259.70790118621107
 31
0.0
  0
LINE
  5
1B3
  8
DRG2
 10
670.23372765385795
 20
259.70790118621107
 30
0.0
 11
672.54312873061644
 21
263.70790118621107
 31
0.0
  0
LINE
  5
1B4
  8
DRG2
 10
672.54312873061644
 20
263.70790118621107
 30
0.0
 11
674.85252980737505
 21
263.70790118621107
 31
0.0
  0
LINE
  5
1B5
  8
DRG2
 10
674.85252980737505
 20
255.7079011862111
 30
0.0
 11
672.54312873061644
 21
255.7079011862111
 31
0.0
  0
LINE
  5
1B6
  8
CRS
 10
684.20840084039492
 20
571.7079011862113
 30
0.0
 11
674.85252980737528
 21
571.7079011862113
 31
0.0
  0
LINE
  5
1B7
  8
CRS
 10
674.85252980737528
 20
571.7079011862113
 30
0.0
 11
665.49665877435507
 21
571.7079011862113
 31
0.0
  0
LINE
  5
1B8
  8
BORT
 39
1.8
 10
580.0
 20
76.0
 30
0.0
 11
760.0
 21
76.0
 31
0.0
  0
LINE
  5
1B9
  8
BORT
 39
1.8
 10
760.0
 20
60.0
 30
0.0
 11
580.0
 21
60.0
 31
0.0
  0
LINE
  5
1BA
  8
BORT
 39
1.8
 10
580.0
 20
76.0
 30
0.0
 11
580.0
 21
44.0
 31
0.0
  0
LINE
  5
1BB
  8
BORT
 39
1.8
 10
580.0
 20
44.0
 30
0.0
 11
580.0
 21
14.0
 31
0.0
  0
LINE
  5
1BC
  8
CRS
 10
573.89974297529341
 20
305.39924332110991
 30
0.0
 11
564.54387194227377
 21
305.39924332110991
 31
0.0
  0
LINE
  5
1BD
  8
CRS
 10
564.54387194227377
 20
305.39924332110991
 30
0.0
 11
555.18800090925367
 21
305.39924332110991
 31
0.0
  0
LINE
  5
1BE
  8
DRG2
 10
562.23447086551505
 20
301.39924332110979
 30
0.0
 11
559.92506978875656
 21
305.39924332110991
 31
0.0
  0
LINE
  5
1BF
  8
DRG2
 10
559.92506978875656
 20
305.39924332110991
 30
0.0
 11
562.23447086551505
 21
309.39924332110991
 31
0.0
  0
LINE
  5
1C0
  8
DRG2
 10
562.23447086551505
 20
309.39924332110991
 30
0.0
 11
566.85327301903214
 21
309.39924332110991
 31
0.0
  0
LINE
  5
1C1
  8
DRG2
 10
566.85327301903214
 20
309.39924332110991
 30
0.0
 11
569.16267409579063
 21
305.39924332110991
 31
0.0
  0
LINE
  5
1C2
  8
DRG2
 10
569.16267409579063
 20
305.39924332110991
 30
0.0
 11
566.85327301903214
 21
301.39924332110979
 31
0.0
  0
LINE
  5
1C3
  8
DRG2
 10
566.85327301903214
 20
301.39924332110979
 30
0.0
 11
562.23447086551505
 21
301.39924332110979
 31
0.0
  0
LINE
  5
1C4
  8
CRS
 10
564.54387194227365
 20
296.04337228808998
 30
0.0
 11
564.54387194227365
 21
305.39924332110991
 31
0.0
  0
LINE
  5
1C5
  8
CRS
 10
564.54387194227365
 20
305.39924332110991
 30
0.0
 11
564.54387194227365
 21
314.75511435412972
 31
0.0
  0
LINE
  5
1C6
  8
CRS
 10
674.85252980737505
 20
250.35203015319121
 30
0.0
 11
674.85252980737505
 21
259.70790118621107
 31
0.0
  0
LINE
  5
1C7
  8
CRS
 10
674.85252980737505
 20
259.70790118621107
 30
0.0
 11
674.85252980737505
 21
269.063772219231
 31
0.0
  0
LINE
  5
1C8
  8
CRS
 10
518.85252980737482
 20
406.35203015319121
 30
0.0
 11
518.85252980737482
 21
415.70790118621107
 31
0.0
  0
LINE
  5
1C9
  8
CRS
 10
518.85252980737482
 20
415.70790118621107
 30
0.0
 11
518.85252980737482
 21
425.06377221923088
 31
0.0
  0
LINE
  5
1CA
  8
DRG2
 10
516.5431287306161
 20
411.70790118621107
 30
0.0
 11
514.23372765385784
 21
415.70790118621107
 31
0.0
  0
LINE
  5
1CB
  8
DRG2
 10
514.23372765385784
 20
415.70790118621107
 30
0.0
 11
516.5431287306161
 21
419.70790118621107
 31
0.0
  0
LINE
  5
1CC
  8
DRG2
 10
516.5431287306161
 20
419.70790118621107
 30
0.0
 11
521.16193088413343
 21
419.70790118621107
 31
0.0
  0
LINE
  5
1CD
  8
DRG2
 10
521.16193088413343
 20
419.70790118621107
 30
0.0
 11
523.4713319608918
 21
415.70790118621107
 31
0.0
  0
LINE
  5
1CE
  8
DRG2
 10
523.4713319608918
 20
415.70790118621107
 30
0.0
 11
521.16193088413343
 21
411.70790118621107
 31
0.0
  0
LINE
  5
1CF
  8
DRG2
 10
521.16193088413343
 20
411.70790118621107
 30
0.0
 11
516.5431287306161
 21
411.70790118621107
 31
0.0
  0
LINE
  5
1D0
  8
CRS
 10
528.20840084039469
 20
415.70790118621107
 30
0.0
 11
518.85252980737505
 21
415.70790118621107
 31
0.0
  0
LINE
  5
1D1
  8
CRS
 10
518.85252980737505
 20
415.70790118621107
 30
0.0
 11
509.4966587743549
 21
415.70790118621107
 31
0.0
  0
LINE
  5
1D2
  8
CRS
 10
525.89083703799702
 20
415.70790118621119
 30
0.0
 11
518.85252980737482
 21
415.70790118621119
 31
0.0
  0
LINE
  5
1D3
  8
CRS
 10
518.85252980737482
 20
415.70790118621119
 30
0.0
 11
511.4158833891081
 21
415.70790118621119
 31
0.0
  0
LINE
  5
1D4
  8
CRS
 10
573.89974297529341
 20
526.01655905131258
 30
0.0
 11
564.54387194227377
 21
526.01655905131258
 31
0.0
  0
LINE
  5
1D5
  8
CRS
 10
564.54387194227377
 20
526.01655905131258
 30
0.0
 11
555.18800090925367
 21
526.01655905131258
 31
0.0
  0
LINE
  5
1D6
  8
DRG2
 10
562.23447086551505
 20
530.01655905131258
 30
0.0
 11
559.92506978875656
 21
526.01655905131258
 31
0.0
  0
LINE
  5
1D7
  8
DRG2
 10
559.92506978875656
 20
526.01655905131258
 30
0.0
 11
562.23447086551505
 21
522.01655905131258
 31
0.0
  0
LINE
  5
1D8
  8
DRG2
 10
562.23447086551505
 20
522.01655905131258
 30
0.0
 11
566.85327301903214
 21
522.01655905131258
 31
0.0
  0
LINE
  5
1D9
  8
DRG2
 10
566.85327301903214
 20
522.01655905131258
 30
0.0
 11
569.16267409579063
 21
526.01655905131258
 31
0.0
  0
LINE
  5
1DA
  8
DRG2
 10
569.16267409579063
 20
526.01655905131258
 30
0.0
 11
566.85327301903214
 21
530.01655905131258
 31
0.0
  0
LINE
  5
1DB
  8
DRG2
 10
566.85327301903214
 20
530.01655905131258
 30
0.0
 11
562.23447086551505
 21
530.01655905131258
 31
0.0
  0
LINE
  5
1DC
  8
CRS
 10
564.54387194227365
 20
535.37243008433245
 30
0.0
 11
564.54387194227365
 21
526.01655905131258
 31
0.0
  0
LINE
  5
1DD
  8
CRS
 10
564.54387194227365
 20
526.01655905131258
 30
0.0
 11
564.54387194227365
 21
516.66068801829272
 31
0.0
  0
LINE
  5
1DE
  8
DRG2
 10
672.54312873061644
 20
575.70790118621142
 30
0.0
 11
670.23372765385795
 21
571.7079011862113
 31
0.0
  0
LINE
  5
1DF
  8
DRG2
 10
670.23372765385795
 20
571.7079011862113
 30
0.0
 11
672.54312873061644
 21
567.7079011862113
 31
0.0
  0
LINE
  5
1E0
  8
DRG2
 10
672.54312873061644
 20
567.7079011862113
 30
0.0
 11
674.85252980737505
 21
567.7079011862113
 31
0.0
  0
LINE
  5
1E1
  8
CRS
 10
674.85252980737505
 20
581.06377221923117
 30
0.0
 11
674.85252980737505
 21
571.7079011862113
 31
0.0
  0
LINE
  5
1E2
  8
CRS
 10
674.85252980737505
 20
571.7079011862113
 30
0.0
 11
674.85252980737505
 21
562.35203015319155
 31
0.0
  0
LINE
  5
1E3
  8
DRG2
 10
674.85252980737505
 20
575.70790118621142
 30
0.0
 11
672.54312873061644
 21
575.70790118621142
 31
0.0
  0
LINE
  5
1E4
  8
CRS
 10
647.08529482810104
 20
683.48479517391763
 30
0.0
 11
637.72942379508129
 21
683.48479517391763
 31
0.0
  0
LINE
  5
1E5
  8
CRS
 10
637.72942379508129
 20
683.48479517391763
 30
0.0
 11
628.37355276206131
 21
683.48479517391763
 31
0.0
  0
LINE
  5
1E6
  8
DRG2
 10
635.42002271832246
 20
687.48479517391763
 30
0.0
 11
633.11062164156408
 21
683.48479517391763
 31
0.0
  0
LINE
  5
1E7
  8
DRG2
 10
633.11062164156408
 20
683.48479517391763
 30
0.0
 11
635.42002271832246
 21
679.48479517391763
 31
0.0
  0
LINE
  5
1E8
  8
DRG2
 10
635.42002271832246
 20
679.48479517391763
 30
0.0
 11
640.03882487183978
 21
679.48479517391763
 31
0.0
  0
LINE
  5
1E9
  8
DRG2
 10
640.03882487183978
 20
679.48479517391763
 30
0.0
 11
642.34822594859816
 21
683.48479517391763
 31
0.0
  0
LINE
  5
1EA
  8
DRG2
 10
642.34822594859816
 20
683.48479517391763
 30
0.0
 11
640.03882487183978
 21
687.48479517391763
 31
0.0
  0
LINE
  5
1EB
  8
DRG2
 10
640.03882487183978
 20
687.48479517391763
 30
0.0
 11
635.42002271832246
 21
687.48479517391763
 31
0.0
  0
LINE
  5
1EC
  8
BORT
 39
1.8
 10
716.0
 20
76.0
 30
0.0
 11
716.0
 21
44.0
 31
0.0
  0
LINE
  5
1ED
  8
CRS
 10
647.08529482810104
 20
757.73100719850493
 30
0.0
 11
637.72942379508129
 21
757.73100719850493
 31
0.0
  0
LINE
  5
1EE
  8
CRS
 10
637.72942379508129
 20
757.73100719850493
 30
0.0
 11
628.37355276206131
 21
757.73100719850493
 31
0.0
  0
LINE
  5
1EF
  8
CRS
 10
637.72942379508106
 20
748.37513616548495
 30
0.0
 11
637.72942379508106
 21
757.73100719850493
 31
0.0
  0
LINE
  5
1F0
  8
CRS
 10
637.72942379508106
 20
757.73100719850493
 30
0.0
 11
637.72942379508106
 21
767.08687823152468
 31
0.0
  0
LINE
  5
1F1
  8
DRG2
 10
635.42002271832246
 20
753.73100719850493
 30
0.0
 11
633.11062164156408
 21
757.73100719850493
 31
0.0
  0
LINE
  5
1F2
  8
DRG2
 10
633.11062164156408
 20
757.73100719850493
 30
0.0
 11
635.42002271832246
 21
761.73100719850493
 31
0.0
  0
LINE
  5
1F3
  8
DRG2
 10
635.42002271832246
 20
761.73100719850493
 30
0.0
 11
640.03882487183978
 21
761.73100719850493
 31
0.0
  0
LINE
  5
1F4
  8
DRG2
 10
640.03882487183978
 20
761.73100719850493
 30
0.0
 11
642.34822594859816
 21
757.73100719850493
 31
0.0
  0
LINE
  5
1F5
  8
DRG2
 10
642.34822594859816
 20
757.73100719850493
 30
0.0
 11
640.03882487183978
 21
753.73100719850493
 31
0.0
  0
LINE
  5
1F6
  8
DRG2
 10
640.03882487183978
 20
753.73100719850493
 30
0.0
 11
635.42002271832246
 21
753.73100719850493
 31
0.0
  0
LINE
  5
1F7
  8
DIM
 10
308.04536449838281
 20
665.6079011862106
 30
0.0
 11
308.04536449838281
 21
639.1828248993844
 31
0.0
  0
LINE
  5
1F8
  8
DIM
 10
302.0453644983827
 20
641.1828248993844
 30
0.0
 11
296.04536449838281
 21
641.1828248993844
 31
0.0
  0
SOLID
  5
1F9
  8
DIM
 10
302.0453644983827
 20
640.1828248993844
 30
0.0
 11
302.0453644983827
 21
642.18282489938429
 31
0.0
 12
308.04536449838281
 22
641.1828248993844
 32
0.0
 13
308.04536449838281
 23
641.1828248993844
 33
0.0
  0
LINE
  5
1FA
  8
DIM
 10
324.04536449838258
 20
641.1828248993844
 30
0.0
 11
352.15624667591652
 21
641.1828248993844
 31
0.0
  0
SOLID
  5
1FB
  8
DIM
 10
324.04536449838258
 20
640.1828248993844
 30
0.0
 11
324.04536449838258
 21
642.18282489938429
 31
0.0
 12
318.0453644983827
 22
641.1828248993844
 32
0.0
 13
318.0453644983827
 23
641.1828248993844
 33
0.0
  0
LINE
  5
1FC
  8
DIM
 10
318.0453644983827
 20
639.1828248993844
 30
0.0
 11
318.04536449838281
 21
674.61082493300671
 31
0.0
  0
LINE
  5
1FD
  8
DIM
 10
324.02036449838232
 20
645.78575785281691
 30
0.0
 11
324.02036449838232
 21
847.66086754040168
 31
0.0
  0
TEXT
  5
1FE
  8
DIM
 10
335.77008188167127
 20
643.6828248993844
 30
0.0
 40
5.0
  1
10
 72
     4
 11
339.34151045309989
 21
646.18282489938429
 31
0.0
  0
ARC
  5
1FF
  8
DRG
 10
316.02036449838249
 20
484.2079011862113
 30
0.0
 40
6.0
 50
180.0
 51
270.0
  0
ARC
  5
200
  8
DRG
 10
316.02036449838249
 20
347.20790118621119
 30
0.0
 40
6.0
 50
90.0
 51
180.0
  0
LINE
  5
201
  8
DRG
 10
324.02036449838249
 20
353.20790118621119
 30
0.0
 11
316.02036449838249
 21
353.2079011862113
 31
0.0
  0
LINE
  5
202
  8
DRG
 62
     1
 10
314.04536449838281
 20
749.73100719850584
 30
0.0
 11
314.04536449838281
 21
691.48479517391854
 31
0.0
  0
LINE
  5
203
  8
DRG
 62
     1
 10
195.9953644983826
 20
749.73100719850584
 30
0.0
 11
195.9953644983826
 21
691.48479517391854
 31
0.0
  0
LINE
  5
204
  8
CRS
 10
319.17978301008128
 20
720.60790118621117
 30
0.0
 11
85.905909510813444
 21
720.60790118621117
 31
0.0
  0
LINE
  5
205
  8
DIM
 10
157.46664112292359
 20
365.45790118621119
 30
0.0
 11
105.4267737349424
 21
365.45790118621119
 31
0.0
  0
LINE
  5
206
  8
CRS
 10
677.67134144314025
 20
259.70790118621107
 30
0.0
 11
674.85252980737528
 21
259.70790118621107
 31
0.0
  0
LINE
  5
207
  8
CRS
 10
215.79667853971719
 20
598.63790118621125
 30
0.0
 11
209.50697460397859
 21
598.63790118621125
 31
0.0
  0
LINE
  5
208
  8
DRG2
 10
215.0033601069064
 20
601.26290118621125
 30
0.0
 11
211.1947900894142
 21
601.26326254304092
 31
0.0
  0
LINE
  5
209
  8
DRG2
 10
211.193066844718
 20
593.38790118621125
 30
0.0
 11
215.0033601069064
 21
593.38790118621125
 31
0.0
  0
LINE
  5
20A
  8
DRG2
 10
215.0033601069064
 20
603.88790118621125
 30
0.0
 11
211.193066844718
 21
603.88790118621125
 31
0.0
  0
LINE
  5
20B
  8
DRG2
 10
210.80336010690641
 20
602.57690118621133
 30
0.0
 11
210.80336010690641
 21
594.6989011862114
 31
0.0
  0
LINE
  5
20C
  8
DRG2
 10
211.19467989446949
 20
596.01290118621125
 30
0.0
 11
215.0033601069064
 21
596.01290118621125
 31
0.0
  0
ARC
  5
20D
  8
DRG2
 10
213.20336010690639
 20
594.6989011862114
 30
0.0
 40
2.3999999999999999
 50
146.80432899645251
 51
213.11012571114091
  0
LINE
  5
20E
  8
DRG2
 10
210.80336010690641
 20
594.6989011862114
 30
0.0
 11
210.80336010690641
 21
602.57690118621133
 31
0.0
  0
ARC
  5
20F
  8
DRG2
 10
213.20336010690639
 20
602.57690118621133
 30
0.0
 40
2.3999999999999999
 50
146.889874288859
 51
213.1956710035474
  0
ARC
  5
210
  8
DRG2
 10
219.80336010690641
 20
598.63790118621125
 30
0.0
 40
9.0
 50
163.03983164449119
 51
196.9601683555087
  0
TEXT
  5
211
  8
TXT
 10
403.38095238095241
 20
49.5
 30
0.0
 40
5.0
  1
3.60
 72
     4
 11
411.0
 21
52.0
 31
0.0
  0
TEXT
  5
212
  8
TXT
 10
400.28571428571422
 20
65.5
 30
0.0
 40
5.0
  1
4.00:1
 72
     4
 11
411.0
 21
68.0
 31
0.0
  0
TEXT
  5
213
  8
TXT
 10
406.23809523809518
 20
81.5
 30
0.0
 40
5.0
  1
4:1
 72
     4
 11
411.0
 21
84.0
 31
0.0
  0
LINE
  5
214
  8
DRG2
 10
166.0
 20
92.0
 30
0.0
 11
536.0
 21
92.0
 31
0.0
  0
LINE
  5
215
  8
DRG2
 10
166.0
 20
76.0
 30
0.0
 11
536.0
 21
76.0
 31
0.0
  0
LINE
  5
216
  8
DRG2
 10
166.0
 20
60.0
 30
0.0
 11
536.0
 21
60.0
 31
0.0
  0
LINE
  5
217
  8
DRG2
 10
166.0
 20
44.0
 30
0.0
 11
536.0
 21
44.0
 31
0.0
  0
TEXT
  5
218
  8
TXT
 10
170.76190476190479
 20
49.857142857142847
 30
0.0
 40
5.0
  1
FACTOR (MECH. ADVANTAGE)
 72
     4
 11
226.0
 21
52.0
 31
0.0
  0
LINE
  5
219
  8
DRG2
 10
166.0
 20
44.0
 30
0.0
 11
166.0
 21
92.0
 31
0.0
  0
LINE
  5
21A
  8
DRG2
 10
286.0
 20
44.0
 30
0.0
 11
286.0
 21
92.0
 31
0.0
  0
LINE
  5
21B
  8
DRG2
 10
336.0
 20
44.0
 30
0.0
 11
336.0
 21
92.0
 31
0.0
  0
LINE
  5
21C
  8
DRG2
 10
386.0
 20
44.0
 30
0.0
 11
386.0
 21
92.0
 31
0.0
  0
TEXT
  5
21D
  8
TXT
 10
303.85714285714278
 20
49.5
 30
0.0
 40
5.0
  1
1.80
 72
     4
 11
311.0
 21
52.0
 31
0.0
  0
TEXT
  5
21E
  8
TXT
 10
300.28571428571422
 20
65.5
 30
0.0
 40
5.0
  1
2.00:1
 72
     4
 11
311.0
 21
68.0
 31
0.0
  0
TEXT
  5
21F
  8
TXT
 10
201.71428571428569
 20
65.5
 30
0.0
 40
5.0
  1
EXACT RATIO
 72
     4
 11
226.0
 21
68.0
 31
0.0
  0
TEXT
  5
220
  8
TXT
 10
197.3095238095238
 20
81.5
 30
0.0
 40
5.0
  1
NOMINAL RATIO
 72
     4
 11
226.0
 21
84.0
 31
0.0
  0
TEXT
  5
221
  8
TXT
 10
353.38095238095229
 20
49.5
 30
0.0
 40
5.0
  1
2.70
 72
     4
 11
361.0
 21
52.0
 31
0.0
  0
TEXT
  5
222
  8
TXT
 10
350.28571428571422
 20
65.5
 30
0.0
 40
5.0
  1
3.00:1
 72
     4
 11
361.0
 21
68.0
 31
0.0
  0
TEXT
  5
223
  8
TXT
 10
356.23809523809518
 20
81.5
 30
0.0
 40
5.0
  1
3:1
 72
     4
 11
361.0
 21
84.0
 31
0.0
  0
TEXT
  5
224
  8
TXT
 10
306.23809523809518
 20
81.5
 30
0.0
 40
5.0
  1
2:1
 72
     4
 11
311.0
 21
84.0
 31
0.0
  0
LINE
  5
225
  8
DRG2
 10
436.0
 20
44.0
 30
0.0
 11
436.0
 21
92.0
 31
0.0
  0
LINE
  5
226
  8
DRG2
 10
486.0
 20
44.0
 30
0.0
 11
486.0
 21
92.0
 31
0.0
  0
LINE
  5
227
  8
DRG2
 10
536.0
 20
44.0
 30
0.0
 11
536.0
 21
92.0
 31
0.0
  0
TEXT
  5
228
  8
TXT
 10
450.28571428571422
 20
65.5
 30
0.0
 40
5.0
  1
6.00:1
 72
     4
 11
461.0
 21
68.0
 31
0.0
  0
TEXT
  5
229
  8
TXT
 10
453.38095238095241
 20
49.5
 30
0.0
 40
5.0
  1
5.40
 72
     4
 11
461.0
 21
52.0
 31
0.0
  0
TEXT
  5
22A
  8
TXT
 10
456.23809523809518
 20
81.5
 30
0.0
 40
5.0
  1
6:1
 72
     4
 11
461.0
 21
84.0
 31
0.0
  0
TEXT
  5
22B
  8
TXT
 10
503.38095238095241
 20
49.5
 30
0.0
 40
5.0
  1
7.20
 72
     4
 11
511.0
 21
52.0
 31
0.0
  0
TEXT
  5
22C
  8
TXT
 10
500.28571428571422
 20
65.5
 30
0.0
 40
5.0
  1
8.00:1
 72
     4
 11
511.0
 21
68.0
 31
0.0
  0
TEXT
  5
22D
  8
TXT
 10
506.23809523809518
 20
81.5
 30
0.0
 40
5.0
  1
8:1
 72
     4
 11
511.0
 21
84.0
 31
0.0
  0
TEXT
  5
22E
  8
BORT
 10
1288.136244466443
 20
80.780103293043894
 30
0.0
 40
5.0
  1

 72
     4
 11
1288.136244466443
 21
80.780103293043894
 31
0.0
  0
TEXT
  5
22F
  8
BORT
 10
2069.077304755549
 20
95.611294514601354
 30
0.0
 40
5.0
  1

 72
     4
 11
2069.077304755549
 21
95.611294514601354
 31
0.0
  0
TEXT
  5
230
  8
BORT
 10
2886.6110375800331
 20
110.4424857361588
 30
0.0
 40
5.0
  1

 72
     4
 11
2886.6110375800331
 21
110.4424857361588
 31
0.0
  0
LINE
  5
231
  8
DRG
 10
127.1766753335788
 20
877.73085434030918
 30
0.0
 11
127.1766753335788
 21
1052.730854340309
 31
0.0
  0
LINE
  5
232
  8
DRG
 10
112.1766753335788
 20
1052.730854340309
 30
0.0
 11
112.1766753335788
 21
877.73085434030918
 31
0.0
  0
LINE
  5
233
  8
DRG
 10
112.1766753335788
 20
877.73085434030918
 30
0.0
 11
127.1766753335788
 21
877.73085434030918
 31
0.0
  0
LINE
  5
234
  8
DRG
 10
169.9266753335788
 20
915.23085434030918
 30
0.0
 11
182.1766753335788
 21
915.23085434030918
 31
0.0
  0
LINE
  5
235
  8
CRS
 10
222.41523733346509
 20
965.23085434030918
 30
0.0
 11
52.361566471086569
 21
965.23085434030918
 31
0.0
  0
LINE
  5
236
  8
DRG
 10
169.9266753335788
 20
915.23085434030918
 30
0.0
 11
169.9266753335811
 21
1015.230854340309
 31
0.0
  0
LINE
  5
237
  8
DRG
 10
112.1766753335788
 20
950.23085434030918
 30
0.0
 11
62.676675333579738
 21
950.23085434030918
 31
0.0
  0
LINE
  5
238
  8
DRG
 10
112.1766753335788
 20
980.23085434030907
 30
0.0
 11
62.676675333579738
 21
980.23085434030907
 31
0.0
  0
LINE
  5
239
  8
DRG
 10
106.17667533357969
 20
983.53085434030902
 30
0.0
 11
66.176675333579723
 21
983.53085434030902
 31
0.0
  0
LINE
  5
23A
  8
DRG
 10
61.17667533357973
 20
978.73085434030918
 30
0.0
 11
61.17667533357973
 21
951.73085434030907
 31
0.0
  0
LINE
  5
23B
  8
DRG2
 10
62.676675333579738
 20
980.23085434030907
 30
0.0
 11
62.676675333579738
 21
950.23085434030918
 31
0.0
  0
LINE
  5
23C
  8
DRG
 10
61.17667533357973
 20
951.73085434030907
 30
0.0
 11
62.676675333579738
 21
950.23085434030918
 31
0.0
  0
LINE
  5
23D
  8
DRG
 10
62.676675333579738
 20
980.23085434030907
 30
0.0
 11
61.17667533357973
 21
978.73085434030918
 31
0.0
  0
LINE
  5
23E
  8
DRG
 10
66.176675333579723
 20
983.53085434030902
 30
0.0
 11
66.176675333579723
 21
980.23085434030907
 31
0.0
  0
LINE
  5
23F
  8
HID
 10
117.1766753335788
 20
1010.2308543403039
 30
0.0
 11
117.1766753335788
 21
920.23085434030929
 31
0.0
  0
LINE
  5
240
  8
DRG
 10
133.1766753335788
 20
939.13481085624301
 30
0.0
 11
163.9266753335788
 21
939.13481085624301
 31
0.0
  0
LINE
  5
241
  8
HID
 10
117.1766753335788
 20
922.63085434030916
 30
0.0
 11
117.1766753335788
 21
918.60585434030918
 31
0.0
  0
LINE
  5
242
  8
HID
 10
116.1766753335788
 20
917.60585434030918
 30
0.0
 11
112.1766753335788
 21
917.60585434030918
 31
0.0
  0
ARC
  5
243
  8
HID
 10
116.1766753335788
 20
918.60585434030918
 30
0.0
 40
1.0
 50
270.0
 51
0.0
  0
ARC
  5
244
  8
DRG
 10
133.1766753335788
 20
933.13481085624278
 30
0.0
 40
6.0
 50
90.0
 51
180.0
  0
ARC
  5
245
  8
DRG
 10
163.9266753335788
 20
933.13481085624323
 30
0.0
 40
6.0
 50
0.0
 51
90.000000000000114
  0
LINE
  5
246
  8
DRG
 10
163.92667533358059
 20
991.32689782437535
 30
0.0
 11
133.1766753335788
 21
991.3268978243749
 31
0.0
  0
LINE
  5
247
  8
DRG
 10
106.17667533357969
 20
983.53085434030902
 30
0.0
 11
106.17667533357969
 21
980.23085434030907
 31
0.0
  0
LINE
  5
248
  8
HID
 10
116.1766753335788
 20
1012.855854340309
 30
0.0
 11
112.1766753335788
 21
1012.855854340309
 31
0.0
  0
LINE
  5
249
  8
HID
 10
117.1766753335788
 20
1010.230854340309
 30
0.0
 11
117.1766753335788
 21
1011.855854340309
 31
0.0
  0
ARC
  5
24A
  8
HID
 10
116.1766753335788
 20
1011.855854340309
 30
0.0
 40
1.0
 50
0.0
 51
90.0
  0
LINE
  5
24B
  8
DRG
 10
112.1766753335788
 20
1052.730854340309
 30
0.0
 11
127.1766753335788
 21
1052.730854340309
 31
0.0
  0
LINE
  5
24C
  8
HID
 10
112.1766753335788
 20
1022.872263010309
 30
0.0
 11
127.1766753335788
 21
1022.872263010309
 31
0.0
  0
LINE
  5
24D
  8
HID
 10
112.1766753335788
 20
1006.372263010309
 30
0.0
 11
127.1766753335788
 21
1006.372263010309
 31
0.0
  0
LINE
  5
24E
  8
CRS
 10
109.1581439635398
 20
1014.622263010309
 30
0.0
 11
130.98905915185611
 21
1014.622263010309
 31
0.0
  0
ARC
  5
24F
  8
DRG
 10
133.1766753335788
 20
997.32689782437501
 30
0.0
 40
6.0
 50
180.0
 51
270.0
  0
ARC
  5
250
  8
DRG
 10
163.92667533358059
 20
997.32689782437512
 30
0.0
 40
6.0
 50
270.00000000000011
 51
359.99999999999869
  0
LINE
  5
251
  8
DRG
 10
182.1766753335788
 20
915.01270547990816
 30
0.0
 11
182.17667533358039
 21
1015.230854340309
 31
0.0
  0
LINE
  5
252
  8
DRG
 10
169.9266753335788
 20
1015.230854340309
 30
0.0
 11
182.1766753335788
 21
1015.230854340309
 31
0.0
  0
LINE
  5
253
  8
CRS
 10
108.7454852378069
 20
915.83944567030915
 30
0.0
 11
129.98001838175341
 21
915.83944567030915
 31
0.0
  0
LINE
  5
254
  8
HID
 10
112.1766753335788
 20
907.58944567030926
 30
0.0
 11
127.1766753335788
 21
907.58944567030926
 31
0.0
  0
LINE
  5
255
  8
HID
 10
112.1766753335788
 20
924.08944567030915
 30
0.0
 11
127.1766753335788
 21
924.08944567030915
 31
0.0
  0
LINE
  5
256
  8
DIM
 10
112.1766753335788
 20
1057.324055352866
 30
0.0
 11
112.1766753335788
 21
1084.730854340309
 31
0.0
  0
LINE
  5
257
  8
DIM
 10
31.17667533357973
 20
877.73085434030918
 30
0.0
 11
31.17667533357973
 21
1052.730854340309
 31
0.0
  0
SOLID
  5
258
  8
DIM
 10
30.176675333579741
 20
883.73085434030907
 30
0.0
 11
32.17667533357973
 21
883.73085434030907
 31
0.0
 12
31.17667533357973
 22
877.73085434030918
 32
0.0
 13
31.17667533357973
 23
877.73085434030918
 33
0.0
  0
TEXT
  5
259
  8
DIM
 10
28.67667533357973
 20
927.49275910221388
 30
0.0
 40
5.0
  1
FOR INPUT OPTIONS
 50
90.0
 72
     4
 11
26.17667533357973
 21
965.23085434030918
 31
0.0
  0
SOLID
  5
25A
  8
DIM
 10
30.176675333579741
 20
1046.730854340309
 30
0.0
 11
32.17667533357973
 21
1046.730854340309
 31
0.0
 12
31.17667533357973
 22
1052.730854340309
 32
0.0
 13
31.17667533357973
 23
1052.730854340309
 33
0.0
  0
TEXT
  5
25B
  8
DIM
 10
85.009862155566751
 20
1016.030854340309
 30
0.0
 40
5.0
  1
5
 72
     1
 11
86.676528822233408
 21
1018.530854340309
 31
0.0
 73
     2
  0
LINE
  5
25C
  8
DIM
 10
61.17667533357973
 20
1013.530854340309
 30
0.0
 11
49.428657763368513
 21
1013.530854340309
 31
0.0
  0
LINE
  5
25D
  8
DIM
 10
72.176675333579738
 20
1013.530854340309
 30
0.0
 11
98.586759280771744
 21
1013.530854340309
 31
0.0
  0
SOLID
  5
25E
  8
DIM
 10
72.176675333579738
 20
1014.530854340309
 30
0.0
 11
72.176675333579738
 21
1012.530854340309
 31
0.0
 12
66.176675333579723
 22
1013.530854340309
 32
0.0
 13
66.176675333579723
 23
1013.530854340309
 33
0.0
  0
LINE
  5
25F
  8
DIM
 10
66.176675333579723
 20
987.8281476480214
 30
0.0
 11
66.176675333579723
 21
1015.530854340309
 31
0.0
  0
SOLID
  5
260
  8
DIM
 10
55.176675333579738
 20
1014.530854340309
 30
0.0
 11
55.176675333579738
 21
1012.530854340309
 31
0.0
 12
61.17667533357973
 22
1013.530854340309
 32
0.0
 13
61.17667533357973
 23
1013.530854340309
 33
0.0
  0
LINE
  5
261
  8
DIM
 10
110.0264647515444
 20
1052.730854340309
 30
0.0
 11
29.176675333579741
 21
1052.730854340309
 31
0.0
  0
TEXT
  5
262
  8
BORT
 10
3674.2053124994341
 20
125.2736769577163
 30
0.0
 40
5.0
  1

 72
     4
 11
3674.2053124994341
 21
125.2736769577163
 31
0.0
  0
ARC
  5
263
  8
DRG
 10
130.1766753335788
 20
972.23085434030907
 30
0.0
 40
3.0
 50
180.0
 51
270.0
  0
ARC
  5
264
  8
DRG
 10
130.1766753335788
 20
958.23085434030918
 30
0.0
 40
3.0
 50
90.0
 51
179.99999999999989
  0
LINE
  5
265
  8
DRG
 10
166.92667533358011
 20
969.23085434030918
 30
0.0
 11
130.1766753335788
 21
969.23085434030918
 31
0.0
  0
LINE
  5
266
  8
DRG
 10
166.92667533357971
 20
961.23085434030895
 30
0.0
 11
130.1766753335788
 21
961.23085434030907
 31
0.0
  0
ARC
  5
267
  8
DRG
 10
166.92667533358011
 20
972.23085434030907
 30
0.0
 40
3.0
 50
270.0
 51
359.99999999999869
  0
ARC
  5
268
  8
DRG
 10
166.92667533357971
 20
958.23085434030895
 30
0.0
 40
3.0
 50
359.99999999999869
 51
90.0
  0
LINE
  5
269
  8
DRG
 10
169.9266753335788
 20
915.23085434030918
 30
0.0
 11
128.6766753335788
 21
891.41515573623712
 31
0.0
  0
ARC
  5
26A
  8
DRG
 10
130.1766753335788
 20
888.81707952488375
 30
0.0
 40
3.0
 50
119.9999999999999
 51
180.0
  0
LINE
  5
26B
  8
DRG
 10
169.9266753335788
 20
1015.230854340309
 30
0.0
 11
128.6766753335788
 21
1039.0465529443809
 31
0.0
  0
ARC
  5
26C
  8
DRG
 10
130.1766753335788
 20
1041.644629155734
 30
0.0
 40
3.0
 50
180.0
 51
240.0
  0
TEXT
  5
26D
  8
DIM
 10
38.67667533357973
 20
945.23085434030907
 30
0.0
 40
5.0
  1
SEE TABLE
 50
90.0
 72
     4
 11
36.17667533357973
 21
965.23085434030918
 31
0.0
  0
LINE
  5
26E
  8
DIM
 10
108.1590060598509
 20
877.73085434030918
 30
0.0
 11
29.176675333579741
 21
877.73085434030918
 31
0.0
  0
TEXT
  5
26F
  8
DIM
 10
74.057481203185802
 20
1006.387997197452
 30
0.0
 40
5.0
  1
(0.20")
 72
     4
 11
86.676528822233408
 21
1008.530854340309
 31
0.0
  0
TEXT
  5
270
  8
DIM
 10
74.463354307893695
 20
923.37050564606329
 30
0.0
 40
5.0
  1
(0.20")
 72
     4
 11
87.082401926941316
 21
925.5133627889204
 31
0.0
  0
LINE
  5
271
  8
DIM
 10
123.1766753335783
 20
930.51336278892029
 30
0.0
 11
127.985795803749
 21
930.51336278892029
 31
0.0
  0
SOLID
  5
272
  8
DIM
 10
106.1766753335788
 20
931.5133627889204
 30
0.0
 11
106.1766753335788
 21
929.51336278892029
 31
0.0
 12
112.1766753335788
 22
930.51336278892029
 32
0.0
 13
112.1766753335788
 23
930.51336278892029
 33
0.0
  0
LINE
  5
273
  8
DIM
 10
106.1766753335788
 20
930.51336278892029
 30
0.0
 11
74.625425861963663
 21
930.51336278892029
 31
0.0
  0
SOLID
  5
274
  8
DIM
 10
123.1766753335783
 20
931.5133627889204
 30
0.0
 11
123.1766753335783
 21
929.51336278892029
 31
0.0
 12
117.1766753335783
 22
930.51336278892029
 32
0.0
 13
117.1766753335783
 23
930.51336278892029
 33
0.0
  0
TEXT
  5
275
  8
DIM
 10
85.415735260274644
 20
933.01336278892029
 30
0.0
 40
5.0
  1
5
 72
     1
 11
87.082401926941316
 21
935.5133627889204
 31
0.0
 73
     2
  0
LINE
  5
276
  8
DIM
 10
182.17667533358059
 20
1082.730854340309
 30
0.0
 11
112.1766753335788
 21
1082.730854340309
 31
0.0
  0
SOLID
  5
277
  8
DIM
 10
118.1766753335788
 20
1083.730854340309
 30
0.0
 11
118.1766753335788
 21
1081.730854340309
 31
0.0
 12
112.1766753335788
 22
1082.730854340309
 32
0.0
 13
112.1766753335788
 23
1082.730854340309
 33
0.0
  0
LINE
  5
278
  8
DIM
 10
182.17667533358059
 20
1020.137219066548
 30
0.0
 11
182.17667533358059
 21
1084.6710342224519
 31
0.0
  0
TEXT
  5
279
  8
DIM
 10
134.55762771453209
 20
1074.157762387189
 30
0.0
 40
5.0
  1
(2.76")
 72
     4
 11
147.17667533357971
 21
1076.3006195300461
 31
0.0
  0
TEXT
  5
27A
  8
DIM
 10
143.1290562859607
 20
1085.230854340309
 30
0.0
 40
5.0
  1
70
 72
     4
 11
147.17667533357971
 21
1087.730854340309
 31
0.0
  0
SOLID
  5
27B
  8
DIM
 10
176.17667533358059
 20
1083.730854340309
 30
0.0
 11
176.17667533358059
 21
1081.730854340309
 31
0.0
 12
182.17667533358059
 22
1082.7308543403101
 32
0.0
 13
182.17667533358059
 23
1082.7308543403101
 33
0.0
  0
TEXT
  5
27C
  8
BORT
 10
3693.2608389307388
 20
125.26247417084861
 30
0.0
 40
5.0
  1

 72
     4
 11
3693.2608389307388
 21
125.26247417084861
 31
0.0
  0
LINE
  5
27D
  8
DRG
 10
201.1766753335796
 20
1021.230854340309
 30
0.0
 11
201.1766753335796
 21
889.28592190581662
 31
0.0
  0
ARC
  5
27E
  8
DRG
 10
211.1766753335796
 20
1031.230854340309
 30
0.0
 40
10.0
 50
90.0
 51
180.0
  0
ARC
  5
27F
  8
DRG
 10
195.1766753335796
 20
1021.230854340309
 30
0.0
 40
6.0
 50
270.0
 51
0.0
  0
LINE
  5
280
  8
DRG
 10
201.1766753335796
 20
1031.230854340309
 30
0.0
 11
201.1766753335796
 21
1021.230854340309
 31
0.0
  0
LINE
  5
281
  8
DRG
 10
182.1766753335796
 20
1015.230854340309
 30
0.0
 11
195.1766753335796
 21
1015.230854340309
 31
0.0
  0
LINE
  5
282
  8
DRG
 10
211.1766753335796
 20
1041.230854340309
 30
0.0
 11
229.23679483517739
 21
1041.230854340309
 31
0.0
  0
LINE
  5
283
  8
DRG
 10
187.1766753335796
 20
909.23085434030895
 30
0.0
 11
187.1766753335796
 21
889.28592190581662
 31
0.0
  0
ARC
  5
284
  8
DRG
 10
181.1766753335796
 20
909.23085434030895
 30
0.0
 40
6.0
 50
0.0
 51
80.405931773139471
  0
ARC
  5
285
  8
DRG
 10
674.85252980737505
 20
415.70790118621107
 30
0.0
 40
47.62500000000005
 50
90.0
 51
270.0
  0
LINE
  5
286
  8
CRS
 10
616.47078707878995
 20
366.3164925203306
 30
0.0
 11
634.45145520419919
 21
366.3164925203306
 31
0.0
  0
LINE
  5
287
  8
CRS
 10
625.4611211414948
 20
357.32615845762598
 30
0.0
 11
625.4611211414948
 21
375.30682658303522
 31
0.0
  0
ARC
  5
288
  8
DRG2
 10
625.4611211414948
 20
465.09930985209189
 30
0.0
 40
7.9375
 50
61.708060096624394
 51
20.975312706940251
  0
CIRCLE
  5
289
  8
DRG2
 10
625.4611211414948
 20
465.09930985209189
 30
0.0
 40
6.8135500000000002
  0
ARC
  5
28A
  8
DRG2
 10
625.4611211414948
 20
366.3164925203306
 30
0.0
 40
7.9375
 50
61.708060096624394
 51
20.975312706940251
  0
CIRCLE
  5
28B
  8
DRG2
 10
625.4611211414948
 20
366.3164925203306
 30
0.0
 40
6.8135500000000002
  0
TEXT
  5
28C
  8
DIM
 10
734.69558407254715
 20
745.63981913043915
 30
0.0
 40
5.0
  1
(2.99")
 50
90.0
 72
     4
 11
732.55272692969015
 21
758.25886674948686
 31
0.0
  0
TEXT
  5
28D
  8
DIM
 10
734.69558407254715
 20
553.39745689687084
 30
0.0
 40
5.0
  1
(12.00")
 50
90.0
 72
     4
 11
732.55272692969015
 21
567.92126642068035
 31
0.0
  0
TEXT
  5
28E
  8
DIM
 10
544.49410870811539
 20
463.77392117752032
 30
0.0
 40
5.0
  1
%%c166
 50
359.99999999999881
 72
     4
 11
552.58934680335358
 21
466.27392117752021
 31
0.0
  0
LINE
  5
28F
  8
DIM
 10
571.68602776020225
 20
460.10317367875791
 30
0.0
 11
536.65199264124817
 21
460.10317367875842
 31
0.0
  0
TEXT
  5
290
  8
DIM
 10
537.70839442240106
 20
451.78956903713919
 30
0.0
 40
5.0
  1
(%%c6.54")
 50
359.99999999999932
 72
     4
 11
552.58934680335335
 21
453.93242617999618
 31
0.0
  0
TEXT
  5
291
  8
DIM
 10
590.78810769551637
 20
213.56504404335411
 30
0.0
 40
5.0
  1
(%%c12.99")
 72
     4
 11
607.57382198123082
 21
215.70790118621119
 31
0.0
  0
TEXT
  5
292
  8
DIM
 10
360.02192641338291
 20
252.35142566239989
 30
0.0
 40
5.0
  1

  0
TEXT
  5
293
  8
DIM
 10
255.416510013427
 20
183.56504404335419
 30
0.0
 40
5.0
  1
(4.69")
 72
     4
 11
268.03555763247471
 21
185.70790118621139
 31
0.0
  0
TEXT
  5
294
  8
DIM
 10
335.481952268773
 20
183.56504404335419
 30
0.0
 40
5.0
  1
(0.16")
 72
     4
 11
347.62480941163011
 21
185.7079011862113
 31
0.0
  0
TEXT
  5
295
  8
DIM
 10
274.7763168793349
 20
213.56504404335411
 30
0.0
 40
5.0
  1
(3.07")
 72
     4
 11
287.39536449838238
 21
215.7079011862113
 31
0.0
  0
TEXT
  5
296
  8
DIM
 10
270.12631687933481
 20
423.57347721109068
 30
0.0
 40
5.0
  1
(2.88")
 72
     4
 11
282.74536449838229
 21
425.71633435394779
 31
0.0
  0
TEXT
  5
297
  8
DIM
 10
331.94889900387142
 20
602.72216616977664
 30
0.0
 40
5.0
  1
(0.16")
 72
     4
 11
344.09175614672853
 21
604.86502331263375
 31
0.0
  0
TEXT
  5
298
  8
DIM
 10
326.72246283405218
 20
634.03996775652718
 30
0.0
 40
5.0
  1
(0.39")
 72
     4
 11
339.34151045309989
 21
636.1828248993844
 31
0.0
  0
TEXT
  5
299
  8
DIM
 10
255.11600989201821
 20
838.29283649870672
 30
0.0
 40
5.0
  1
(4.49")
 72
     4
 11
267.7350575110658
 21
840.43569364156394
 31
0.0
  0
TEXT
  5
29A
  8
DIM
 10
136.888816879335
 20
838.29283649870672
 30
0.0
 40
5.0
  1
(4.76")
 72
     4
 11
149.50786449838259
 21
840.43569364156394
 31
0.0
  0
TEXT
  5
29B
  8
DIM
 10
55.267794334211182
 20
803.30244756434774
 30
0.0
 40
5.0
  1
(0.20")
 72
     4
 11
67.886841953258795
 21
805.44530470720485
 31
0.0
  0
TEXT
  5
29C
  8
DIM
 10
168.17989050888889
 20
803.30244756434774
 30
0.0
 40
5.0
  1
(0.32")
 72
     4
 11
180.79893812793659
 21
805.44530470720485
 31
0.0
  0
TEXT
  5
29D
  8
DIM
 10
274.22989050888913
 20
803.30244756434774
 30
0.0
 40
5.0
  1
(0.63")
 72
     4
 11
286.84893812793672
 21
805.44530470720485
 31
0.0
  0
TEXT
  5
29E
  8
DIM
 10
145.37067002553539
 20
783.399721730897
 30
0.0
 40
5.0
  1
8x7x40
 72
     4
 11
158.22781288267831
 21
785.89972173089711
 31
0.0
  0
TEXT
  5
29F
  8
DIM
 10
122.2754319302973
 20
775.18543601661145
 30
0.0
 40
5.0
  1
(0.31"x0.28"x1.57")
 72
     4
 11
158.22781288267831
 21
777.32829315946856
 31
0.0
  0
TEXT
  5
2A0
  8
DIM
 10
151.56114621601159
 20
766.25686458804
 30
0.0
 40
5.0
  1
KEY
 72
     4
 11
158.22781288267831
 21
768.75686458804
 31
0.0
  0
LINE
  5
2A1
  8
DIM
 10
120.19992596750539
 20
777.32829315946856
 30
0.0
 11
116.3569245513998
 21
777.32829315946856
 31
0.0
  0
TEXT
  5
2A2
  8
DIM
 10
117.6332155144524
 20
385.23171071002071
 30
0.0
 40
5.0
  1
B.S.P. OR N.P.T.
 50
90.0
 72
     4
 11
115.1332155144524
 21
415.70790118621119
 31
0.0
  0
LINE
  5
2A3
  8
DRG2
 10
723.9643067195226
 20
118.3256249968165
 30
0.0
 11
723.9643067195226
 21
203.32562499681649
 31
0.0
  0
LINE
  5
2A4
  8
DRG2
 10
423.96430671952299
 20
118.3256249968162
 30
0.0
 11
423.96430671952282
 21
203.3256249968162
 31
0.0
  0
TEXT
  5
2A5
  8
TXT
 10
485.75002100523727
 20
150.68276785395909
 30
0.0
 40
5.0
  1
(%%c3.935" -0.002") 
 72
     4
 11
523.96430671952305
 21
152.8256249968162
 31
0.0
  0
TEXT
  5
2A6
  8
TXT
 10
485.75002100523727
 20
124.18276785395911
 30
0.0
 40
5.0
  1
(%%c3.749" -0.004") 
 72
     4
 11
523.96430671952305
 21
126.3256249968162
 31
0.0
  0
TEXT
  5
2A7
  8
TXT
 10
498.01192576714209
 20
160.8256249968162
 30
0.0
 40
5.0
  1
%%c99.95 -0.05
 72
     4
 11
523.96430671952305
 21
163.3256249968162
 31
0.0
  0
TEXT
  5
2A8
  8
TXT
 10
502.29764005285631
 20
176.8256249968162
 30
0.0
 40
5.0
  1
SPIGOT DIA.
 72
     4
 11
523.96430671952305
 21
179.3256249968162
 31
0.0
  0
TEXT
  5
2A9
  8
TXT
 10
498.48811624333263
 20
134.3256249968162
 30
0.0
 40
5.0
  1
%%c95.22 -0.10
 72
     4
 11
523.96430671952305
 21
136.8256249968162
 31
0.0
  0
LINE
  5
2AA
  8
DRG2
 10
423.96430671952282
 20
187.3256249968162
 30
0.0
 11
723.9643067195226
 21
187.3256249968162
 31
0.0
  0
LINE
  5
2AB
  8
DRG2
 10
423.96430671952282
 20
171.3256249968162
 30
0.0
 11
723.9643067195226
 21
171.3256249968162
 31
0.0
  0
LINE
  5
2AC
  8
DRG2
 10
423.96430671952282
 20
118.3256249968162
 30
0.0
 11
723.9643067195226
 21
118.3256249968162
 31
0.0
  0
LINE
  5
2AD
  8
DRG2
 10
423.96430671952282
 20
144.8256249968162
 30
0.0
 11
723.9643067195226
 21
144.8256249968162
 31
0.0
  0
TEXT
  5
2AE
  8
TXT
 10
440.51192576714209
 20
129.0756249968162
 30
0.0
 40
5.0
  1
FA14
 72
     4
 11
448.96430671952299
 21
131.5756249968162
 31
0.0
  0
TEXT
  5
2AF
  8
TXT
 10
434.91668767190379
 20
155.5756249968162
 30
0.0
 40
5.0
  1
ISO F14
 72
     4
 11
448.96430671952282
 21
158.0756249968162
 31
0.0
  0
LINE
  5
2B0
  8
DRG2
 10
473.96430671952299
 20
118.3256249968163
 30
0.0
 11
473.96430671952282
 21
187.3256249968162
 31
0.0
  0
TEXT
  5
2B1
  8
TXT
 10
602.77383052904645
 20
150.68276785395909
 30
0.0
 40
5.0
  1
ON %%c140.0 (%%c5.51") P.C.
 72
     4
 11
648.9643067195226
 21
152.8256249968162
 31
0.0
  0
TEXT
  5
2B2
  8
TXT
 10
602.29764005285585
 20
124.18276785395911
 30
0.0
 40
5.0
  1
ON %%c139.7 (%%c5.50") P.C.
 72
     4
 11
648.9643067195226
 21
126.3256249968162
 31
0.0
  0
TEXT
  5
2B3
  8
TXT
 10
589.55954481476067
 20
161.18276785395909
 30
0.0
 40
5.0
  1
4 HOLES M16x20 (0.79") DEEP
 72
     4
 11
648.9643067195226
 21
163.3256249968162
 31
0.0
  0
TEXT
  5
2B4
  8
TXT
 10
579.79764005285585
 20
134.68276785395909
 30
0.0
 40
5.0
  1
4 HOLES 5/8"UNCx20 (0.79") DEEP
 72
     4
 11
648.9643067195226
 21
136.8256249968162
 31
0.0
  0
TEXT
  5
2B5
  8
TXT
 10
583.72621148142719
 20
177.18276785395909
 30
0.0
 40
5.0
  1
HOLE DETAILS (45%%d OFF CENTRES)
 72
     4
 11
648.9643067195226
 21
179.3256249968162
 31
0.0
  0
LINE
  5
2B6
  8
DRG2
 10
573.96430671952305
 20
118.3256249968163
 30
0.0
 11
573.96430671952305
 21
187.3256249968162
 31
0.0
  0
LINE
  5
2B7
  8
DRG2
 10
423.96430671952282
 20
203.3256249968162
 30
0.0
 11
723.9643067195226
 21
203.3256249968162
 31
0.0
  0
TEXT
  5
2B8
  8
TXT
 10
536.2262114814273
 20
192.8256249968162
 30
0.0
 40
5.0
  1
BASEPLATE DETAILS
 72
     4
 11
573.9643067195226
 21
195.3256249968162
 31
0.0
  0
LINE
  5
2B9
  8
DRG2
 10
240.0
 20
944.86265407660312
 30
0.0
 11
759.99999999999977
 21
944.86265407660346
 31
0.0
  0
LINE
  5
2BA
  8
DRG2
 10
240.0
 20
971.36265407660323
 30
0.0
 11
759.99999999999977
 21
971.36265407660335
 31
0.0
  0
LINE
  5
2BB
  8
DRG2
 10
240.0
 20
918.36265407660335
 30
0.0
 11
759.99999999999977
 21
918.36265407660335
 31
0.0
  0
LINE
  5
2BC
  8
DRG2
 10
240.0
 20
971.36265407660323
 30
0.0
 11
759.99999999999977
 21
971.36265407660335
 31
0.0
  0
LINE
  5
2BD
  8
DRG2
 10
240.0
 20
1024.362654076602
 30
0.0
 11
759.99999999999977
 21
1024.3626540766029
 31
0.0
  0
LINE
  5
2BE
  8
DRG2
 10
240.0
 20
997.86265407660289
 30
0.0
 11
759.99999999999977
 21
997.86265407660335
 31
0.0
  0
LINE
  5
2BF
  8
DRG2
 10
240.0
 20
1050.862654076602
 30
0.0
 11
759.99999999999977
 21
1050.8626540766029
 31
0.0
  0
TEXT
  5
2C0
  8
TXT
 10
389.04761904761909
 20
960.86265407660323
 30
0.0
 40
5.0
  1
%%c30.00 -0.05
 72
     4
 11
415.00000000000011
 21
963.36265407660323
 31
0.0
  0
TEXT
  5
2C1
  8
TXT
 10
389.04761904761909
 20
1013.862654076602
 30
0.0
 40
5.0
  1
%%c20.00 -0.05
 72
     4
 11
415.00000000000011
 21
1016.362654076603
 31
0.0
  0
TEXT
  5
2C2
  8
TXT
 10
389.04761904761909
 20
987.36265407660301
 30
0.0
 40
5.0
  1
%%c20.00 -0.05
 72
     4
 11
415.00000000000011
 21
989.86265407660312
 31
0.0
  0
TEXT
  5
2C3
  8
TXT
 10
381.30952380952391
 20
950.71979693374612
 30
0.0
 40
5.0
  1
(%%c1.181" -0.002")
 72
     4
 11
415.00000000000011
 21
952.86265407660312
 31
0.0
  0
TEXT
  5
2C4
  8
TXT
 10
379.88095238095241
 20
1003.719796933745
 30
0.0
 40
5.0
  1
(%%c0.787" -0.002")
 72
     4
 11
415.00000000000011
 21
1005.862654076602
 31
0.0
  0
TEXT
  5
2C5
  8
TXT
 10
379.88095238095241
 20
977.21979693374601
 30
0.0
 40
5.0
  1
(%%c0.787" -0.002")
 72
     4
 11
415.00000000000011
 21
979.36265407660301
 31
0.0
  0
TEXT
  5
2C6
  8
TXT
 10
381.30952380952391
 20
924.21979693374601
 30
0.0
 40
5.0
  1
(%%c1.181" -0.002")
 72
     4
 11
415.00000000000011
 21
926.36265407660335
 31
0.0
  0
TEXT
  5
2C7
  8
TXT
 10
389.04761904761909
 20
934.36265407660335
 30
0.0
 40
5.0
  1
%%c30.00 -0.05
 72
     4
 11
415.00000000000011
 21
936.86265407660312
 31
0.0
  0
LINE
  5
2C8
  8
DRG2
 10
370.00000000000011
 20
918.36265407660335
 30
0.0
 11
370.0
 21
1050.862654076602
 31
0.0
  0
LINE
  5
2C9
  8
DRG2
 10
240.0
 20
918.36265407660335
 30
0.0
 11
240.0
 21
1066.862654076602
 31
0.0
  0
LINE
  5
2CA
  8
DRG2
 10
290.0
 20
918.36265407660335
 30
0.0
 11
290.0
 21
1050.862654076602
 31
0.0
  0
TEXT
  5
2CB
  8
TXT
 10
303.92857142857139
 20
934.71979693374612
 30
0.0
 40
5.0
  1
%%c175 (%%c6.89")
 72
     4
 11
330.0
 21
936.86265407660312
 31
0.0
  0
TEXT
  5
2CC
  8
TXT
 10
256.54761904761898
 20
929.11265407660335
 30
0.0
 40
5.0
  1
FA14
 72
     4
 11
265.0
 21
931.61265407660335
 31
0.0
  0
TEXT
  5
2CD
  8
TXT
 10
306.54761904761898
 20
924.21979693374601
 30
0.0
 40
5.0
  1
x 15 (0.59")
 72
     4
 11
330.0
 21
926.36265407660335
 31
0.0
  0
TEXT
  5
2CE
  8
TXT
 10
302.02380952380952
 20
1040.7197969337451
 30
0.0
 40
5.0
  1
FLANGE O/DIA.
 72
     4
 11
330.0
 21
1042.862654076602
 31
0.0
  0
TEXT
  5
2CF
  8
TXT
 10
256.66666666666657
 20
982.11265407660301
 30
0.0
 40
5.0
  1
FA10
 72
     4
 11
265.0
 21
984.61265407660301
 31
0.0
  0
TEXT
  5
2D0
  8
TXT
 10
251.0714285714285
 20
1008.612654076602
 30
0.0
 40
5.0
  1
ISO F10
 72
     4
 11
265.0
 21
1011.112654076603
 31
0.0
  0
TEXT
  5
2D1
  8
TXT
 10
250.95238095238091
 20
955.61265407660312
 30
0.0
 40
5.0
  1
ISO F14
 72
     4
 11
265.0
 21
958.11265407660323
 31
0.0
  0
TEXT
  5
2D2
  8
TXT
 10
306.54761904761898
 20
977.21979693374601
 30
0.0
 40
5.0
  1
x 10 (0.39")
 72
     4
 11
330.0
 21
979.36265407660301
 31
0.0
  0
TEXT
  5
2D3
  8
TXT
 10
306.54761904761898
 20
950.71979693374612
 30
0.0
 40
5.0
  1
x 15 (0.59")
 72
     4
 11
330.0
 21
952.86265407660312
 31
0.0
  0
TEXT
  5
2D4
  8
TXT
 10
303.92857142857139
 20
961.21979693374612
 30
0.0
 40
5.0
  1
%%c175 (%%c6.89")
 72
     4
 11
330.0
 21
963.36265407660323
 31
0.0
  0
TEXT
  5
2D5
  8
TXT
 10
303.92857142857139
 20
1014.219796933746
 30
0.0
 40
5.0
  1
%%c125 (%%c4.92")
 72
     4
 11
330.0
 21
1016.362654076603
 31
0.0
  0
TEXT
  5
2D6
  8
TXT
 10
303.92857142857139
 20
987.71979693374601
 30
0.0
 40
5.0
  1
%%c125 (%%c4.92")
 72
     4
 11
330.0
 21
989.86265407660312
 31
0.0
  0
TEXT
  5
2D7
  8
TXT
 10
306.54761904761898
 20
1003.719796933745
 30
0.0
 40
5.0
  1
x 10 (0.39")
 72
     4
 11
330.0
 21
1005.862654076602
 31
0.0
  0
TEXT
  5
2D8
  8
TXT
 10
305.0
 20
1029.862654076602
 30
0.0
 40
5.0
  1
& THICKNESS
 72
     4
 11
330.0
 21
1032.362654076602
 31
0.0
  0
TEXT
  5
2D9
  8
TXT
 10
702.142857142857
 20
934.36265407660335
 30
0.0
 40
5.0
  1
8x7x40
 72
     4
 11
714.99999999999977
 21
936.86265407660312
 31
0.0
  0
LINE
  5
2DA
  8
DRG2
 10
670.00000000000034
 20
918.36265407660335
 30
0.0
 11
670.00000000000034
 21
1050.862654076602
 31
0.0
  0
LINE
  5
2DB
  8
DRG2
 10
550.00000000000034
 20
918.36265407660335
 30
0.0
 11
549.99999999999989
 21
1050.862654076602
 31
0.0
  0
TEXT
  5
2DC
  8
TXT
 10
563.92857142857167
 20
934.71979693374612
 30
0.0
 40
5.0
  1
4 HOLES %%c16.5 (%%c0.65")
 72
     4
 11
610.00000000000034
 21
936.86265407660312
 31
0.0
  0
LINE
  5
2DD
  8
DRG2
 10
459.99999999999977
 20
918.36265407660335
 30
0.0
 11
459.99999999999977
 21
1050.8626540766029
 31
0.0
  0
TEXT
  5
2DE
  8
TXT
 10
479.04761904761892
 20
934.36265407660335
 30
0.0
 40
5.0
  1
%%c95.27 +0.05
 72
     4
 11
504.99999999999977
 21
936.86265407660312
 31
0.0
  0
TEXT
  5
2DF
  8
TXT
 10
467.26190476190459
 20
924.21979693374601
 30
0.0
 40
5.0
  1
(%%c3.751" +0.002") 
 72
     4
 11
504.99999999999977
 21
926.36265407660335
 31
0.0
  0
TEXT
  5
2E0
  8
TXT
 10
563.80952380952419
 20
924.21979693374601
 30
0.0
 40
5.0
  1
ON %%c140.0 (%%c5.51") P.C.
 72
     4
 11
610.00000000000034
 21
926.36265407660335
 31
0.0
  0
TEXT
  5
2E1
  8
TXT
 10
679.04761904761892
 20
924.21979693374601
 30
0.0
 40
5.0
  1
(0.31"x0.28"x1.57")
 72
     4
 11
714.99999999999977
 21
926.36265407660335
 31
0.0
  0
TEXT
  5
2E2
  8
TXT
 10
456.30952380952368
 20
1056.362654076602
 30
0.0
 40
5.0
  1
INPUT FLANGE DETAILS
 72
     4
 11
499.99999999999989
 21
1058.862654076602
 31
0.0
  0
TEXT
  5
2E3
  8
TXT
 10
403.57142857142861
 20
1040.362654076602
 30
0.0
 40
5.0
  1
SHAFT
 72
     4
 11
415.00000000000011
 21
1042.862654076602
 31
0.0
  0
TEXT
  5
2E4
  8
TXT
 10
408.6904761904762
 20
1029.862654076602
 30
0.0
 40
5.0
  1
DIA.
 72
     4
 11
415.00000000000011
 21
1032.362654076602
 31
0.0
  0
TEXT
  5
2E5
  8
TXT
 10
466.78571428571411
 20
950.71979693374612
 30
0.0
 40
5.0
  1
(%%c3.939" +0.002") 
 72
     4
 11
504.99999999999977
 21
952.86265407660312
 31
0.0
  0
TEXT
  5
2E6
  8
TXT
 10
477.142857142857
 20
960.86265407660323
 30
0.0
 40
5.0
  1
%%c100.05 +0.05
 72
     4
 11
504.99999999999977
 21
963.36265407660323
 31
0.0
  0
TEXT
  5
2E7
  8
TXT
 10
479.04761904761892
 20
987.36265407660301
 30
0.0
 40
5.0
  1
%%c58.75 +0.05
 72
     4
 11
504.99999999999977
 21
989.86265407660312
 31
0.0
  0
TEXT
  5
2E8
  8
TXT
 10
479.04761904761892
 20
1013.862654076602
 30
0.0
 40
5.0
  1
%%c70.05 +0.05
 72
     4
 11
504.99999999999977
 21
1016.362654076603
 31
0.0
  0
TEXT
  5
2E9
  8
TXT
 10
467.26190476190459
 20
977.21979693374601
 30
0.0
 40
5.0
  1
(%%c2.313" +0.002") 
 72
     4
 11
504.99999999999977
 21
979.36265407660301
 31
0.0
  0
TEXT
  5
2EA
  8
TXT
 10
466.78571428571411
 20
1003.719796933745
 30
0.0
 40
5.0
  1
(%%c2.758" +0.002") 
 72
     4
 11
504.99999999999977
 21
1005.862654076602
 31
0.0
  0
TEXT
  5
2EB
  8
TXT
 10
498.69047619047598
 20
1029.862654076602
 30
0.0
 40
5.0
  1
DIA.
 72
     4
 11
504.99999999999977
 21
1032.362654076602
 31
0.0
  0
TEXT
  5
2EC
  8
TXT
 10
491.42857142857127
 20
1040.362654076602
 30
0.0
 40
5.0
  1
RECESS
 72
     4
 11
504.99999999999977
 21
1042.862654076602
 31
0.0
  0
TEXT
  5
2ED
  8
TXT
 10
563.80952380952419
 20
950.71979693374612
 30
0.0
 40
5.0
  1
ON %%c140.0 (%%c5.51") P.C.
 72
     4
 11
610.00000000000034
 21
952.86265407660312
 31
0.0
  0
TEXT
  5
2EE
  8
TXT
 10
563.92857142857167
 20
961.21979693374612
 30
0.0
 40
5.0
  1
4 HOLES %%c16.5 (%%c0.65")
 72
     4
 11
610.00000000000034
 21
963.36265407660323
 31
0.0
  0
TEXT
  5
2EF
  8
TXT
 10
563.33333333333371
 20
977.21979693374601
 30
0.0
 40
5.0
  1
ON %%c102.0 (%%c4.02") P.C.
 72
     4
 11
610.00000000000034
 21
979.36265407660301
 31
0.0
  0
TEXT
  5
2F0
  8
TXT
 10
563.33333333333371
 20
1003.719796933745
 30
0.0
 40
5.0
  1
ON %%c102.0 (%%c4.02") P.C.
 72
     4
 11
610.00000000000034
 21
1005.862654076602
 31
0.0
  0
TEXT
  5
2F1
  8
TXT
 10
564.40476190476215
 20
987.71979693374601
 30
0.0
 40
5.0
  1
4 HOLES %%c10.5 (%%c0.41")
 72
     4
 11
610.00000000000034
 21
989.86265407660312
 31
0.0
  0
TEXT
  5
2F2
  8
TXT
 10
564.40476190476215
 20
1014.219796933746
 30
0.0
 40
5.0
  1
4 HOLES %%c10.5 (%%c0.41")
 72
     4
 11
610.00000000000034
 21
1016.362654076603
 31
0.0
  0
TEXT
  5
2F3
  8
TXT
 10
584.04761904761926
 20
1040.362654076602
 30
0.0
 40
5.0
  1
HOLE DETAILS
 72
     4
 11
610.00000000000034
 21
1042.862654076602
 31
0.0
  0
TEXT
  5
2F4
  8
TXT
 10
573.69047619047649
 20
1030.2197969337451
 30
0.0
 40
5.0
  1
(45%%d OFF CENTRES)
 72
     4
 11
610.00000000000034
 21
1032.362654076602
 31
0.0
  0
TEXT
  5
2F5
  8
TXT
 10
702.142857142857
 20
987.36265407660301
 30
0.0
 40
5.0
  1
6x6x40
 72
     4
 11
714.99999999999977
 21
989.86265407660312
 31
0.0
  0
TEXT
  5
2F6
  8
TXT
 10
702.142857142857
 20
1013.862654076602
 30
0.0
 40
5.0
  1
6x6x40
 72
     4
 11
714.99999999999977
 21
1016.362654076603
 31
0.0
  0
TEXT
  5
2F7
  8
TXT
 10
702.142857142857
 20
960.86265407660323
 30
0.0
 40
5.0
  1
8x7x40
 72
     4
 11
714.99999999999977
 21
963.36265407660323
 31
0.0
  0
TEXT
  5
2F8
  8
TXT
 10
679.04761904761892
 20
950.71979693374612
 30
0.0
 40
5.0
  1
(0.31"x0.28"x1.57")
 72
     4
 11
714.99999999999977
 21
952.86265407660312
 31
0.0
  0
TEXT
  5
2F9
  8
TXT
 10
678.57142857142844
 20
977.21979693374601
 30
0.0
 40
5.0
  1
(0.24"x0.24"x1.57")
 72
     4
 11
714.99999999999977
 21
979.36265407660301
 31
0.0
  0
TEXT
  5
2FA
  8
TXT
 10
678.57142857142844
 20
1003.719796933745
 30
0.0
 40
5.0
  1
(0.24"x0.24"x1.57")
 72
     4
 11
714.99999999999977
 21
1005.862654076602
 31
0.0
  0
TEXT
  5
2FB
  8
TXT
 10
700.83333333333337
 20
1029.862654076602
 30
0.0
 40
5.0
  1
DETAILS
 72
     4
 11
715.00000000000011
 21
1032.362654076602
 31
0.0
  0
TEXT
  5
2FC
  8
TXT
 10
708.33333333333337
 20
1040.362654076602
 30
0.0
 40
5.0
  1
KEY
 72
     4
 11
715.00000000000011
 21
1042.862654076602
 31
0.0
  0
LINE
  5
2FD
  8
DRG2
 10
760.00000000000011
 20
918.36265407660335
 30
0.0
 11
759.99999999999977
 21
1066.8626540766029
 31
0.0
  0
LINE
  5
2FE
  8
DRG2
 10
240.0
 20
1066.862654076602
 30
0.0
 11
759.99999999999977
 21
1066.8626540766029
 31
0.0
  0
LINE
  5
2FF
  8
DIM
 10
61.17667533357973
 20
983.73085434030907
 30
0.0
 11
61.17667533357973
 21
1050.032692795887
 31
0.0
  0
LINE
  5
300
  8
DIM
 10
106.1766753335788
 20
1082.730854340309
 30
0.0
 11
67.176675333579738
 21
1082.730854340309
 31
0.0
  0
SOLID
  5
301
  8
DIM
 10
106.1766753335788
 20
1083.730854340309
 30
0.0
 11
106.1766753335788
 21
1081.730854340309
 31
0.0
 12
112.1766753335788
 22
1082.730854340309
 32
0.0
 13
112.1766753335788
 23
1082.730854340309
 33
0.0
  0
SOLID
  5
302
  8
DIM
 10
67.176675333579738
 20
1083.730854340309
 30
0.0
 11
67.176675333579738
 21
1081.730854340309
 31
0.0
 12
61.17667533357973
 22
1082.730854340309
 32
0.0
 13
61.17667533357973
 23
1082.730854340309
 33
0.0
  0
TEXT
  5
303
  8
DIM
 10
83.700484857388801
 20
1085.230854340309
 30
0.0
 40
5.0
  1
51
 72
     4
 11
86.676675333579283
 21
1087.730854340309
 31
0.0
  0
TEXT
  5
304
  8
DIM
 10
74.533818190722144
 20
1075.5879971974521
 30
0.0
 40
5.0
  1
(2.01")
 72
     4
 11
86.676675333579283
 21
1077.730854340309
 31
0.0
  0
LINE
  5
305
  8
DIM
 10
61.17667533357973
 20
1054.775298983531
 30
0.0
 11
61.17667533357973
 21
1084.730854340309
 31
0.0
  0
INSERT
  5
500
  8
0
  2
ROTORK_GEARS_LOGO
 10
12.63442892758945
 20
14.689831814271329
 30
0.0
 41
0.70000000000001
 42
0.70000000000001
 43
0.7000000000000001
  0
VIEWPORT
  5
31
 67
     1
  8
0
 10
210.00000022409631
 20
152.0942409999999
 30
0.0
 40
420.00000044819268
 41
304.18848199999991
 68
     1
 69
     1
1001
ACAD
1000
MVIEW
1002
{
1070
    16
1010
0.0
1020
0.0
1030
0.0
1010
0.0
1020
0.0
1030
1.0
1040
0.0
1040
304.18848199999991
1040
210.00000022409631
1040
152.0942409999999
1040
50.0
1040
0.0
1040
0.0
1070
     0
1070
  2000
1070
     1
1070
     1
1070
     1
1070
     0
1070
     0
1070
     1
1040
0.0
1040
0.0
1040
0.0
1040
5.0
1040
5.0
1040
10.0
1040
10.0
1070
     0
1002
{
1002
}
1002
}
  0
ENDSEC
  0
EOF
