  0
SECTION
  2
HEADER
  9
$ACADVER
  1
AC1009
  9
$INSBASE
 10
0.0
 20
0.0
 30
0.0
  9
$EXTMIN
 10
10.0
 20
44.863156254609173
 30
0.0
  9
$EXTMAX
 10
760.0
 20
1092.502108235811
 30
1.8
  9
$LIMMIN
 10
0.0
 20
0.0
  9
$LIMMAX
 10
840.0
 20
1188.0
  9
$ORTHOMODE
 70
     1
  9
$REGENMODE
 70
     1
  9
$FILLMODE
 70
     1
  9
$QTEXTMODE
 70
     0
  9
$MIRRTEXT
 70
     0
  9
$DRAGMODE
 70
     2
  9
$LTSCALE
 40
0.5
  9
$OSMODE
 70
    47
  9
$ATTMODE
 70
     1
  9
$TEXTSIZE
 40
5.0
  9
$TRACEWID
 40
10.0
  9
$TEXTSTYLE
  7
STANDARD
  9
$CLAYER
  8
DIM
  9
$CELTYPE
  6
BYLAYER
  9
$CECOLOR
 62
   256
  9
$DIMSCALE
 40
1.0
  9
$DIMASZ
 40
6.0
  9
$DIMEXO
 40
5.0
  9
$DIMDLI
 40
10.0
  9
$DIMRND
 40
0.0
  9
$DIMDLE
 40
1.25
  9
$DIMEXE
 40
2.0
  9
$DIMTP
 40
0.0
  9
$DIMTM
 40
0.0
  9
$DIMTXT
 40
5.0
  9
$DIMCEN
 40
-3.0
  9
$DIMTSZ
 40
0.0
  9
$DIMTOL
 70
     0
  9
$DIMLIM
 70
     0
  9
$DIMTIH
 70
     0
  9
$DIMTOH
 70
     0
  9
$DIMSE1
 70
     0
  9
$DIMSE2
 70
     0
  9
$DIMTAD
 70
     1
  9
$DIMZIN
 70
     0
  9
$DIMBLK
  1

  9
$DIMASO
 70
     0
  9
$DIMSHO
 70
     0
  9
$DIMPOST
  1

  9
$DIMAPOST
  1

  9
$DIMALT
 70
     0
  9
$DIMALTD
 70
     2
  9
$DIMALTF
 40
0.039
  9
$DIMLFAC
 40
1.0
  9
$DIMTOFL
 70
     0
  9
$DIMTVP
 40
1.5
  9
$DIMTIX
 70
     0
  9
$DIMSOXD
 70
     0
  9
$DIMSAH
 70
     0
  9
$DIMBLK1
  1

  9
$DIMBLK2
  1

  9
$DIMSTYLE
  2
STD
  9
$DIMCLRD
 70
   256
  9
$DIMCLRE
 70
   256
  9
$DIMCLRT
 70
   256
  9
$DIMTFAC
 40
0.75
  9
$DIMGAP
 40
1.5
  9
$LUNITS
 70
     2
  9
$LUPREC
 70
     2
  9
$SKETCHINC
 40
1.0
  9
$FILLETRAD
 40
0.0
  9
$AUNITS
 70
     0
  9
$AUPREC
 70
     2
  9
$MENU
  1
ACAD
  9
$ELEVATION
 40
0.0
  9
$PELEVATION
 40
0.0
  9
$THICKNESS
 40
0.0
  9
$LIMCHECK
 70
     0
  9
$BLIPMODE
 70
     0
  9
$CHAMFERA
 40
0.0
  9
$CHAMFERB
 40
0.0
  9
$SKPOLY
 70
     1
  9
$TDCREATE
 40
2449637.4209231478
  9
$TDUPDATE
 40
2452817.4629014698
  9
$TDINDWG
 40
0.1974238773
  9
$TDUSRTIMER
 40
0.1974238773
  9
$USRTIMER
 70
     1
  9
$ANGBASE
 50
0.0
  9
$ANGDIR
 70
     0
  9
$PDMODE
 70
     3
  9
$PDSIZE
 40
0.0
  9
$PLINEWID
 40
0.0
  9
$COORDS
 70
     1
  9
$SPLFRAME
 70
     0
  9
$SPLINETYPE
 70
     6
  9
$SPLINESEGS
 70
     6
  9
$ATTDIA
 70
     0
  9
$ATTREQ
 70
     1
  9
$HANDLING
 70
  4097
  9
$HANDSEED
  5
798
  9
$SURFTAB1
 70
    18
  9
$SURFTAB2
 70
    18
  9
$SURFTYPE
 70
     6
  9
$SURFU
 70
    18
  9
$SURFV
 70
    18
  9
$UCSNAME
  2

  9
$UCSORG
 10
0.0
 20
0.0
 30
0.0
  9
$UCSXDIR
 10
1.0
 20
0.0
 30
0.0
  9
$UCSYDIR
 10
0.0
 20
1.0
 30
0.0
  9
$PUCSNAME
  2

  9
$PUCSORG
 10
0.0
 20
0.0
 30
0.0
  9
$PUCSXDIR
 10
1.0
 20
0.0
 30
0.0
  9
$PUCSYDIR
 10
0.0
 20
1.0
 30
0.0
  9
$USERI1
 70
     0
  9
$USERI2
 70
     0
  9
$USERI3
 70
     0
  9
$USERI4
 70
     0
  9
$USERI5
 70
     0
  9
$USERR1
 40
0.0
  9
$USERR2
 40
0.0
  9
$USERR3
 40
0.0
  9
$USERR4
 40
0.0
  9
$USERR5
 40
0.0
  9
$WORLDVIEW
 70
     0
  9
$SHADEDGE
 70
     3
  9
$SHADEDIF
 70
    70
  9
$TILEMODE
 70
     1
  9
$MAXACTVP
 70
    16
  9
$PLIMCHECK
 70
     0
  9
$PEXTMIN
 10
1.0000000000000000E+020
 20
1.0000000000000000E+020
 30
1.0000000000000000E+020
  9
$PEXTMAX
 10
-1.0000000000000000E+020
 20
-1.0000000000000000E+020
 30
-1.0000000000000000E+020
  9
$PLIMMIN
 10
0.0
 20
0.0
  9
$PLIMMAX
 10
420.0
 20
297.0
  9
$UNITMODE
 70
     0
  9
$VISRETAIN
 70
     0
  9
$PLINEGEN
 70
     0
  9
$PSLTSCALE
 70
     0
  0
ENDSEC
  0
SECTION
  2
TABLES
  0
TABLE
  2
VPORT
 70
     2
  0
VPORT
  2
*ACTIVE
 70
     0
 10
0.0
 20
0.0
 11
1.0
 21
1.0
 12
-432.69761450366792
 22
-149.3736338928548
 13
0.0
 23
0.0
 14
5.0
 24
5.0
 15
50.0
 25
50.0
 16
0.0
 26
0.0
 36
1.0
 17
1008.048097895308
 27
718.04053726415702
 37
0.0
 40
1055.9588874276019
 41
1.7512195121951211
 42
50.0
 43
0.0
 44
0.0
 50
0.0
 51
0.0
 71
     0
 72
  2000
 73
     1
 74
     2
 75
     0
 76
     0
 77
     0
 78
     1
  0
ENDTAB
  0
TABLE
  2
LTYPE
 70
    14
  0
LTYPE
  2
CONTINUOUS
 70
     0
  3
Solid line
 72
    65
 73
     0
 40
0.0
  0
LTYPE
  2
CENTER
 70
     0
  3
____ _ ____ _ ____ _ ____ _ ____ _ ____ _ ____ 
 72
    65
 73
     4
 40
50.0
 49
31.25
 49
-6.25
 49
6.25
 49
-6.25
  0
LTYPE
  2
HIDDEN
 70
     0
  3
_ _ _ _ _ _ _ _ _ _ _ _ _ _ _ _ _ _ _ _ _ _ _ _
 72
    65
 73
     2
 40
9.375
 49
6.25
 49
-3.125
  0
LTYPE
  2
CENTRE
 70
     0
  3
____ _ ____ _ ____ _ ____ _ ____ _ ____ _ ____ 
 72
    65
 73
     4
 40
50.0
 49
31.25
 49
-6.25
 49
6.25
 49
-6.25
  0
LTYPE
  2
PHANTOM2
 70
     0
  3
Phantom (.5x) ___ _ _ ___ _ _ ___ _ _ ___ _ _
 72
    65
 73
     6
 40
1.25
 49
0.625
 49
-0.125
 49
0.125
 49
-0.125
 49
0.125
 49
-0.125
  0
LTYPE
  2
ASULTYPE
 70
     0
  3
Solid line
 72
    65
 73
     2
 40
3.0
 49
2.5
 49
0.5
  0
LTYPE
  2
ASVLTYPE
 70
     0
  3
__ __ __ __ __ __ __ __ __ __ __ __ __ __ __ __ __ __ __ __ __
 72
    65
 73
     2
 40
0.75
 49
0.5
 49
-0.25
  0
LTYPE
  2
AM_ISO02W050
 70
     0
  3
__ __ __ __ __ __ __ __ __ __ __ __ __ __ __
 72
    65
 73
     2
 40
7.5
 49
6.0
 49
-1.5
  0
LTYPE
  2
AM_ISO08W050
 70
     0
  3
____ . ____ . ____ . ____ . ____ . ____ . ____
 72
    65
 73
     4
 40
18.0
 49
12.0
 49
-1.5
 49
3.0
 49
-1.5
  0
LTYPE
  2
AM_ISO09W050
 70
     0
  3
_____ . . _____ . . _____ . . ____ .. ____
 72
    65
 73
     6
 40
22.5
 49
12.0
 49
-1.5
 49
3.0
 49
-1.5
 49
3.0
 49
-1.5
  0
LTYPE
  2
AMCONSTR
 70
     0
  3
_______________________
 72
    65
 73
     2
 40
9999.0
 49
9999.0
 49
0.0
  0
LTYPE
  2
AM_ISO08W050X2
 70
     0
  3
__ . __ . __ . __ . __ . __
 72
    65
 73
     4
 40
9.0
 49
6.0
 49
-0.75
 49
1.5
 49
-0.75
  0
LTYPE
  2
AM_ISO02W050X2
 70
     0
  3
 _ _ _ _ _ _ _ _ _ _ _ _
 72
    65
 73
     2
 40
3.75
 49
3.0
 49
-0.75
  0
LTYPE
  2
AMZIGZAG
 70
     0
  3
/\/-/\/-/\/-/\/-/\/-/\/
 72
    65
 73
     2
 40
11.000099999999991
 49
0.0001
 49
-11.0
  0
ENDTAB
  0
TABLE
  2
LAYER
 70
    10
  0
LAYER
  2
0
 70
     0
 62
     7
  6
CONTINUOUS
  0
LAYER
  2
DRG
 70
     0
 62
     1
  6
CONTINUOUS
  0
LAYER
  2
CRS
 70
     0
 62
     3
  6
CENTER
  0
LAYER
  2
HID
 70
     0
 62
     6
  6
HIDDEN
  0
LAYER
  2
BORT
 70
     0
 62
     7
  6
CONTINUOUS
  0
LAYER
  2
TXT
 70
     0
 62
     4
  6
CONTINUOUS
  0
LAYER
  2
DIM
 70
     0
 62
     2
  6
CONTINUOUS
  0
LAYER
  2
DRG2
 70
     0
 62
     8
  6
CONTINUOUS
  0
LAYER
  2
BOR
 70
     0
 62
     1
  6
CONTINUOUS
  0
LAYER
  2
HATCH
 70
     0
 62
     7
  6
CONTINUOUS
  0
ENDTAB
  0
TABLE
  2
STYLE
 70
     2
  0
STYLE
  2
STANDARD
 70
     0
 40
0.0
 41
1.0
 50
0.0
 71
     0
 42
5.0
  3
SIMPLEX
  4

  0
STYLE
  2

 70
     1
 40
0.0
 41
1.0
 50
0.0
 71
     0
 42
5.0
  3
ltypeshp.shx
  4

  0
ENDTAB
  0
TABLE
  2
VIEW
 70
     0
  0
ENDTAB
  0
TABLE
  2
UCS
 70
     0
  0
ENDTAB
  0
TABLE
  2
APPID
 70
    12
  0
APPID
  2
ACAD
 70
     0
  0
APPID
  2
GENIUS_GENDIM_13
 70
     0
  0
APPID
  2
GENIUS_GENDTOL_13
 70
     0
  0
APPID
  2
GENIUS_GE3DTOL_13
 70
     0
  0
APPID
  2
MCAD_NO_VIS
 70
     0
  0
APPID
  2
ACAD_TEMP_GRAPHIC
 70
     0
  0
APPID
  2
AD_DRAW
 70
     0
  0
APPID
  2
ACATTRIBSERVICES
 70
     0
  0
APPID
  2
ASURF_PCURVE_APPNAME
 70
     0
  0
APPID
  2
DESIGNERASSEMBLIES
 70
     0
  0
APPID
  2
ACADM_DIM_EDIT
 70
     0
  0
APPID
  2
CONTENTBLOCKICON
 70
     0
  0
ENDTAB
  0
TABLE
  2
DIMSTYLE
 70
     1
  0
DIMSTYLE
  2
STD
 70
     0
  3

  4

  5

  6

  7

 40
1.0
 41
6.0
 42
5.0
 43
10.0
 44
2.0
 45
0.0
 46
1.25
 47
0.0
 48
0.0
140
5.0
141
-3.0
142
0.0
143
0.039
144
1.0
145
1.5
146
0.75
147
1.5
 71
     0
 72
     0
 73
     0
 74
     0
 75
     0
 76
     0
 77
     1
 78
     0
170
     0
171
     2
172
     0
173
     0
174
     0
175
     0
176
   256
177
   256
178
   256
  0
ENDTAB
  0
ENDSEC
  0
SECTION
  2
BLOCKS
  0
BLOCK
  8
0
  2
$MODEL_SPACE
 70
     0
 10
0.0
 20
0.0
 30
0.0
  3
$MODEL_SPACE
  1

  0
ENDBLK
  5
37F
  8
0
  0
BLOCK
 67
     1
  8
0
  2
$PAPER_SPACE
 70
     0
 10
0.0
 20
0.0
 30
0.0
  3
$PAPER_SPACE
  1

  0
ENDBLK
  5
37D
 67
     1
  8
0
  0
BLOCK
  8
0
  2
BOLTF
 70
     0
 10
0.0
 20
0.0
 30
0.0
  3
BOLTF
  1

  0
LINE
  5
33
  8
CRS
 10
0.0
 20
-0.1293856735557792
 30
0.0
 11
0.0
 21
0.9188983157340029
 31
0.0
  0
LINE
  5
34
  8
DRG2
 10
0.4374999999999992
 20
0.0028340652460344
 30
0.0
 11
0.4375602261382321
 21
0.6375957348280794
 31
0.0
  0
LINE
  5
35
  8
DRG2
 10
-0.8750000000000008
 20
0.0028340652460335
 30
0.0
 11
0.8750000000000008
 21
0.0028340652460344
 31
0.0
  0
LINE
  5
36
  8
DRG2
 10
-0.8750000000000008
 20
0.6378829422774306
 30
0.0
 11
-0.8750000000000008
 21
0.0028340652460335
 31
0.0
  0
LINE
  5
37
  8
DRG2
 10
0.8750000000000008
 20
0.0028340652460335
 30
0.0
 11
0.875
 21
0.6378829422774306
 31
0.0
  0
LINE
  5
38
  8
DRG2
 10
0.6564999999999995
 20
0.7028340652460337
 30
0.0
 11
-0.6565000000000003
 21
0.7028340652460328
 31
0.0
  0
LINE
  5
39
  8
DRG2
 10
-0.4375000000000009
 20
0.6376141006521588
 30
0.0
 11
-0.4375000000000018
 21
0.0028340652460335
 31
0.0
  0
ARC
  5
3A
  8
DRG2
 10
-0.6565000000000003
 20
0.3028340652460342
 30
0.0
 40
0.4
 50
56.80432899645259
 51
123.1101257111409
  0
LINE
  5
3B
  8
DRG2
 10
-0.6565000000000003
 20
0.7028340652460328
 30
0.0
 11
0.6564999999999995
 21
0.7028340652460337
 31
0.0
  0
ARC
  5
3C
  8
DRG2
 10
0.6564999999999995
 20
0.3028340652460342
 30
0.0
 40
0.4
 50
56.889874288859012
 51
123.1956710035474
  0
ARC
  5
3D
  8
DRG2
 10
-0.0000000000000009
 20
-0.7971659347539664
 30
0.0
 40
1.5
 50
73.039831644491287
 51
106.9601683555087
  0
ENDBLK
  5
3E
  8
0
  0
BLOCK
  8
0
  2
*U1
 70
     1
 10
0.0
 20
0.0
 30
0.0
  3
*U1
  1

  0
ENDBLK
  5
435
  8
0
  0
BLOCK
  8
0
  2
LOGO
 70
     0
 10
0.0
 20
0.0
 30
0.0
  3
LOGO
  1

  0
INSERT
  5
460
  8
DRG
  6
CONTINUOUS
 62
     7
  2
*U4
 10
0.0
 20
0.0
 30
0.0
1001
ACAD
1002
{
1000
R14_HATCH_DATA
1000
460
1011
1.0
1021
0.0
1031
0.0
1021
0.0
1031
0.0
1011
0.0
1021
0.0
1031
0.0
1021
1.0
1031
0.0
1011
0.0
1021
0.0
1031
0.0
1021
0.0
1031
1.0
1040
0.0
1010
0.0
1020
0.0
1030
1.0
1000
SOLID
1070
     1
1070
     1
1071
       17
1071
        7
1070
     1
1070
     1
1071
        9
1040
18.821661727211438
1040
85.569427875032716
1040
-0.4142135623730951
1040
26.821661727211438
1040
93.569427875032716
1040
0.0
1040
28.191279411133561
1040
93.56942787503273
1040
0.0
1040
28.191279411133561
1040
102.0369718403326
1040
0.2674368359602434
1040
18.821661727211438
1040
97.915857504065912
1040
0.0
1040
18.821661727211438
1040
102.0369718403326
1040
0.0
1040
7.7802673214059723
1040
102.0369718403326
1040
0.0
1040
7.7802673214059723
1040
62.115696081838671
1040
0.0
1040
18.821661727211438
1040
62.115696081838678
1040
0.0
1071
        9
1005
483
1005
48A
1005
489
1005
488
1005
487
1005
482
1005
472
1005
474
1005
470
1071
        7
1070
     1
1070
     1
1071
        8
1040
29.838142899665851
1040
72.897331735467191
1040
0.4142135623730863
1040
41.838142899665847
1040
60.89733173546756
1040
0.0
1040
47.650196927116667
1040
60.89733173546756
1040
0.4142126981028046
1040
59.650196927064421
1040
72.897296325816569
1040
0.0348233422700972
1040
59.650196927064421
1040
90.096337111694368
1040
0.4142126981028142
1040
47.650196927116667
1040
102.0963017020437
1040
0.0
1040
41.838142899665847
1040
102.0963017020437
1040
0.4142135623730893
1040
29.838142899665851
1040
90.096301702044016
1040
0.0348231985322414
1071
        8
1005
464
1005
48B
1005
486
1005
485
1005
471
1005
481
1005
463
1005
4C2
1071
       22
1070
     1
1070
     1
1071
        4
1040
40.882971825549703
1040
90.337990088334166
1040
-1.0
1040
48.605370470334492
1040
90.337990088334735
1040
-0.0248818291691539
1040
48.605370470334492
1040
72.655643349175492
1040
-1.0
1040
40.882971825549703
1040
72.655643349177595
1040
-0.0248818291691501
1071
        4
1005
466
1005
4C1
1005
465
1005
484
1071
        7
1070
     1
1070
     1
1071
       18
1040
67.331191210151701
1040
68.89733173546756
1040
0.4142135623730951
1040
75.331191210151701
1040
60.89733173546756
1040
0.0
1040
80.675802928262684
1040
60.89733173546756
1040
0.1450058980834471
1040
84.501142256151084
1040
62.072518178885289
1040
0.0
1040
84.501142256151084
1040
70.214764581409185
1040
-0.0833071563303517
1040
83.501142256151255
1040
69.876055965300111
1040
0.0
1040
80.482556033578916
1040
69.876055965300111
1040
-0.4142135623730951
1040
77.482556033578931
1040
72.876055965300111
1040
0.0
1040
77.482556033578931
1040
94.593352860836134
1040
0.0
1040
84.553623006881026
1040
94.593352860836134
1040
0.0
1040
84.553623006881026
1040
101.9948050433795
1040
0.0
1040
77.482556033578931
1040
101.9948050433795
1040
0.0
1040
77.482556033578931
1040
107.1280725498991
1040
0.0
1040
67.331191210151701
1040
107.1280725498991
1040
0.0
1040
67.331191210151701
1040
101.9948050433795
1040
0.0
1040
62.478989637268562
1040
101.9948050433795
1040
0.0
1040
62.478989637268569
1040
94.593352860836134
1040
0.0
1040
67.331191210151687
1040
94.593352860836134
1040
0.0
1071
       18
1005
4BF
1005
4D3
1005
4C0
1005
4CB
1005
4C9
1005
4CA
1005
4C6
1005
4C8
1005
4C7
1005
4C3
1005
495
1005
4A9
1005
498
1005
496
1005
4D0
1005
4BE
1005
4C5
1005
4C4
1071
        7
1070
     1
1070
     1
1071
        8
1040
85.849782736700035
1040
72.897331735467475
1040
0.4142135623730931
1040
97.849782736700035
1040
60.89733173546756
1040
0.0
1040
103.66183676415081
1040
60.89733173546756
1040
0.4142126981028048
1040
115.6618367640986
1040
72.897296325816569
1040
0.0348233422700971
1040
115.6618367640986
1040
90.096337111694325
1040
0.4142126981028151
1040
103.66183676415081
1040
102.0963017020437
1040
0.0
1040
97.849782736700035
1040
102.0963017020437
1040
0.4142135623730893
1040
85.849782736700035
1040
90.096301702044016
1040
0.0348231985322409
1071
        8
1005
494
1005
4D4
1005
4D2
1005
4CE
1005
497
1005
4BD
1005
493
1005
4FB
1071
       22
1070
     1
1070
     1
1071
        4
1040
96.894611662583884
1040
90.337990088335033
1040
-1.0
1040
104.6170103073686
1040
90.337990088334763
1040
-0.0248818291691539
1040
104.6170103073686
1040
72.655643349175506
1040
-1.0
1040
96.894611662583884
1040
72.655643349177595
1040
-0.0248818291691514
1071
        4
1005
4D1
1005
4CC
1005
4CF
1005
4CD
1071
        7
1070
     1
1070
     1
1071
        9
1040
119.0096173095521
1040
62.115696081838678
1040
0.0
1040
130.05101171535759
1040
62.115696081838671
1040
0.0
1040
130.05101171535759
1040
85.569427875032716
1040
-0.4142135623730946
1040
138.05101171535759
1040
93.569427875032716
1040
0.0
1040
139.4206293992797
1040
93.56942787503273
1040
0.0
1040
139.4206293992797
1040
102.0369718403325
1040
0.2674368359602435
1040
130.05101171535759
1040
97.915857504065855
1040
0.0
1040
130.05101171535759
1040
102.0369718403326
1040
0.0
1040
119.0096173095521
1040
102.0369718403326
1040
0.0
1071
        9
1005
4FA
1005
500
1005
4FF
1005
4FC
1005
4FE
1005
4FD
1005
4D6
1005
4E5
1005
4D5
1071
        7
1070
     0
1070
     1
1071
        4
1040
153.2899770207527
1040
102.0369718403326
1040
142.11987082690661
1040
102.0369718403326
1040
142.11987082690661
1040
62.115696081838678
1040
153.2899770207527
1040
62.115696081838678
1071
        4
1005
4F9
1005
4DA
1005
4DE
1005
4D9
1071
        7
1070
     0
1070
     1
1071
        9
1040
161.3332883364622
1040
62.115696081838678
1040
171.78072804963571
1040
62.115696081838678
1040
165.4162645291251
1040
78.311404477182364
1040
176.9709164189357
1040
78.31140447718235
1040
176.9709164189357
1040
86.855763084496857
1040
165.4162645291251
1040
86.855763084496886
1040
171.38205787173379
1040
102.0369718403326
1040
160.9346181585602
1040
102.0369718403326
1040
153.2899770207527
1040
82.583583780839575
1071
        9
1005
506
1005
505
1005
504
1005
501
1005
4D8
1005
4F4
1005
4D7
1005
503
1005
502
1071
        7
1070
     1
1070
     1
1071
       21
1040
152.52515784094209
1040
47.648154099737518
1040
-0.8501159182110916
1040
160.04745823702251
1040
46.421288526219293
1040
0.0
1040
160.04745823702251
1040
45.21828747592599
1040
0.0
1040
171.0912486890569
1040
45.21828747592599
1040
0.4103700463812956
1040
159.0922846938046
1040
57.06060729124669
1040
0.0
1040
153.28023066635379
1040
57.06060729124669
1040
0.3231315706904765
1040
141.8917942032017
1040
48.84260609145101
1040
0.1954153765693974
1040
142.3184035466634
1040
43.115005509834923
1040
0.2113556324406552
1040
155.72873071743231
1040
33.145354604103439
1040
-0.2264685134690167
1040
160.04745823702251
1040
29.300230626583549
1040
0.0
1040
160.04745823702251
1040
27.619948938379359
1040
-1.0
1040
152.32505959223769
1040
27.619948938379359
1040
0.0
1040
152.32505959223769
1040
29.959298931438969
1040
0.0
1040
141.28023066635379
1040
29.95929893143898
1040
0.0
1040
141.28023066635379
1040
27.861637324670479
1040
0.4142135623730951
1040
153.28023066635379
1040
15.861637324670481
1040
0.0
1040
159.0922846938046
1040
15.861637324670481
1040
0.4142135623730951
1040
171.0922846938046
1040
27.861637324670479
1040
0.0
1040
171.0922846938046
1040
29.95929893143904
1040
0.3201720163042325
1040
161.4128172083947
1040
39.98989916707626
1040
-0.1549843570040388
1040
153.4809683549079
1040
44.585756161105429
1040
-0.2969707756967668
1071
       21
1005
4F5
1005
4F7
1005
4F2
1005
4F3
1005
4F8
1005
4DD
1005
4EA
1005
4DB
1005
4F0
1005
4ED
1005
4EF
1005
4EE
1005
4DC
1005
4E2
1005
48D
1005
491
1005
48E
1005
4F1
1005
4EC
1005
4EB
1005
4F6
1071
        7
1070
     1
1070
     1
1071
        9
1040
116.19314081319391
1040
17.28637227261407
1040
0.0
1040
127.2345352189994
1040
17.28637227261407
1040
0.0
1040
127.2345352189994
1040
40.740104065808097
1040
-0.4142135623730953
1040
135.23453521899941
1040
48.740104065808111
1040
0.0
1040
136.6041529029215
1040
48.740104065808111
1040
0.0
1040
136.6041529029215
1040
57.207648031108022
1040
0.2674368359602446
1040
127.2345352189994
1040
53.086533694841222
1040
0.0
1040
127.2345352189994
1040
57.207648031108022
1040
0.0
1040
116.19314081319391
1040
57.207648031108022
1040
0.0
1071
        9
1005
4E3
1005
4E7
1005
4E6
1005
4E0
1005
4E1
1005
4DF
1005
4E4
1005
4E9
1005
4E8
1071
        7
1070
     1
1070
     1
1071
       18
1040
111.2523129779601
1040
45.06060729124669
1040
0.4142135623730951
1040
99.252312977960173
1040
57.06060729124669
1040
0.0
1040
93.440258950509346
1040
57.06060729124669
1040
0.3935971290544443
1040
81.470405744524527
1040
45.910674481046733
1040
0.0
1040
92.485087876393209
1040
45.910674481046733
1040
0.0
1040
92.485087876393209
1040
47.313129977668268
1040
-1.0
1040
100.2074865211779
1040
47.313129977668268
1040
0.0
1040
100.207486521178
1040
42.948196427274922
1040
0.0
1040
93.358174068518778
1040
42.948196427274922
1040
0.3803366342075343
1040
81.440258950509346
1040
32.349374231810209
1040
0.0
1040
81.440258950509346
1040
27.861637324670479
1040
0.212203934851876
1040
85.398663329684837
1040
18.95474449545469
1040
0.2715779457989354
1040
94.991749269489972
1040
17.839408458597308
1040
0.2212147422997974
1040
102.1211660476033
1040
23.542010892025001
1040
0.0
1040
102.1211660476033
1040
21.102600968374279
1040
0.048558820350044
1040
102.6710305977499
1040
17.89352120355198
1040
0.0
1040
111.8021775281067
1040
17.893521203552009
1040
-0.0850534761391249
1040
111.2523129779601
1040
23.54201089202471
1040
0.0
1071
       18
1005
492
1005
4B9
1005
49B
1005
4BA
1005
4BB
1005
4B8
1005
4BC
1005
4B7
1005
499
1005
4AF
1005
49A
1005
48C
1005
4AB
1005
4B3
1005
4B2
1005
4B1
1005
4B4
1005
4AA
1071
       22
1070
     1
1070
     1
1071
        6
1040
101.5095597489034
1040
37.384730871555568
1040
0.0
1040
101.5095597489034
1040
29.984856014372749
1040
-0.4101584254678068
1040
95.863486513980718
1040
23.758749615986972
1040
-0.4142135623730822
1040
92.002287191588479
1040
27.619948938379359
1040
0.0
1040
92.002287191588479
1040
33.041326503689838
1040
-0.3592987923427892
1040
97.969021393668683
1040
37.384730871555568
1040
0.0
1071
        6
1005
4B5
1005
4AD
1005
4B0
1005
4AE
1005
4AC
1005
4B6
1071
        7
1070
     1
1070
     1
1071
       14
1040
74.280536421539182
1040
35.629722934820848
1040
0.0
1040
74.280536421539182
1040
45.06060729124669
1040
0.4142135623730951
1040
62.280536421539182
1040
57.06060729124669
1040
0.0
1040
56.468482394088369
1040
57.06060729124669
1040
0.4142135623730892
1040
44.468482394088362
1040
45.060607291246939
1040
0.0348231985322411
1040
44.468482394088362
1040
27.861637324670291
1040
0.4142135623730907
1040
56.468482394088369
1040
15.861637324670481
1040
0.0
1040
62.280536421539182
1040
15.861637324670481
1040
0.4142135623730951
1040
74.280536421539182
1040
27.861637324670479
1040
0.0
1040
74.280536421539196
1040
30.816887788353831
1040
0.0
1040
63.235709964757
1040
30.81688778835381
1040
0.0
1040
63.235709964757007
1040
27.61994893837937
1040
-1.0
1040
55.513311319972217
1040
27.61994893837937
1040
0.0
1040
55.513311319972232
1040
35.629722934820848
1040
0.0
1071
       14
1005
4A3
1005
4A8
1005
462
1005
476
1005
461
1005
490
1005
48F
1005
4A2
1005
49D
1005
49F
1005
4A1
1005
4A0
1005
49E
1005
49C
1071
       22
1070
     1
1070
     1
1071
        4
1040
63.235709964756971
1040
41.923431282527652
1040
0.0
1040
55.51331131997221
1040
41.923431282527638
1040
0.0
1040
55.513311319972217
1040
46.690614073903141
1040
-1.0
1040
63.235709964757007
1040
46.690614073903127
1040
0.0
1071
        4
1005
4A4
1005
4A6
1005
4A5
1005
4A7
1071
        7
1070
     1
1070
     1
1071
       15
1040
37.639779947293832
1040
57.06060729124669
1040
0.0
1040
27.267121908897028
1040
57.06060729124669
1040
0.0
1040
27.267121908897021
1040
51.255838552818979
1040
0.3392741364964821
1040
18.58303542025671
1040
58.127888502333931
1040
0.3975671648689696
1040
7.030577403887583
1040
46.170226698962978
1040
0.0322586733839356
1040
7.0565934473582743
1040
30.23514359210488
1040
0.381674351628262
1040
18.58303542025671
1040
18.945146626805109
1040
0.3392741364964824
1040
27.267121908897021
1040
25.817196576320061
1040
0.0
1040
27.267121908897021
1040
13.51984597021351
1040
-1.0
1040
19.544723264112228
1040
13.51984597021351
1040
0.0
1040
19.544723264112239
1040
14.846027306936771
1040
0.0
1040
7.7279273094568479
1040
14.846027306936771
1040
0.435111756420548
1040
18.100585347853119
1040
3.392610111620797
1040
0.0
1040
25.69916102541525
1040
3.392610111620797
1040
0.3589835117613411
1040
37.639779947293839
1040
13.760967175618781
1040
0.0
1071
       15
1005
47C
1005
480
1005
47F
1005
473
1005
475
1005
467
1005
47B
1005
468
1005
46E
1005
46F
1005
46A
1005
46B
1005
46D
1005
46C
1005
469
1071
       22
1070
     1
1070
     1
1071
        6
1040
27.387732575171409
1040
32.086434320449378
1040
-0.3635850888704513
1040
22.683854862926161
1040
25.455509253088579
1040
-0.4081657147783189
1040
17.256300807526252
1040
30.5191262631974
1040
0.0
1040
17.256300807526252
1040
46.312783983787632
1040
-0.4081657147783226
1040
22.683854862926282
1040
51.376400993896397
1040
-0.3635850888704468
1040
27.387732575171409
1040
44.745475926535612
1040
0.0
1071
        6
1005
47A
1005
479
1005
478
1005
47D
1005
47E
1005
477
1070
     0
1070
     1
1040
0.2228598800114194
1071
       17
1040
17.63743802729277
1040
76.626905651017751
1040
0.0
1040
33.91754890401171
1040
77.741205688022092
1040
0.0
1040
33.91754890401171
1040
77.741205688022092
1040
0.0
1040
69.153945982282949
1040
79.301225382558854
1040
0.0
1040
91.455465417142008
1040
80.861243290751887
1040
0.0
1040
91.455465417142008
1040
80.861243290751887
1040
0.0
1040
120.67045393727309
1040
80.861243290751887
1040
0.0
1040
151.44655150816561
1040
79.746945040091759
1040
0.0
1040
157.69097519808881
1040
82.198402263350317
1040
0.0
1040
149.43941532211869
1040
47.209401108474808
1040
0.0
1040
122.2315629880345
1040
49.21514046054449
1040
0.0
1040
107.73557316557979
1040
43.19792419067948
1040
0.0
1040
107.73557316557979
1040
43.19792419067948
1040
0.0
1040
69.376961114066034
1040
40.30074552354403
1040
0.0
1040
69.376961114066034
1040
40.30074552354403
1040
0.0
1040
30.572318798986078
1040
42.306483089269697
1040
0.0
1040
30.572318798986078
1040
42.306483089269697
1040
0.0
1002
}
  0
ARC
  5
461
  8
DRG
 62
     7
 10
56.468482394088369
 20
27.861637324670479
 30
0.0
 40
12.0
 50
180.0
 51
270.0
  0
ARC
  5
462
  8
DRG
 62
     7
 10
56.468482394088369
 20
45.06060729124669
 30
0.0
 40
12.0
 50
90.0
 51
180.0
  0
ARC
  5
463
  8
DRG
 62
     7
 10
47.650196927116667
 20
72.89733173546756
 30
0.0
 40
12.0
 50
270.0
 51
0.0
  0
ARC
  5
464
  8
DRG
 62
     7
 10
47.650196927116667
 20
90.096301702043775
 30
0.0
 40
12.0
 50
0.0
 51
90.0
  0
ARC
  5
465
  8
DRG
 62
     7
 10
44.74417114794209
 20
72.655643349176444
 30
0.0
 40
3.8611993223923942
 50
180.0
 51
0.0
  0
ARC
  5
466
  8
DRG
 62
     7
 10
44.74417114794209
 20
90.337990088334877
 30
0.0
 40
3.8611993223923942
 50
0.0
 51
180.0
  0
ARC
  5
467
  8
DRG
 62
     7
 10
19.137584483414571
 20
31.0402274344309
 30
0.0
 40
12.107786932649869
 50
183.81258486583951
 51
267.37487616930952
  0
LINE
  5
468
  8
DRG
 62
     7
 10
27.267121908897021
 20
13.51984597021351
 30
0.0
 11
27.267121908897021
 21
25.817196576319979
 31
0.0
  0
LINE
  5
469
  8
DRG
 62
     7
 10
37.639779947293839
 20
13.760967175618591
 30
0.0
 11
37.639779947293839
 21
57.06060729124669
 31
0.0
  0
LINE
  5
46A
  8
DRG
 62
     7
 10
7.7279273094568453
 20
14.846027306936771
 30
0.0
 11
19.544723264112228
 21
14.846027306936771
 31
0.0
  0
ARC
  5
46B
  8
DRG
 62
     7
 10
18.249110221157022
 20
13.95076893658401
 30
0.0
 40
10.559203445863639
 50
175.13635846835899
 51
269.19405577571678
  0
ARC
  5
46C
  8
DRG
 62
     7
 10
25.379351800633462
 20
15.82074347040526
 30
0.0
 40
12.432247452652581
 50
271.47404887186468
 51
350.4632534986161
  0
LINE
  5
46D
  8
DRG
 62
     7
 10
18.100585347854121
 20
3.392610111620797
 30
0.0
 11
25.699161025414639
 21
3.392610111620797
 31
0.0
  0
ARC
  5
46E
  8
DRG
 62
     7
 10
23.40592258650463
 20
13.51984597021351
 30
0.0
 40
3.8611993223923942
 50
180.0
 51
0.0
  0
LINE
  5
46F
  8
DRG
 62
     7
 10
19.544723264112228
 20
13.51984597021351
 30
0.0
 11
19.544723264112228
 21
14.846027306936771
 31
0.0
  0
LINE
  5
470
  8
DRG
 62
     7
 10
18.821661727211438
 20
62.115696081838678
 30
0.0
 11
18.821661727211438
 21
85.569427875032716
 31
0.0
  0
ARC
  5
471
  8
DRG
 62
     7
 10
41.838142899665847
 20
72.89733173546756
 30
0.0
 40
12.0
 50
180.0
 51
270.0
  0
LINE
  5
472
  8
DRG
 62
     7
 10
7.7802673214059723
 20
102.0369718403326
 30
0.0
 11
7.7802673214059723
 21
62.115696081838678
 31
0.0
  0
ARC
  5
473
  8
DRG
 62
     7
 10
19.137584483414571
 20
46.032807694708133
 30
0.0
 40
12.107786932649869
 50
92.625123830690427
 51
179.34969965531249
  0
LINE
  5
474
  8
DRG
 62
     7
 10
7.7802673214059723
 20
62.115696081838678
 30
0.0
 11
18.821661727211438
 21
62.115696081838678
 31
0.0
  0
ARC
  5
475
  8
DRG
 62
     7
 10
130.4096373956734
 20
38.404095866101891
 30
0.0
 40
123.62323904739679
 50
176.39825231050591
 51
183.7888327716102
  0
ARC
  5
476
  8
DRG
 62
     7
 10
167.7922598686371
 20
36.46112230795859
 30
0.0
 40
123.62323904739679
 50
176.01116722839041
 51
183.98883277160959
  0
LINE
  5
477
  8
DRG
 62
     7
 10
27.387732575171409
 20
32.086434320449371
 30
0.0
 11
27.387732575171409
 21
44.745475926535619
 31
0.0
  0
LINE
  5
478
  8
DRG
 62
     7
 10
17.256300807526252
 20
30.519126263197901
 30
0.0
 11
17.256300807526252
 21
46.312783983787199
 31
0.0
  0
ARC
  5
479
  8
DRG
 62
     7
 10
22.554825927420261
 20
30.757839296791811
 30
0.0
 40
5.3038997311936118
 50
182.57958705316651
 51
271.39398239048438
  0
ARC
  5
47A
  8
DRG
 62
     7
 10
21.079116203706629
 20
31.577778829510549
 30
0.0
 40
6.3290892655085571
 50
284.68766481341447
 51
4.6097118352224014
  0
ARC
  5
47B
  8
DRG
 62
     7
 10
18.444167318675341
 20
28.04361904615444
 30
0.0
 40
9.0995321151857773
 50
270.87442572940842
 51
345.83740798549388
  0
LINE
  5
47C
  8
DRG
 62
     7
 10
37.639779947293839
 20
57.06060729124669
 30
0.0
 11
27.267121908897021
 21
57.06060729124669
 31
0.0
  0
ARC
  5
47D
  8
DRG
 62
     7
 10
22.554825927420261
 20
46.074070950193168
 30
0.0
 40
5.3038997311936118
 50
88.606017609515575
 51
177.42041294683341
  0
ARC
  5
47E
  8
DRG
 62
     7
 10
21.079116203706629
 20
45.254131417474468
 30
0.0
 40
6.3290892655085571
 50
355.39028816477759
 51
75.312335186585557
  0
ARC
  5
47F
  8
DRG
 62
     7
 10
18.444167318675341
 20
49.029416082984589
 30
0.0
 40
9.0995321151857773
 50
14.16259201450603
 51
89.125574270591571
  0
LINE
  5
480
  8
DRG
 62
     7
 10
27.267121908897021
 20
51.255838552819107
 30
0.0
 11
27.267121908897021
 21
57.06060729124669
 31
0.0
  0
LINE
  5
481
  8
DRG
 62
     7
 10
41.838142899665847
 20
60.89733173546756
 30
0.0
 11
47.650196927116667
 21
60.89733173546756
 31
0.0
  0
LINE
  5
482
  8
DRG
 62
     7
 10
7.7802673214059723
 20
102.0369718403326
 30
0.0
 11
18.821661727211438
 21
102.0369718403326
 31
0.0
  0
ARC
  5
483
  8
DRG
 62
     7
 10
26.821661727211438
 20
85.569427875032716
 30
0.0
 40
8.0
 50
90.0
 51
180.0
  0
ARC
  5
484
  8
DRG
 62
     7
 10
218.4362314981995
 20
81.496816718755667
 30
0.0
 40
177.77324423808651
 50
177.14934059322539
 51
182.85065940677461
  0
ARC
  5
485
  8
DRG
 62
     7
 10
153.16192037421459
 20
81.496816718755667
 30
0.0
 40
123.62323904739679
 50
176.01116722839041
 51
183.98883277160959
  0
ARC
  5
486
  8
DRG
 62
     7
 10
41.838142899665847
 20
90.096301702043775
 30
0.0
 40
12.0
 50
90.0
 51
180.0
  0
LINE
  5
487
  8
DRG
 62
     7
 10
18.821661727211438
 20
97.915857504065912
 30
0.0
 11
18.821661727211438
 21
102.0369718403326
 31
0.0
  0
ARC
  5
488
  8
DRG
 62
     7
 10
27.083354510939952
 20
91.844139685506846
 30
0.0
 40
10.2528691067876
 50
83.7965056449153
 51
143.68693404466879
  0
LINE
  5
489
  8
DRG
 62
     7
 10
28.191279411133561
 20
102.0369718403326
 30
0.0
 11
28.191279411133561
 21
93.569427875032716
 31
0.0
  0
LINE
  5
48A
  8
DRG
 62
     7
 10
28.191279411133561
 20
93.569427875032716
 30
0.0
 11
26.821661727211438
 21
93.569427875032716
 31
0.0
  0
LINE
  5
48B
  8
DRG
 62
     7
 10
41.838142899665847
 20
102.0963017020437
 30
0.0
 11
47.650196927116667
 21
102.0963017020437
 31
0.0
  0
ARC
  5
48C
  8
DRG
 62
     7
 10
91.146199293645054
 20
26.576636016635941
 30
0.0
 40
9.5460672539884595
 50
232.98068850611
 51
293.75592135571679
  0
ARC
  5
48D
  8
DRG
 62
     7
 10
153.28023066635379
 20
27.861637324670479
 30
0.0
 40
12.0
 50
180.0
 51
270.0
  0
ARC
  5
48E
  8
DRG
 62
     7
 10
159.0922846938046
 20
27.861637324670479
 30
0.0
 40
12.0
 50
270.0
 51
0.0
  0
ARC
  5
48F
  8
DRG
 62
     7
 10
62.280536421539182
 20
27.861637324670479
 30
0.0
 40
12.0
 50
270.0
 51
0.0
  0
LINE
  5
490
  8
DRG
 62
     7
 10
56.468482394088369
 20
15.861637324670481
 30
0.0
 11
62.280536421539182
 21
15.861637324670481
 31
0.0
  0
LINE
  5
491
  8
DRG
 62
     7
 10
153.28023066635379
 20
15.861637324670481
 30
0.0
 11
159.0922846938046
 21
15.861637324670481
 31
0.0
  0
ARC
  5
492
  8
DRG
 62
     7
 10
99.252312977960173
 20
45.06060729124669
 30
0.0
 40
12.0
 50
0.0
 51
90.0
  0
ARC
  5
493
  8
DRG
 62
     7
 10
103.66183676415081
 20
72.89733173546756
 30
0.0
 40
12.0
 50
270.0
 51
0.0
  0
ARC
  5
494
  8
DRG
 62
     7
 10
103.66183676415081
 20
90.096301702043775
 30
0.0
 40
12.0
 50
0.0
 51
90.0
  0
ARC
  5
495
  8
DRG
 62
     7
 10
75.331191210151701
 20
68.89733173546756
 30
0.0
 40
8.0
 50
180.0
 51
270.0
  0
LINE
  5
496
  8
DRG
 62
     7
 10
84.501142256151084
 20
62.072518178885268
 30
0.0
 11
84.501142256151084
 21
70.214764581409213
 31
0.0
  0
ARC
  5
497
  8
DRG
 62
     7
 10
97.849782736700035
 20
72.89733173546756
 30
0.0
 40
12.0
 50
180.0
 51
270.0
  0
ARC
  5
498
  8
DRG
 62
     7
 10
80.604973725058926
 20
67.941395133310024
 30
0.0
 40
7.044419488421358
 50
270.57609896713558
 51
303.5789717876612
  0
ARC
  5
499
  8
DRG
 62
     7
 10
93.358174068518778
 20
30.948196427274919
 30
0.0
 40
12.0
 50
90.0
 51
173.29457252003729
  0
ARC
  5
49A
  8
DRG
 62
     7
 10
93.44025895050936
 20
27.861637324670479
 30
0.0
 40
12.0
 50
180.0
 51
227.9226718038604
  0
ARC
  5
49B
  8
DRG
 62
     7
 10
93.44025895050936
 20
45.06060729124669
 30
0.0
 40
12.0
 50
90.0
 51
175.93782586434531
  0
LINE
  5
49C
  8
DRG
 62
     7
 10
74.280536421539182
 20
45.06060729124669
 30
0.0
 11
74.280536421539182
 21
35.629722934820848
 31
0.0
  0
LINE
  5
49D
  8
DRG
 62
     7
 10
63.235709964757007
 20
30.816887788353821
 30
0.0
 11
74.280536421539182
 21
30.816887788353821
 31
0.0
  0
LINE
  5
49E
  8
DRG
 62
     7
 10
55.513311319972217
 20
35.629722934820848
 30
0.0
 11
74.280536421539182
 21
35.629722934820848
 31
0.0
  0
LINE
  5
49F
  8
DRG
 62
     7
 10
63.235709964757007
 20
30.816887788353821
 30
0.0
 11
63.235709964757007
 21
27.619948938379359
 31
0.0
  0
LINE
  5
4A0
  8
DRG
 62
     7
 10
55.513311319972217
 20
35.629722934820848
 30
0.0
 11
55.513311319972217
 21
27.619948938379359
 31
0.0
  0
ARC
  5
4A1
  8
DRG
 62
     7
 10
59.374510642364612
 20
27.619948938379359
 30
0.0
 40
3.8611993223923942
 50
180.0
 51
0.0
  0
LINE
  5
4A2
  8
DRG
 62
     7
 10
74.280536421539182
 20
30.816887788353821
 30
0.0
 11
74.280536421539182
 21
27.861637324670479
 31
0.0
  0
ARC
  5
4A3
  8
DRG
 62
     7
 10
62.280536421539182
 20
45.06060729124669
 30
0.0
 40
12.0
 50
0.0
 51
90.0
  0
LINE
  5
4A4
  8
DRG
 62
     7
 10
55.513311319972217
 20
41.923431282527652
 30
0.0
 11
63.235709964757007
 21
41.923431282527652
 31
0.0
  0
ARC
  5
4A5
  8
DRG
 62
     7
 10
59.374510642364612
 20
46.690614073903127
 30
0.0
 40
3.8611993223923942
 50
0.0
 51
180.0
  0
LINE
  5
4A6
  8
DRG
 62
     7
 10
55.513311319972217
 20
46.690614073903127
 30
0.0
 11
55.513311319972217
 21
41.923431282527652
 31
0.0
  0
LINE
  5
4A7
  8
DRG
 62
     7
 10
63.235709964757007
 20
46.690614073903127
 30
0.0
 11
63.235709964757007
 21
41.923431282527652
 31
0.0
  0
LINE
  5
4A8
  8
DRG
 62
     7
 10
56.468482394088369
 20
57.06060729124669
 30
0.0
 11
62.280536421539182
 21
57.06060729124669
 31
0.0
  0
LINE
  5
4A9
  8
DRG
 62
     7
 10
75.331191210151701
 20
60.89733173546756
 30
0.0
 11
80.675802928264815
 21
60.89733173546756
 31
0.0
  0
LINE
  5
4AA
  8
DRG
 62
     7
 10
111.2523129779601
 20
45.06060729124669
 30
0.0
 11
111.2523129779601
 21
21.10260096837424
 31
0.0
  0
ARC
  5
4AB
  8
DRG
 62
     7
 10
92.427187023305351
 20
28.353548776339029
 30
0.0
 40
10.822390038051561
 50
283.70766965543032
 51
333.6028219757398
  0
ARC
  5
4AC
  8
DRG
 62
     7
 10
97.617648860406234
 20
31.597336783954741
 30
0.0
 40
5.7980507916306081
 50
86.525641605078704
 51
165.57884810514051
  0
ARC
  5
4AD
  8
DRG
 62
     7
 10
95.530005668639475
 20
29.734254501986349
 30
0.0
 40
5.9848030975807349
 50
273.19424815916329
 51
2.3998464036014582
  0
LINE
  5
4AE
  8
DRG
 62
     7
 10
92.002287191588479
 20
27.619948938379359
 30
0.0
 11
92.002287191588479
 21
33.041326503689788
 31
0.0
  0
LINE
  5
4AF
  8
DRG
 62
     7
 10
81.440258950509346
 20
32.349374231809861
 30
0.0
 11
81.440258950509346
 21
27.861637324670479
 31
0.0
  0
ARC
  5
4B0
  8
DRG
 62
     7
 10
95.863486513980874
 20
27.619948938379359
 30
0.0
 40
3.8611993223923942
 50
180.0
 51
270.0
  0
LINE
  5
4B1
  8
DRG
 62
     7
 10
102.6710305977499
 20
17.89352120355198
 30
0.0
 11
111.8021775281067
 21
17.893521203552009
 31
0.0
  0
ARC
  5
4B2
  8
DRG
 62
     7
 10
118.87875205644769
 20
22.322305930199491
 30
0.0
 40
16.801915635954131
 50
175.83705377070211
 51
195.28307330703629
  0
LINE
  5
4B3
  8
DRG
 62
     7
 10
102.1211660476033
 20
23.542010892025068
 30
0.0
 11
102.1211660476033
 21
21.102600968374329
 31
0.0
  0
ARC
  5
4B4
  8
DRG
 62
     7
 10
128.00989898680459
 20
22.322305930199519
 30
0.0
 40
16.801915635954131
 50
175.83705377070211
 51
195.28307330703629
  0
LINE
  5
4B5
  8
DRG
 62
     7
 10
101.5095597489034
 20
37.384730871555568
 30
0.0
 11
101.5095597489034
 21
29.483652989600269
 31
0.0
  0
LINE
  5
4B6
  8
DRG
 62
     7
 10
101.5095597489034
 20
37.384730871555568
 30
0.0
 11
97.266276327143615
 21
37.384730871555568
 31
0.0
  0
LINE
  5
4B7
  8
DRG
 62
     7
 10
100.2074865211779
 20
42.948196427274922
 30
0.0
 11
93.358174068518778
 21
42.948196427274922
 31
0.0
  0
ARC
  5
4B8
  8
DRG
 62
     7
 10
96.346287198785603
 20
47.313129977668268
 30
0.0
 40
3.8611993223923942
 50
0.0
 51
180.0
  0
LINE
  5
4B9
  8
DRG
 62
     7
 10
93.44025895050936
 20
57.06060729124669
 30
0.0
 11
99.252312977960173
 21
57.06060729124669
 31
0.0
  0
LINE
  5
4BA
  8
DRG
 62
     7
 10
92.485087876393209
 20
45.910674481046733
 30
0.0
 11
81.470405744524555
 21
45.910674481046733
 31
0.0
  0
LINE
  5
4BB
  8
DRG
 62
     7
 10
92.485087876393209
 20
47.313129977668268
 30
0.0
 11
92.485087876393209
 21
45.910674481046733
 31
0.0
  0
LINE
  5
4BC
  8
DRG
 62
     7
 10
100.2074865211779
 20
47.313129977668268
 30
0.0
 11
100.2074865211779
 21
42.948196427274922
 31
0.0
  0
LINE
  5
4BD
  8
DRG
 62
     7
 10
97.849782736700035
 20
60.89733173546756
 30
0.0
 11
103.66183676415081
 21
60.89733173546756
 31
0.0
  0
LINE
  5
4BE
  8
DRG
 62
     7
 10
80.482556033578916
 20
69.876055965300111
 30
0.0
 11
83.501142256151056
 21
69.876055965300111
 31
0.0
  0
LINE
  5
4BF
  8
DRG
 62
     7
 10
77.482556033578931
 20
94.593352860836134
 30
0.0
 11
84.553623006881026
 21
94.593352860836134
 31
0.0
  0
LINE
  5
4C0
  8
DRG
 62
     7
 10
77.482556033578931
 20
101.9948050433795
 30
0.0
 11
84.553623006881026
 21
101.9948050433795
 31
0.0
  0
ARC
  5
4C1
  8
DRG
 62
     7
 10
-128.9478892023152
 20
81.496816718755667
 30
0.0
 40
177.77324423808651
 50
357.1493405932253
 51
2.8506594067746178
  0
ARC
  5
4C2
  8
DRG
 62
     7
 10
-63.673578078330422
 20
81.496816718755667
 30
0.0
 40
123.62323904739679
 50
356.01116722839038
 51
3.9888327716095779
  0
LINE
  5
4C3
  8
DRG
 62
     7
 10
67.331191210151701
 20
94.593352860836134
 30
0.0
 11
67.331191210151701
 21
68.89733173546756
 31
0.0
  0
LINE
  5
4C4
  8
DRG
 62
     7
 10
77.482556033578931
 20
94.593352860836134
 30
0.0
 11
77.482556033578931
 21
72.876055965300111
 31
0.0
  0
ARC
  5
4C5
  8
DRG
 62
     7
 10
80.482556033578916
 20
72.876055965300111
 30
0.0
 40
3.0
 50
180.0
 51
270.0
  0
LINE
  5
4C6
  8
DRG
 62
     7
 10
62.478989637268569
 20
101.9948050433795
 30
0.0
 11
67.331191210151701
 21
101.9948050433795
 31
0.0
  0
LINE
  5
4C7
  8
DRG
 62
     7
 10
62.478989637268569
 20
94.593352860836134
 30
0.0
 11
67.331191210151701
 21
94.593352860836134
 31
0.0
  0
LINE
  5
4C8
  8
DRG
 62
     7
 10
62.478989637268569
 20
94.593352860836134
 30
0.0
 11
62.478989637268569
 21
101.9948050433795
 31
0.0
  0
LINE
  5
4C9
  8
DRG
 62
     7
 10
67.331191210151701
 20
107.1280725498991
 30
0.0
 11
77.482556033578931
 21
107.1280725498991
 31
0.0
  0
LINE
  5
4CA
  8
DRG
 62
     7
 10
67.331191210151701
 20
107.1280725498991
 30
0.0
 11
67.331191210151701
 21
101.9948050433795
 31
0.0
  0
LINE
  5
4CB
  8
DRG
 62
     7
 10
77.482556033578931
 20
101.9948050433795
 30
0.0
 11
77.482556033578931
 21
107.1280725498991
 31
0.0
  0
ARC
  5
4CC
  8
DRG
 62
     7
 10
-72.936249365281071
 20
81.496816718755667
 30
0.0
 40
177.77324423808651
 50
357.1493405932253
 51
2.8506594067746178
  0
ARC
  5
4CD
  8
DRG
 62
     7
 10
274.44787133523357
 20
81.496816718755667
 30
0.0
 40
177.77324423808651
 50
177.14934059322539
 51
182.85065940677461
  0
ARC
  5
4CE
  8
DRG
 62
     7
 10
209.1735602112488
 20
81.496816718755667
 30
0.0
 40
123.62323904739679
 50
176.01116722839041
 51
183.98883277160959
  0
ARC
  5
4CF
  8
DRG
 62
     7
 10
100.75581098497619
 20
72.655643349176444
 30
0.0
 40
3.8611993223923942
 50
180.0
 51
0.0
  0
ARC
  5
4D0
  8
DRG
 62
     7
 10
82.991751330883176
 20
73.025526152493626
 30
0.0
 40
3.1903983410800212
 50
279.18737892597682
 51
298.2359877234839
  0
ARC
  5
4D1
  8
DRG
 62
     7
 10
100.75581098497619
 20
90.337990088334877
 30
0.0
 40
3.8611993223923942
 50
0.0
 51
180.0
  0
ARC
  5
4D2
  8
DRG
 62
     7
 10
97.849782736700035
 20
90.096301702043775
 30
0.0
 40
12.0
 50
90.0
 51
180.0
  0
LINE
  5
4D3
  8
DRG
 62
     7
 10
84.553623006881026
 20
101.9948050433795
 30
0.0
 11
84.553623006881026
 21
94.593352860836134
 31
0.0
  0
LINE
  5
4D4
  8
DRG
 62
     7
 10
97.849782736700035
 20
102.0963017020437
 30
0.0
 11
103.66183676415081
 21
102.0963017020437
 31
0.0
  0
LINE
  5
4D5
  8
DRG
 62
     7
 10
130.05101171535759
 20
62.115696081838678
 30
0.0
 11
130.05101171535759
 21
85.569427875032716
 31
0.0
  0
LINE
  5
4D6
  8
DRG
 62
     7
 10
119.0096173095521
 20
102.0369718403326
 30
0.0
 11
119.0096173095521
 21
62.115696081838678
 31
0.0
  0
LINE
  5
4D7
  8
DRG
 62
     7
 10
165.4162645291251
 20
78.31140447718235
 30
0.0
 11
171.78072804963571
 21
62.115696081838678
 31
0.0
  0
LINE
  5
4D8
  8
DRG
 62
     7
 10
153.2899770207527
 20
82.583583780839604
 30
0.0
 11
161.3332883364622
 21
62.115696081838678
 31
0.0
  0
LINE
  5
4D9
  8
DRG
 62
     7
 10
153.2899770207527
 20
102.0369718403326
 30
0.0
 11
153.2899770207527
 21
62.115696081838678
 31
0.0
  0
LINE
  5
4DA
  8
DRG
 62
     7
 10
142.11987082690661
 20
102.0369718403326
 30
0.0
 11
142.11987082690661
 21
62.115696081838678
 31
0.0
  0
ARC
  5
4DB
  8
DRG
 62
     7
 10
160.28928843394391
 20
53.283870983727013
 30
0.0
 40
20.648450998997479
 50
209.50344874889601
 51
257.2400493880096
  0
LINE
  5
4DC
  8
DRG
 62
     7
 10
141.28023066635379
 20
29.95929893143898
 30
0.0
 11
152.32505959223769
 21
29.95929893143898
 31
0.0
  0
ARC
  5
4DD
  8
DRG
 62
     7
 10
153.28023066635379
 20
45.06060729124669
 30
0.0
 40
12.0
 50
90.0
 51
161.62913043773071
  0
LINE
  5
4DE
  8
DRG
 62
     7
 10
153.2899770207527
 20
62.115696081838678
 30
0.0
 11
142.11987082690661
 21
62.115696081838678
 31
0.0
  0
LINE
  5
4DF
  8
DRG
 62
     7
 10
127.2345352189994
 20
17.28637227261407
 30
0.0
 11
127.2345352189994
 21
40.740104065808111
 31
0.0
  0
LINE
  5
4E0
  8
DRG
 62
     7
 10
116.19314081319391
 20
57.207648031108022
 30
0.0
 11
116.19314081319391
 21
17.28637227261407
 31
0.0
  0
LINE
  5
4E1
  8
DRG
 62
     7
 10
116.19314081319391
 20
17.28637227261407
 30
0.0
 11
127.2345352189994
 21
17.28637227261407
 31
0.0
  0
LINE
  5
4E2
  8
DRG
 62
     7
 10
141.28023066635379
 20
29.95929893143898
 30
0.0
 11
141.28023066635379
 21
27.861637324670479
 31
0.0
  0
ARC
  5
4E3
  8
DRG
 62
     7
 10
135.496228002728
 20
47.014815876282221
 30
0.0
 40
10.2528691067876
 50
83.7965056449153
 51
143.68693404466879
  0
ARC
  5
4E4
  8
DRG
 62
     7
 10
135.23453521899941
 20
40.740104065808111
 30
0.0
 40
8.0
 50
90.0
 51
180.0
  0
LINE
  5
4E5
  8
DRG
 62
     7
 10
119.0096173095521
 20
62.115696081838678
 30
0.0
 11
130.05101171535759
 21
62.115696081838678
 31
0.0
  0
LINE
  5
4E6
  8
DRG
 62
     7
 10
116.19314081319391
 20
57.207648031108022
 30
0.0
 11
127.2345352189994
 21
57.207648031108022
 31
0.0
  0
LINE
  5
4E7
  8
DRG
 62
     7
 10
127.2345352189994
 20
53.0865336948413
 30
0.0
 11
127.2345352189994
 21
57.207648031108079
 31
0.0
  0
LINE
  5
4E8
  8
DRG
 62
     7
 10
136.6041529029215
 20
57.207648031108022
 30
0.0
 11
136.6041529029215
 21
48.740104065808111
 31
0.0
  0
LINE
  5
4E9
  8
DRG
 62
     7
 10
136.6041529029215
 20
48.740104065808111
 30
0.0
 11
135.23453521899941
 21
48.740104065808111
 31
0.0
  0
ARC
  5
4EA
  8
DRG
 62
     7
 10
149.15275272984229
 20
46.50373678022958
 30
0.0
 40
7.6283568598071962
 50
162.14543119997589
 51
216.29372603558031
  0
ARC
  5
4EB
  8
DRG
 62
     7
 10
164.68224204875119
 20
54.775095406185869
 30
0.0
 40
15.14236331012172
 50
222.29150451995909
 51
257.53093545652467
  0
ARC
  5
4EC
  8
DRG
 62
     7
 10
159.223234097084
 20
28.191351553125511
 30
0.0
 40
12.0
 50
8.4721667757414814
 51
79.486612768212169
  0
LINE
  5
4ED
  8
DRG
 62
     7
 10
160.04745823702251
 20
29.300230626583438
 30
0.0
 11
160.04745823702251
 21
27.619948938379359
 31
0.0
  0
LINE
  5
4EE
  8
DRG
 62
     7
 10
152.32505959223769
 20
27.619948938379359
 30
0.0
 11
152.32505959223769
 21
29.95929893143898
 31
0.0
  0
ARC
  5
4EF
  8
DRG
 62
     7
 10
156.18625891463009
 20
27.619948938379359
 30
0.0
 40
3.8611993223923942
 50
180.0
 51
0.0
  0
ARC
  5
4F0
  8
DRG
 62
     7
 10
153.8611380906755
 20
26.699836406787622
 30
0.0
 40
6.7106338785129491
 50
22.799249772319211
 51
73.841024038773142
  0
LINE
  5
4F1
  8
DRG
 62
     7
 10
171.0922846938046
 20
29.95929893143915
 30
0.0
 11
171.0922846938046
 21
27.861637324670479
 31
0.0
  0
LINE
  5
4F2
  8
DRG
 62
     7
 10
171.0912486890569
 20
45.21828747592599
 30
0.0
 11
160.04745823702251
 21
45.21828747592599
 31
0.0
  0
ARC
  5
4F3
  8
DRG
 62
     7
 10
159.0922846938046
 20
45.06060729124669
 30
0.0
 40
12.0
 50
0.7528890912800703
 51
90.0
  0
LINE
  5
4F4
  8
DRG
 62
     7
 10
161.3332883364622
 20
62.115696081838678
 30
0.0
 11
171.78072804963571
 21
62.115696081838678
 31
0.0
  0
ARC
  5
4F5
  8
DRG
 62
     7
 10
156.18625891463009
 20
46.421288526219307
 30
0.0
 40
3.8611993223923942
 50
0.0
 51
161.4735686305323
  0
ARC
  5
4F6
  8
DRG
 62
     7
 10
155.35373214152469
 20
46.850626662257177
 30
0.0
 40
2.938857360854815
 50
164.25399710017811
 51
230.4135202949499
  0
LINE
  5
4F7
  8
DRG
 62
     7
 10
160.04745823702251
 20
46.421288526219307
 30
0.0
 11
160.04745823702251
 21
45.21828747592599
 31
0.0
  0
LINE
  5
4F8
  8
DRG
 62
     7
 10
153.28023066635379
 20
57.06060729124669
 30
0.0
 11
159.0922846938046
 21
57.06060729124669
 31
0.0
  0
LINE
  5
4F9
  8
DRG
 62
     7
 10
142.11987082690661
 20
102.0369718403326
 30
0.0
 11
153.2899770207527
 21
102.0369718403326
 31
0.0
  0
ARC
  5
4FA
  8
DRG
 62
     7
 10
138.05101171535759
 20
85.569427875032716
 30
0.0
 40
8.0
 50
90.0
 51
180.0
  0
ARC
  5
4FB
  8
DRG
 62
     7
 10
-7.66193824129624
 20
81.496816718755667
 30
0.0
 40
123.62323904739679
 50
356.01116722839038
 51
3.9888327716095779
  0
ARC
  5
4FC
  8
DRG
 62
     7
 10
138.3127044990861
 20
91.844139685506775
 30
0.0
 40
10.2528691067876
 50
83.7965056449153
 51
143.68693404466879
  0
LINE
  5
4FD
  8
DRG
 62
     7
 10
119.0096173095521
 20
102.0369718403326
 30
0.0
 11
130.05101171535759
 21
102.0369718403326
 31
0.0
  0
LINE
  5
4FE
  8
DRG
 62
     7
 10
130.05101171535759
 20
97.915857504065855
 30
0.0
 11
130.05101171535759
 21
102.0369718403326
 31
0.0
  0
LINE
  5
4FF
  8
DRG
 62
     7
 10
139.4206293992797
 20
102.0369718403326
 30
0.0
 11
139.4206293992797
 21
93.569427875032716
 31
0.0
  0
LINE
  5
500
  8
DRG
 62
     7
 10
139.4206293992797
 20
93.569427875032716
 30
0.0
 11
138.05101171535759
 21
93.569427875032716
 31
0.0
  0
LINE
  5
501
  8
DRG
 62
     7
 10
153.2899770207527
 20
82.583583780839604
 30
0.0
 11
160.9346181585602
 21
102.0369718403326
 31
0.0
  0
LINE
  5
502
  8
DRG
 62
     7
 10
176.9709164189357
 20
78.31140447718235
 30
0.0
 11
176.9709164189357
 21
86.855763084496857
 31
0.0
  0
LINE
  5
503
  8
DRG
 62
     7
 10
176.9709164189357
 20
78.31140447718235
 30
0.0
 11
165.4162645291251
 21
78.31140447718235
 31
0.0
  0
LINE
  5
504
  8
DRG
 62
     7
 10
160.9346181585602
 20
102.0369718403326
 30
0.0
 11
171.38205787173379
 21
102.0369718403326
 31
0.0
  0
LINE
  5
505
  8
DRG
 62
     7
 10
165.4162645291251
 20
86.855763084496857
 30
0.0
 11
171.38205787173379
 21
102.0369718403326
 31
0.0
  0
LINE
  5
506
  8
DRG
 62
     7
 10
176.9709164189357
 20
86.855763084496857
 30
0.0
 11
165.4162645291251
 21
86.855763084496857
 31
0.0
  0
ENDBLK
  5
508
  8
0
  0
BLOCK
  8
0
  2
ROTORK_GEARS_LOGO
 70
     0
 10
0.0
 20
0.0
 30
0.0
  3
ROTORK_GEARS_LOGO
  1

  0
INSERT
  5
50A
  8
0
  2
LOGO
 10
16.592937132437999
 20
3.1720898939720419
 30
0.0
  0
ENDBLK
  5
50C
  8
0
  0
BLOCK
  8
0
  2
*U4
 70
     1
 10
0.0
 20
0.0
 30
0.0
  3
*U4
  1

  0
SOLID
  5
530
  8
DRG
  6
CONTINUOUS
 62
     7
 10
27.591723902900771
 20
3.5869302298372978
 30
0.0
 11
18.100585347853119
 21
3.392610111620797
 31
0.0
 12
25.69916102541524
 22
3.392610111620797
 32
0.0
 13
25.69916102541524
 23
3.392610111620797
 33
0.0
210
0.0
220
0.0
230
1.0
  0
SOLID
  5
531
  8
DRG
  6
CONTINUOUS
 62
     7
 10
16.187882817280752
 20
3.5947021638827041
 30
0.0
 11
18.100585347853119
 21
3.392610111620797
 31
0.0
 12
27.591723902900771
 22
3.5869302298372978
 32
0.0
 13
27.591723902900771
 23
3.5869302298372978
 33
0.0
210
0.0
220
0.0
230
1.0
  0
SOLID
  5
532
  8
DRG
  6
CONTINUOUS
 62
     7
 10
29.43247673073007
 20
4.067745766627044
 30
0.0
 11
16.187882817280752
 21
3.5947021638827041
 31
0.0
 12
27.591723902900771
 22
3.5869302298372978
 32
0.0
 13
27.591723902900771
 23
3.5869302298372978
 33
0.0
210
0.0
220
0.0
230
1.0
  0
SOLID
  5
533
  8
DRG
  6
CONTINUOUS
 62
     7
 10
14.34356828270448
 20
4.1403907798498434
 30
0.0
 11
16.187882817280752
 21
3.5947021638827041
 31
0.0
 12
29.43247673073007
 22
4.067745766627044
 32
0.0
 13
29.43247673073007
 23
4.067745766627044
 33
0.0
210
0.0
220
0.0
230
1.0
  0
SOLID
  5
534
  8
DRG
  6
CONTINUOUS
 62
     7
 10
31.178312160316999
 20
4.823796827322667
 30
0.0
 11
14.34356828270448
 21
4.1403907798498434
 31
0.0
 12
29.43247673073007
 22
4.067745766627044
 32
0.0
 13
29.43247673073007
 23
4.067745766627044
 33
0.0
  0
SOLID
  5
535
  8
DRG
  6
CONTINUOUS
 62
     7
 10
12.628832942518519
 20
5.011570945580659
 30
0.0
 11
14.34356828270448
 21
4.1403907798498434
 31
0.0
 12
31.178312160316999
 22
4.823796827322667
 32
0.0
 13
31.178312160316999
 23
4.823796827322667
 33
0.0
210
0.0
220
0.0
230
1.0
  0
SOLID
  5
536
  8
DRG
  6
CONTINUOUS
 62
     7
 10
32.788345649587569
 20
5.83737796221381
 30
0.0
 11
12.628832942518519
 21
5.011570945580659
 31
0.0
 12
31.178312160316999
 22
4.823796827322667
 32
0.0
 13
31.178312160316999
 23
4.823796827322667
 33
0.0
210
0.0
220
0.0
230
1.0
  0
SOLID
  5
537
  8
DRG
  6
CONTINUOUS
 62
     7
 10
11.10056877931466
 20
6.1793383948239633
 30
0.0
 11
12.628832942518519
 21
5.011570945580659
 31
0.0
 12
32.788345649587569
 22
5.83737796221381
 32
0.0
 13
32.788345649587569
 23
5.83737796221381
 33
0.0
210
0.0
220
0.0
230
1.0
  0
SOLID
  5
538
  8
DRG
  6
CONTINUOUS
 62
     7
 10
34.22487291048742
 20
7.084752798528684
 30
0.0
 11
11.10056877931466
 21
6.1793383948239633
 31
0.0
 12
32.788345649587569
 22
5.83737796221381
 32
0.0
 13
32.788345649587569
 23
5.83737796221381
 33
0.0
210
0.0
220
0.0
230
1.0
  0
SOLID
  5
539
  8
DRG
  6
CONTINUOUS
 62
     7
 10
9.8094809813111574
 20
7.6049486030828204
 30
0.0
 11
11.10056877931466
 21
6.1793383948239633
 31
0.0
 12
34.22487291048742
 22
7.084752798528684
 32
0.0
 13
34.22487291048742
 23
7.084752798528684
 33
0.0
  0
SOLID
  5
53A
  8
DRG
  6
CONTINUOUS
 62
     7
 10
35.454252880266083
 20
8.5367099065339396
 30
0.0
 11
9.8094809813111574
 21
7.6049486030828204
 31
0.0
 12
34.22487291048742
 22
7.084752798528684
 32
0.0
 13
34.22487291048742
 23
7.084752798528684
 33
0.0
210
0.0
220
0.0
230
1.0
  0
SOLID
  5
53B
  8
DRG
  6
CONTINUOUS
 62
     7
 10
8.7984056310258474
 20
9.2411022645984033
 30
0.0
 11
9.8094809813111574
 21
7.6049486030828204
 31
0.0
 12
35.454252880266083
 22
8.5367099065339396
 32
0.0
 13
35.454252880266083
 23
8.5367099065339396
 33
0.0
210
0.0
220
0.0
230
1.0
  0
SOLID
  5
53C
  8
DRG
  6
CONTINUOUS
 62
     7
 10
23.40592258650463
 20
9.658646647821115
 30
0.0
 11
8.7984056310258474
 21
9.2411022645984033
 31
0.0
 12
35.454252880266083
 22
8.5367099065339396
 32
0.0
 13
35.454252880266083
 23
8.5367099065339396
 33
0.0
210
0.0
220
0.0
230
1.0
  0
SOLID
  5
53D
  8
DRG
  6
CONTINUOUS
 62
     7
 10
22.406570664932531
 20
9.7902138242648444
 30
0.0
 11
8.7984056310258474
 21
9.2411022645984033
 31
0.0
 12
23.40592258650463
 22
9.658646647821115
 32
0.0
 13
23.40592258650463
 23
9.658646647821115
 33
0.0
  0
SOLID
  5
53E
  8
DRG
  6
CONTINUOUS
 62
     7
 10
24.405274508076729
 20
9.7902138242648462
 30
0.0
 11
23.40592258650463
 21
9.658646647821115
 31
0.0
 12
35.454252880266083
 22
8.5367099065339396
 32
0.0
 13
35.454252880266083
 23
8.5367099065339396
 33
0.0
210
0.0
220
0.0
230
1.0
  0
SOLID
  5
53F
  8
DRG
  6
CONTINUOUS
 62
     7
 10
36.447695538829151
 20
10.1592468822997
 30
0.0
 11
24.405274508076729
 21
9.7902138242648462
 31
0.0
 12
35.454252880266083
 22
8.5367099065339396
 32
0.0
 13
35.454252880266083
 23
8.5367099065339396
 33
0.0
210
0.0
220
0.0
230
1.0
  0
SOLID
  5
540
  8
DRG
  6
CONTINUOUS
 62
     7
 10
21.475322925308429
 20
10.175949267946431
 30
0.0
 11
8.7984056310258474
 21
9.2411022645984033
 31
0.0
 12
22.406570664932531
 22
9.7902138242648444
 32
0.0
 13
22.406570664932531
 23
9.7902138242648444
 33
0.0
210
0.0
220
0.0
230
1.0
  0
SOLID
  5
541
  8
DRG
  6
CONTINUOUS
 62
     7
 10
25.336522247700831
 20
10.175949267946431
 30
0.0
 11
24.405274508076729
 21
9.7902138242648462
 31
0.0
 12
36.447695538829151
 22
10.1592468822997
 32
0.0
 13
36.447695538829151
 23
10.1592468822997
 33
0.0
210
0.0
220
0.0
230
1.0
  0
SOLID
  5
542
  8
DRG
  6
CONTINUOUS
 62
     7
 10
20.675642362128059
 20
10.78956574583694
 30
0.0
 11
8.7984056310258474
 21
9.2411022645984033
 31
0.0
 12
21.475322925308429
 22
10.175949267946431
 32
0.0
 13
21.475322925308429
 23
10.175949267946431
 33
0.0
210
0.0
220
0.0
230
1.0
  0
SOLID
  5
543
  8
DRG
  6
CONTINUOUS
 62
     7
 10
26.136202810881191
 20
10.78956574583694
 30
0.0
 11
25.336522247700831
 21
10.175949267946431
 31
0.0
 12
36.447695538829151
 22
10.1592468822997
 32
0.0
 13
36.447695538829151
 23
10.1592468822997
 33
0.0
210
0.0
220
0.0
230
1.0
  0
SOLID
  5
544
  8
DRG
  6
CONTINUOUS
 62
     7
 10
8.10088847740281
 20
11.033514602328481
 30
0.0
 11
8.7984056310258474
 21
9.2411022645984033
 31
0.0
 12
20.675642362128059
 22
10.78956574583694
 32
0.0
 13
20.675642362128059
 23
10.78956574583694
 33
0.0
  0
SOLID
  5
545
  8
DRG
  6
CONTINUOUS
 62
     7
 10
20.062025884237549
 20
11.5892463090173
 30
0.0
 11
8.10088847740281
 21
11.033514602328481
 31
0.0
 12
20.675642362128059
 22
10.78956574583694
 32
0.0
 13
20.675642362128059
 23
10.78956574583694
 33
0.0
210
0.0
220
0.0
230
1.0
  0
SOLID
  5
546
  8
DRG
  6
CONTINUOUS
 62
     7
 10
26.7498192887717
 20
11.589246309017311
 30
0.0
 11
26.136202810881191
 21
10.78956574583694
 31
0.0
 12
36.447695538829151
 22
10.1592468822997
 32
0.0
 13
36.447695538829151
 23
10.1592468822997
 33
0.0
210
0.0
220
0.0
230
1.0
  0
SOLID
  5
547
  8
DRG
  6
CONTINUOUS
 62
     7
 10
37.18193612279525
 20
11.914366627057049
 30
0.0
 11
26.7498192887717
 21
11.589246309017311
 31
0.0
 12
36.447695538829151
 22
10.1592468822997
 32
0.0
 13
36.447695538829151
 23
10.1592468822997
 33
0.0
  0
SOLID
  5
548
  8
DRG
  6
CONTINUOUS
 62
     7
 10
19.67629044055596
 20
12.5204940486414
 30
0.0
 11
8.10088847740281
 21
11.033514602328481
 31
0.0
 12
20.062025884237549
 22
11.5892463090173
 32
0.0
 13
20.062025884237549
 23
11.5892463090173
 33
0.0
210
0.0
220
0.0
230
1.0
  0
SOLID
  5
549
  8
DRG
  6
CONTINUOUS
 62
     7
 10
27.13555473245329
 20
12.52049404864141
 30
0.0
 11
26.7498192887717
 21
11.589246309017311
 31
0.0
 12
37.18193612279525
 22
11.914366627057049
 32
0.0
 13
37.18193612279525
 23
11.914366627057049
 33
0.0
210
0.0
220
0.0
230
1.0
  0
SOLID
  5
54A
  8
DRG
  6
CONTINUOUS
 62
     7
 10
7.7400719452999134
 20
12.9227164439025
 30
0.0
 11
8.10088847740281
 21
11.033514602328481
 31
0.0
 12
19.67629044055596
 22
12.5204940486414
 32
0.0
 13
19.67629044055596
 23
12.5204940486414
 33
0.0
210
0.0
220
0.0
230
1.0
  0
SOLID
  5
54B
  8
DRG
  6
CONTINUOUS
 62
     7
 10
19.544723264112228
 20
13.51984597021351
 30
0.0
 11
7.7400719452999134
 21
12.9227164439025
 31
0.0
 12
19.67629044055596
 22
12.5204940486414
 32
0.0
 13
19.67629044055596
 23
12.5204940486414
 33
0.0
210
0.0
220
0.0
230
1.0
  0
SOLID
  5
54C
  8
DRG
  6
CONTINUOUS
 62
     7
 10
27.267121908897021
 20
13.51984597021351
 30
0.0
 11
27.13555473245329
 21
12.52049404864141
 31
0.0
 12
37.18193612279525
 22
11.914366627057049
 32
0.0
 13
37.18193612279525
 23
11.914366627057049
 33
0.0
210
0.0
220
0.0
230
1.0
  0
SOLID
  5
54D
  8
DRG
  6
CONTINUOUS
 62
     7
 10
37.639779947293839
 20
13.760967175618781
 30
0.0
 11
27.267121908897021
 21
13.51984597021351
 31
0.0
 12
37.18193612279525
 22
11.914366627057049
 32
0.0
 13
37.18193612279525
 23
11.914366627057049
 33
0.0
210
0.0
220
0.0
230
1.0
  0
SOLID
  5
54E
  8
DRG
  6
CONTINUOUS
 62
     7
 10
19.544723264112228
 20
13.51984597021351
 30
0.0
 11
19.544723264112239
 21
14.846027306936771
 31
0.0
 12
7.7279273094568479
 22
14.846027306936771
 32
0.0
 13
7.7279273094568479
 23
14.846027306936771
 33
0.0
210
0.0
220
0.0
230
1.0
  0
SOLID
  5
54F
  8
DRG
  6
CONTINUOUS
 62
     7
 10
7.7279273094568479
 20
14.846027306936771
 30
0.0
 11
7.7400719452999134
 21
12.9227164439025
 31
0.0
 12
19.544723264112228
 22
13.51984597021351
 32
0.0
 13
19.544723264112228
 23
13.51984597021351
 33
0.0
  0
SOLID
  5
550
  8
DRG
  6
CONTINUOUS
 62
     7
 10
54.591268813605609
 20
16.00937723752882
 30
0.0
 11
56.468482394088369
 21
15.861637324670481
 31
0.0
 12
62.280536421539182
 22
15.861637324670481
 32
0.0
 13
62.280536421539182
 23
15.861637324670481
 33
0.0
210
0.0
220
0.0
230
1.0
  0
SOLID
  5
551
  8
DRG
  6
CONTINUOUS
 62
     7
 10
151.40301708587111
 20
16.00937723752882
 30
0.0
 11
153.28023066635379
 21
15.861637324670481
 31
0.0
 12
159.0922846938046
 22
15.861637324670481
 32
0.0
 13
159.0922846938046
 23
15.861637324670481
 33
0.0
  0
SOLID
  5
552
  8
DRG
  6
CONTINUOUS
 62
     7
 10
160.96949827428739
 20
16.009377237528831
 30
0.0
 11
151.40301708587111
 21
16.00937723752882
 31
0.0
 12
159.0922846938046
 22
15.861637324670481
 32
0.0
 13
159.0922846938046
 23
15.861637324670481
 33
0.0
210
0.0
220
0.0
230
1.0
  0
SOLID
  5
553
  8
DRG
  6
CONTINUOUS
 62
     7
 10
64.157750002021956
 20
16.009377237528831
 30
0.0
 11
54.591268813605609
 21
16.00937723752882
 31
0.0
 12
62.280536421539182
 22
15.861637324670481
 32
0.0
 13
62.280536421539182
 23
15.861637324670481
 33
0.0
210
0.0
220
0.0
230
1.0
  0
SOLID
  5
554
  8
DRG
  6
CONTINUOUS
 62
     7
 10
52.760278461589031
 20
16.448959129128621
 30
0.0
 11
54.591268813605609
 21
16.00937723752882
 31
0.0
 12
64.157750002021956
 22
16.009377237528831
 32
0.0
 13
64.157750002021956
 23
16.009377237528831
 33
0.0
210
0.0
220
0.0
230
1.0
  0
SOLID
  5
555
  8
DRG
  6
CONTINUOUS
 62
     7
 10
65.988740354038555
 20
16.448959129128632
 30
0.0
 11
52.760278461589031
 21
16.448959129128621
 31
0.0
 12
64.157750002021956
 22
16.009377237528831
 32
0.0
 13
64.157750002021956
 23
16.009377237528831
 33
0.0
  0
SOLID
  5
556
  8
DRG
  6
CONTINUOUS
 62
     7
 10
162.800488626304
 20
16.448959129128632
 30
0.0
 11
151.40301708587111
 21
16.00937723752882
 31
0.0
 12
160.96949827428739
 22
16.009377237528831
 32
0.0
 13
160.96949827428739
 23
16.009377237528831
 33
0.0
  0
SOLID
  5
557
  8
DRG
  6
CONTINUOUS
 62
     7
 10
149.5720267338545
 20
16.448959129128632
 30
0.0
 11
151.40301708587111
 21
16.00937723752882
 31
0.0
 12
162.800488626304
 22
16.448959129128632
 32
0.0
 13
162.800488626304
 23
16.448959129128632
 33
0.0
210
0.0
220
0.0
230
1.0
  0
SOLID
  5
558
  8
DRG
  6
CONTINUOUS
 62
     7
 10
51.020596397213851
 20
17.169559034410039
 30
0.0
 11
52.760278461589031
 21
16.448959129128621
 31
0.0
 12
65.988740354038555
 22
16.448959129128632
 32
0.0
 13
65.988740354038555
 23
16.448959129128632
 33
0.0
210
0.0
220
0.0
230
1.0
  0
SOLID
  5
559
  8
DRG
  6
CONTINUOUS
 62
     7
 10
67.728422418413743
 20
17.16955903441006
 30
0.0
 11
51.020596397213851
 21
17.169559034410039
 31
0.0
 12
65.988740354038555
 22
16.448959129128632
 32
0.0
 13
65.988740354038555
 23
16.448959129128632
 33
0.0
  0
SOLID
  5
55A
  8
DRG
  6
CONTINUOUS
 62
     7
 10
164.54017069067919
 20
17.16955903441006
 30
0.0
 11
149.5720267338545
 21
16.448959129128632
 31
0.0
 12
162.800488626304
 22
16.448959129128632
 32
0.0
 13
162.800488626304
 23
16.448959129128632
 33
0.0
210
0.0
220
0.0
230
1.0
  0
SOLID
  5
55B
  8
DRG
  6
CONTINUOUS
 62
     7
 10
147.83234466947931
 20
17.16955903441006
 30
0.0
 11
149.5720267338545
 21
16.448959129128632
 31
0.0
 12
164.54017069067919
 22
17.16955903441006
 32
0.0
 13
164.54017069067919
 23
17.16955903441006
 33
0.0
210
0.0
220
0.0
230
1.0
  0
SOLID
  5
55C
  8
DRG
  6
CONTINUOUS
 62
     7
 10
93.395207810878105
 20
17.299278596169501
 30
0.0
 11
90.043755964704772
 21
17.09444119032354
 31
0.0
 12
91.728558738884544
 22
17.048348788901301
 32
0.0
 13
91.728558738884544
 23
17.048348788901301
 33
0.0
  0
SOLID
  5
55D
  8
DRG
  6
CONTINUOUS
 62
     7
 10
88.393319299007203
 20
17.436118976949761
 30
0.0
 11
90.043755964704772
 21
17.09444119032354
 31
0.0
 12
93.395207810878105
 22
17.299278596169501
 32
0.0
 13
93.395207810878105
 23
17.299278596169501
 33
0.0
210
0.0
220
0.0
230
1.0
  0
SOLID
  5
55E
  8
DRG
  6
CONTINUOUS
 62
     7
 10
94.991749269489972
 20
17.839408458597301
 30
0.0
 11
88.393319299007203
 21
17.436118976949761
 31
0.0
 12
93.395207810878105
 22
17.299278596169501
 32
0.0
 13
93.395207810878105
 23
17.299278596169501
 33
0.0
210
0.0
220
0.0
230
1.0
  0
SOLID
  5
55F
  8
DRG
  6
CONTINUOUS
 62
     7
 10
86.828697268901934
 20
18.062731137909029
 30
0.0
 11
88.393319299007203
 21
17.436118976949761
 31
0.0
 12
94.991749269489972
 22
17.839408458597301
 32
0.0
 13
94.991749269489972
 23
17.839408458597301
 33
0.0
  0
SOLID
  5
560
  8
DRG
  6
CONTINUOUS
 62
     7
 10
49.415059366578753
 20
18.15343339217106
 30
0.0
 11
51.020596397213851
 21
17.169559034410039
 31
0.0
 12
67.728422418413743
 22
17.16955903441006
 32
0.0
 13
67.728422418413743
 23
17.16955903441006
 33
0.0
210
0.0
220
0.0
230
1.0
  0
SOLID
  5
561
  8
DRG
  6
CONTINUOUS
 62
     7
 10
69.333959449048862
 20
18.153433392171099
 30
0.0
 11
49.415059366578753
 21
18.15343339217106
 31
0.0
 12
67.728422418413743
 22
17.16955903441006
 32
0.0
 13
67.728422418413743
 23
17.16955903441006
 33
0.0
210
0.0
220
0.0
230
1.0
  0
SOLID
  5
562
  8
DRG
  6
CONTINUOUS
 62
     7
 10
166.1457077213143
 20
18.153433392171099
 30
0.0
 11
147.83234466947931
 21
17.16955903441006
 31
0.0
 12
164.54017069067919
 22
17.16955903441006
 32
0.0
 13
164.54017069067919
 23
17.16955903441006
 33
0.0
210
0.0
220
0.0
230
1.0
  0
SOLID
  5
563
  8
DRG
  6
CONTINUOUS
 62
     7
 10
146.22680763884421
 20
18.153433392171099
 30
0.0
 11
147.83234466947931
 21
17.16955903441006
 31
0.0
 12
166.1457077213143
 22
18.153433392171099
 32
0.0
 13
166.1457077213143
 23
18.153433392171099
 33
0.0
210
0.0
220
0.0
230
1.0
  0
SOLID
  5
564
  8
DRG
  6
CONTINUOUS
 62
     7
 10
96.774922223832405
 20
18.44288155552006
 30
0.0
 11
86.828697268901934
 21
18.062731137909029
 31
0.0
 12
94.991749269489972
 22
17.839408458597301
 32
0.0
 13
94.991749269489972
 23
17.839408458597301
 33
0.0
  0
SOLID
  5
565
  8
DRG
  6
CONTINUOUS
 62
     7
 10
85.398663329684837
 20
18.95474449545469
 30
0.0
 11
86.828697268901934
 21
18.062731137909029
 31
0.0
 12
96.774922223832405
 22
18.44288155552006
 32
0.0
 13
96.774922223832405
 23
18.44288155552006
 33
0.0
210
0.0
220
0.0
230
1.0
  0
SOLID
  5
566
  8
DRG
  6
CONTINUOUS
 62
     7
 10
16.63887701418912
 20
19.193077338746122
 30
0.0
 11
18.58303542025671
 21
18.945146626805109
 31
0.0
 12
20.271303339863209
 22
19.129413603414459
 32
0.0
 13
20.271303339863209
 23
19.129413603414459
 33
0.0
210
0.0
220
0.0
230
1.0
  0
SOLID
  5
567
  8
DRG
  6
CONTINUOUS
 62
     7
 10
98.426543494326594
 20
19.34622686195554
 30
0.0
 11
85.398663329684837
 21
18.95474449545469
 31
0.0
 12
96.774922223832405
 22
18.44288155552006
 32
0.0
 13
96.774922223832405
 23
18.44288155552006
 33
0.0
210
0.0
220
0.0
230
1.0
  0
SOLID
  5
568
  8
DRG
  6
CONTINUOUS
 62
     7
 10
47.983201019849858
 20
19.37635595043184
 30
0.0
 11
49.415059366578753
 21
18.15343339217106
 31
0.0
 12
69.333959449048862
 22
18.153433392171099
 32
0.0
 13
69.333959449048862
 23
18.153433392171099
 33
0.0
  0
SOLID
  5
569
  8
DRG
  6
CONTINUOUS
 62
     7
 10
167.57756606804321
 20
19.376355950431901
 30
0.0
 11
146.22680763884421
 21
18.153433392171099
 31
0.0
 12
166.1457077213143
 22
18.153433392171099
 32
0.0
 13
166.1457077213143
 23
18.153433392171099
 33
0.0
210
0.0
220
0.0
230
1.0
  0
SOLID
  5
56A
  8
DRG
  6
CONTINUOUS
 62
     7
 10
70.76581779577775
 20
19.376355950431901
 30
0.0
 11
47.983201019849858
 21
19.37635595043184
 31
0.0
 12
69.333959449048862
 22
18.153433392171099
 32
0.0
 13
69.333959449048862
 23
18.153433392171099
 33
0.0
210
0.0
220
0.0
230
1.0
  0
SOLID
  5
56B
  8
DRG
  6
CONTINUOUS
 62
     7
 10
144.79494929211521
 20
19.376355950431911
 30
0.0
 11
146.22680763884421
 21
18.153433392171099
 31
0.0
 12
167.57756606804321
 22
19.376355950431901
 32
0.0
 13
167.57756606804321
 23
19.376355950431901
 33
0.0
210
0.0
220
0.0
230
1.0
  0
SOLID
  5
56C
  8
DRG
  6
CONTINUOUS
 62
     7
 10
102.3181837587821
 20
19.484710699009419
 30
0.0
 11
102.6710305977499
 21
17.89352120355198
 31
0.0
 12
111.8021775281067
 22
17.893521203552009
 32
0.0
 13
111.8021775281067
 23
17.893521203552009
 33
0.0
210
0.0
220
0.0
230
1.0
  0
SOLID
  5
56D
  8
DRG
  6
CONTINUOUS
 62
     7
 10
21.895927098915749
 20
19.624186812635841
 30
0.0
 11
16.63887701418912
 21
19.193077338746122
 31
0.0
 12
20.271303339863209
 22
19.129413603414459
 32
0.0
 13
20.271303339863209
 23
19.129413603414459
 33
0.0
210
0.0
220
0.0
230
1.0
  0
SOLID
  5
56E
  8
DRG
  6
CONTINUOUS
 62
     7
 10
14.76019055141534
 20
19.751430918834409
 30
0.0
 11
16.63887701418912
 21
19.193077338746122
 31
0.0
 12
21.895927098915749
 22
19.624186812635841
 32
0.0
 13
21.895927098915749
 23
19.624186812635841
 33
0.0
210
0.0
220
0.0
230
1.0
  0
SOLID
  5
56F
  8
DRG
  6
CONTINUOUS
 62
     7
 10
23.40031659456379
 20
20.41223194613077
 30
0.0
 11
14.76019055141534
 21
19.751430918834409
 31
0.0
 12
21.895927098915749
 22
19.624186812635841
 32
0.0
 13
21.895927098915749
 23
19.624186812635841
 33
0.0
210
0.0
220
0.0
230
1.0
  0
SOLID
  5
570
  8
DRG
  6
CONTINUOUS
 62
     7
 10
84.027895067150837
 20
20.41802219979682
 30
0.0
 11
85.398663329684837
 21
18.95474449545469
 31
0.0
 12
98.426543494326594
 22
19.34622686195554
 32
0.0
 13
98.426543494326594
 23
19.34622686195554
 33
0.0
210
0.0
220
0.0
230
1.0
  0
SOLID
  5
571
  8
DRG
  6
CONTINUOUS
 62
     7
 10
99.896639117703884
 20
20.522111389421919
 30
0.0
 11
84.027895067150837
 21
20.41802219979682
 31
0.0
 12
98.426543494326594
 22
19.34622686195554
 32
0.0
 13
98.426543494326594
 23
19.34622686195554
 33
0.0
210
0.0
220
0.0
230
1.0
  0
SOLID
  5
572
  8
DRG
  6
CONTINUOUS
 62
     7
 10
12.996201983781489
 20
20.605577205523009
 30
0.0
 11
14.76019055141534
 21
19.751430918834409
 31
0.0
 12
23.40031659456379
 22
20.41223194613077
 32
0.0
 13
23.40031659456379
 23
20.41223194613077
 33
0.0
210
0.0
220
0.0
230
1.0
  0
SOLID
  5
573
  8
DRG
  6
CONTINUOUS
 62
     7
 10
111.2870334115631
 20
20.69438210209054
 30
0.0
 11
102.3181837587821
 21
19.484710699009419
 31
0.0
 12
111.8021775281067
 22
17.893521203552009
 32
0.0
 13
111.8021775281067
 23
17.893521203552009
 33
0.0
210
0.0
220
0.0
230
1.0
  0
SOLID
  5
574
  8
DRG
  6
CONTINUOUS
 62
     7
 10
46.76027846158906
 20
20.80821429716071
 30
0.0
 11
47.983201019849858
 21
19.37635595043184
 31
0.0
 12
70.76581779577775
 22
19.376355950431901
 32
0.0
 13
70.76581779577775
 23
19.376355950431901
 33
0.0
  0
SOLID
  5
575
  8
DRG
  6
CONTINUOUS
 62
     7
 10
168.800488626304
 20
20.808214297160799
 30
0.0
 11
144.79494929211521
 21
19.376355950431911
 31
0.0
 12
167.57756606804321
 22
19.376355950431901
 32
0.0
 13
167.57756606804321
 23
19.376355950431901
 33
0.0
210
0.0
220
0.0
230
1.0
  0
SOLID
  5
576
  8
DRG
  6
CONTINUOUS
 62
     7
 10
71.988740354038555
 20
20.808214297160799
 30
0.0
 11
46.76027846158906
 21
20.80821429716071
 31
0.0
 12
70.76581779577775
 22
19.376355950431901
 32
0.0
 13
70.76581779577775
 23
19.376355950431901
 33
0.0
  0
SOLID
  5
577
  8
DRG
  6
CONTINUOUS
 62
     7
 10
143.57202673385439
 20
20.808214297160799
 30
0.0
 11
144.79494929211521
 21
19.376355950431911
 31
0.0
 12
168.800488626304
 22
20.808214297160799
 32
0.0
 13
168.800488626304
 23
20.808214297160799
 33
0.0
210
0.0
220
0.0
230
1.0
  0
SOLID
  5
578
  8
DRG
  6
CONTINUOUS
 62
     7
 10
102.1211660476033
 20
21.102600968374279
 30
0.0
 11
102.3181837587821
 21
19.484710699009419
 31
0.0
 12
111.2870334115631
 22
20.69438210209054
 32
0.0
 13
111.2870334115631
 23
20.69438210209054
 33
0.0
210
0.0
220
0.0
230
1.0
  0
SOLID
  5
579
  8
DRG
  6
CONTINUOUS
 62
     7
 10
24.732069813226289
 20
21.466099229816571
 30
0.0
 11
12.996201983781489
 21
20.605577205523009
 31
0.0
 12
23.40031659456379
 22
20.41223194613077
 32
0.0
 13
23.40031659456379
 23
20.41223194613077
 33
0.0
  0
SOLID
  5
57A
  8
DRG
  6
CONTINUOUS
 62
     7
 10
11.39313191169536
 20
21.733135580858232
 30
0.0
 11
12.996201983781489
 21
20.605577205523009
 31
0.0
 12
24.732069813226289
 22
21.466099229816571
 32
0.0
 13
24.732069813226289
 23
21.466099229816571
 33
0.0
210
0.0
220
0.0
230
1.0
  0
SOLID
  5
57B
  8
DRG
  6
CONTINUOUS
 62
     7
 10
101.14072764655459
 20
21.93495578856496
 30
0.0
 11
84.027895067150837
 21
20.41802219979682
 31
0.0
 12
99.896639117703884
 22
20.522111389421919
 32
0.0
 13
99.896639117703884
 23
20.522111389421919
 33
0.0
210
0.0
220
0.0
230
1.0
  0
SOLID
  5
57C
  8
DRG
  6
CONTINUOUS
 62
     7
 10
82.919900870315985
 20
22.089110506672171
 30
0.0
 11
84.027895067150837
 21
20.41802219979682
 31
0.0
 12
101.14072764655459
 22
21.93495578856496
 32
0.0
 13
101.14072764655459
 23
21.93495578856496
 33
0.0
  0
SOLID
  5
57D
  8
DRG
  6
CONTINUOUS
 62
     7
 10
45.776404103828007
 20
22.413751327795801
 30
0.0
 11
46.76027846158906
 21
20.80821429716071
 31
0.0
 12
71.988740354038555
 22
20.808214297160799
 32
0.0
 13
71.988740354038555
 23
20.808214297160799
 33
0.0
210
0.0
220
0.0
230
1.0
  0
SOLID
  5
57E
  8
DRG
  6
CONTINUOUS
 62
     7
 10
169.78436298406501
 20
22.413751327795911
 30
0.0
 11
143.57202673385439
 21
20.808214297160799
 31
0.0
 12
168.800488626304
 22
20.808214297160799
 32
0.0
 13
168.800488626304
 23
20.808214297160799
 33
0.0
210
0.0
220
0.0
230
1.0
  0
SOLID
  5
57F
  8
DRG
  6
CONTINUOUS
 62
     7
 10
72.972614711799594
 20
22.413751327795911
 30
0.0
 11
45.776404103828007
 21
22.413751327795801
 31
0.0
 12
71.988740354038555
 22
20.808214297160799
 32
0.0
 13
71.988740354038555
 23
20.808214297160799
 33
0.0
210
0.0
220
0.0
230
1.0
  0
SOLID
  5
580
  8
DRG
  6
CONTINUOUS
 62
     7
 10
142.5881523760934
 20
22.413751327795921
 30
0.0
 11
143.57202673385439
 21
20.808214297160799
 31
0.0
 12
169.78436298406501
 22
22.413751327795911
 32
0.0
 13
169.78436298406501
 23
22.413751327795911
 33
0.0
210
0.0
220
0.0
230
1.0
  0
SOLID
  5
581
  8
DRG
  6
CONTINUOUS
 62
     7
 10
25.844798136495001
 20
22.74907957480897
 30
0.0
 11
11.39313191169536
 21
21.733135580858232
 31
0.0
 12
24.732069813226289
 22
21.466099229816571
 32
0.0
 13
24.732069813226289
 23
21.466099229816571
 33
0.0
210
0.0
220
0.0
230
1.0
  0
SOLID
  5
582
  8
DRG
  6
CONTINUOUS
 62
     7
 10
9.9929844969679333
 20
23.104561394688101
 30
0.0
 11
11.39313191169536
 21
21.733135580858232
 31
0.0
 12
25.844798136495001
 22
22.74907957480897
 32
0.0
 13
25.844798136495001
 23
22.74907957480897
 33
0.0
210
0.0
220
0.0
230
1.0
  0
SOLID
  5
583
  8
DRG
  6
CONTINUOUS
 62
     7
 10
111.2523129779601
 20
23.54201089202471
 30
0.0
 11
102.1211660476033
 21
21.102600968374279
 31
0.0
 12
111.2870334115631
 22
20.69438210209054
 32
0.0
 13
111.2870334115631
 23
20.69438210209054
 33
0.0
210
0.0
220
0.0
230
1.0
  0
SOLID
  5
584
  8
DRG
  6
CONTINUOUS
 62
     7
 10
102.1211660476033
 20
23.542010892025001
 30
0.0
 11
82.919900870315985
 21
22.089110506672171
 31
0.0
 12
101.14072764655459
 22
21.93495578856496
 32
0.0
 13
101.14072764655459
 23
21.93495578856496
 33
0.0
210
0.0
220
0.0
230
1.0
  0
SOLID
  5
585
  8
DRG
  6
CONTINUOUS
 62
     7
 10
102.1211660476033
 20
23.542010892025001
 30
0.0
 11
102.1211660476033
 21
21.102600968374279
 31
0.0
 12
111.2523129779601
 22
23.54201089202471
 32
0.0
 13
111.2523129779601
 23
23.54201089202471
 33
0.0
210
0.0
220
0.0
230
1.0
  0
SOLID
  5
586
  8
DRG
  6
CONTINUOUS
 62
     7
 10
156.18625891463009
 20
23.758749615986972
 30
0.0
 11
142.5881523760934
 21
22.413751327795921
 31
0.0
 12
169.78436298406501
 22
22.413751327795911
 32
0.0
 13
169.78436298406501
 23
22.413751327795911
 33
0.0
210
0.0
220
0.0
230
1.0
  0
SOLID
  5
587
  8
DRG
  6
CONTINUOUS
 62
     7
 10
95.863486513980718
 20
23.758749615986972
 30
0.0
 11
102.1211660476033
 21
23.542010892025001
 31
0.0
 12
111.2523129779601
 22
23.54201089202471
 32
0.0
 13
111.2523129779601
 23
23.54201089202471
 33
0.0
210
0.0
220
0.0
230
1.0
  0
SOLID
  5
588
  8
DRG
  6
CONTINUOUS
 62
     7
 10
95.863486513980718
 20
23.758749615986972
 30
0.0
 11
82.919900870315985
 21
22.089110506672171
 31
0.0
 12
102.1211660476033
 22
23.542010892025001
 32
0.0
 13
102.1211660476033
 23
23.542010892025001
 33
0.0
210
0.0
220
0.0
230
1.0
  0
SOLID
  5
589
  8
DRG
  6
CONTINUOUS
 62
     7
 10
59.374510642364612
 20
23.758749615986979
 30
0.0
 11
45.776404103828007
 21
22.413751327795801
 31
0.0
 12
72.972614711799594
 22
22.413751327795911
 32
0.0
 13
72.972614711799594
 23
22.413751327795911
 33
0.0
210
0.0
220
0.0
230
1.0
  0
SOLID
  5
58A
  8
DRG
  6
CONTINUOUS
 62
     7
 10
155.18690699305799
 20
23.890316792430699
 30
0.0
 11
142.5881523760934
 21
22.413751327795921
 31
0.0
 12
156.18625891463009
 22
23.758749615986972
 32
0.0
 13
156.18625891463009
 23
23.758749615986972
 33
0.0
210
0.0
220
0.0
230
1.0
  0
SOLID
  5
58B
  8
DRG
  6
CONTINUOUS
 62
     7
 10
157.18561083620219
 20
23.890316792430699
 30
0.0
 11
156.18625891463009
 21
23.758749615986972
 31
0.0
 12
169.78436298406501
 22
22.413751327795911
 32
0.0
 13
169.78436298406501
 23
22.413751327795911
 33
0.0
210
0.0
220
0.0
230
1.0
  0
SOLID
  5
58C
  8
DRG
  6
CONTINUOUS
 62
     7
 10
58.375158720792513
 20
23.89031679243071
 30
0.0
 11
45.776404103828007
 21
22.413751327795801
 31
0.0
 12
59.374510642364612
 22
23.758749615986979
 32
0.0
 13
59.374510642364612
 23
23.758749615986979
 33
0.0
210
0.0
220
0.0
230
1.0
  0
SOLID
  5
58D
  8
DRG
  6
CONTINUOUS
 62
     7
 10
60.373862563936711
 20
23.89031679243071
 30
0.0
 11
59.374510642364612
 21
23.758749615986979
 31
0.0
 12
72.972614711799594
 22
22.413751327795911
 32
0.0
 13
72.972614711799594
 23
22.413751327795911
 33
0.0
210
0.0
220
0.0
230
1.0
  0
SOLID
  5
58E
  8
DRG
  6
CONTINUOUS
 62
     7
 10
94.864134592408647
 20
23.890316792430731
 30
0.0
 11
82.919900870315985
 21
22.089110506672171
 31
0.0
 12
95.863486513980718
 22
23.758749615986972
 32
0.0
 13
95.863486513980718
 23
23.758749615986972
 33
0.0
210
0.0
220
0.0
230
1.0
  0
SOLID
  5
58F
  8
DRG
  6
CONTINUOUS
 62
     7
 10
82.105613684769864
 20
23.921356027624689
 30
0.0
 11
82.919900870315985
 21
22.089110506672171
 31
0.0
 12
94.864134592408647
 22
23.890316792430731
 32
0.0
 13
94.864134592408647
 23
23.890316792430731
 33
0.0
210
0.0
220
0.0
230
1.0
  0
SOLID
  5
590
  8
DRG
  6
CONTINUOUS
 62
     7
 10
97.173405164404457
 20
23.979508094530029
 30
0.0
 11
95.863486513980718
 21
23.758749615986972
 31
0.0
 12
111.2523129779601
 22
23.54201089202471
 32
0.0
 13
111.2523129779601
 23
23.54201089202471
 33
0.0
210
0.0
220
0.0
230
1.0
  0
SOLID
  5
591
  8
DRG
  6
CONTINUOUS
 62
     7
 10
45.055804198546561
 20
24.153433392170971
 30
0.0
 11
45.776404103828007
 21
22.413751327795801
 31
0.0
 12
58.375158720792513
 22
23.89031679243071
 32
0.0
 13
58.375158720792513
 23
23.89031679243071
 33
0.0
  0
SOLID
  5
592
  8
DRG
  6
CONTINUOUS
 62
     7
 10
170.5049628893465
 20
24.15343339217111
 30
0.0
 11
157.18561083620219
 21
23.890316792430699
 31
0.0
 12
169.78436298406501
 22
22.413751327795911
 32
0.0
 13
169.78436298406501
 23
22.413751327795911
 33
0.0
210
0.0
220
0.0
230
1.0
  0
SOLID
  5
593
  8
DRG
  6
CONTINUOUS
 62
     7
 10
73.693214617081026
 20
24.15343339217111
 30
0.0
 11
60.373862563936711
 21
23.89031679243071
 31
0.0
 12
72.972614711799594
 22
22.413751327795911
 32
0.0
 13
72.972614711799594
 23
22.413751327795911
 33
0.0
210
0.0
220
0.0
230
1.0
  0
SOLID
  5
594
  8
DRG
  6
CONTINUOUS
 62
     7
 10
141.867552470812
 20
24.15343339217111
 30
0.0
 11
142.5881523760934
 21
22.413751327795921
 31
0.0
 12
155.18690699305799
 22
23.890316792430699
 32
0.0
 13
155.18690699305799
 23
23.890316792430699
 33
0.0
210
0.0
220
0.0
230
1.0
  0
SOLID
  5
595
  8
DRG
  6
CONTINUOUS
 62
     7
 10
26.699742183985649
 20
24.216483255703061
 30
0.0
 11
9.9929844969679333
 21
23.104561394688101
 31
0.0
 12
25.844798136495001
 22
22.74907957480897
 32
0.0
 13
25.844798136495001
 23
22.74907957480897
 33
0.0
210
0.0
220
0.0
230
1.0
  0
SOLID
  5
596
  8
DRG
  6
CONTINUOUS
 62
     7
 10
154.25565925343389
 20
24.276052236112282
 30
0.0
 11
141.867552470812
 21
24.15343339217111
 31
0.0
 12
155.18690699305799
 22
23.890316792430699
 32
0.0
 13
155.18690699305799
 23
23.890316792430699
 33
0.0
210
0.0
220
0.0
230
1.0
  0
SOLID
  5
597
  8
DRG
  6
CONTINUOUS
 62
     7
 10
158.11685857582631
 20
24.276052236112289
 30
0.0
 11
157.18561083620219
 21
23.890316792430699
 31
0.0
 12
170.5049628893465
 22
24.15343339217111
 32
0.0
 13
170.5049628893465
 23
24.15343339217111
 33
0.0
210
0.0
220
0.0
230
1.0
  0
SOLID
  5
598
  8
DRG
  6
CONTINUOUS
 62
     7
 10
57.443910981168422
 20
24.276052236112289
 30
0.0
 11
45.055804198546561
 21
24.153433392170971
 31
0.0
 12
58.375158720792513
 22
23.89031679243071
 32
0.0
 13
58.375158720792513
 23
23.89031679243071
 33
0.0
210
0.0
220
0.0
230
1.0
  0
SOLID
  5
599
  8
DRG
  6
CONTINUOUS
 62
     7
 10
61.305110303560809
 20
24.276052236112299
 30
0.0
 11
60.373862563936711
 21
23.89031679243071
 31
0.0
 12
73.693214617081026
 22
24.15343339217111
 32
0.0
 13
73.693214617081026
 23
24.15343339217111
 33
0.0
210
0.0
220
0.0
230
1.0
  0
SOLID
  5
59A
  8
DRG
  6
CONTINUOUS
 62
     7
 10
93.932886852784591
 20
24.276052236112349
 30
0.0
 11
82.105613684769864
 21
23.921356027624689
 31
0.0
 12
94.864134592408647
 22
23.890316792430731
 32
0.0
 13
94.864134592408647
 23
23.890316792430731
 33
0.0
210
0.0
220
0.0
230
1.0
  0
SOLID
  5
59B
  8
DRG
  6
CONTINUOUS
 62
     7
 10
98.402359265448993
 20
24.483782815394029
 30
0.0
 11
97.173405164404457
 21
23.979508094530029
 31
0.0
 12
111.2523129779601
 22
23.54201089202471
 32
0.0
 13
111.2523129779601
 23
23.54201089202471
 33
0.0
210
0.0
220
0.0
230
1.0
  0
SOLID
  5
59C
  8
DRG
  6
CONTINUOUS
 62
     7
 10
8.8324468561460723
 20
24.6839201031652
 30
0.0
 11
9.9929844969679333
 21
23.104561394688101
 31
0.0
 12
26.699742183985649
 22
24.216483255703061
 32
0.0
 13
26.699742183985649
 23
24.216483255703061
 33
0.0
  0
SOLID
  5
59D
  8
DRG
  6
CONTINUOUS
 62
     7
 10
153.45597869025349
 20
24.889668714002791
 30
0.0
 11
141.867552470812
 21
24.15343339217111
 31
0.0
 12
154.25565925343389
 22
24.276052236112282
 32
0.0
 13
154.25565925343389
 23
24.276052236112282
 33
0.0
210
0.0
220
0.0
230
1.0
  0
SOLID
  5
59E
  8
DRG
  6
CONTINUOUS
 62
     7
 10
158.9165391390066
 20
24.889668714002799
 30
0.0
 11
158.11685857582631
 21
24.276052236112289
 31
0.0
 12
170.5049628893465
 22
24.15343339217111
 32
0.0
 13
170.5049628893465
 23
24.15343339217111
 33
0.0
  0
SOLID
  5
59F
  8
DRG
  6
CONTINUOUS
 62
     7
 10
56.644230417988048
 20
24.889668714002799
 30
0.0
 11
45.055804198546561
 21
24.153433392170971
 31
0.0
 12
57.443910981168422
 22
24.276052236112289
 32
0.0
 13
57.443910981168422
 23
24.276052236112289
 33
0.0
  0
SOLID
  5
5A0
  8
DRG
  6
CONTINUOUS
 62
     7
 10
62.104790866741169
 20
24.889668714002809
 30
0.0
 11
61.305110303560809
 21
24.276052236112299
 31
0.0
 12
73.693214617081026
 22
24.15343339217111
 32
0.0
 13
73.693214617081026
 23
24.15343339217111
 33
0.0
210
0.0
220
0.0
230
1.0
  0
SOLID
  5
5A1
  8
DRG
  6
CONTINUOUS
 62
     7
 10
93.13320628960426
 20
24.889668714002859
 30
0.0
 11
82.105613684769864
 21
23.921356027624689
 31
0.0
 12
93.932886852784591
 22
24.276052236112349
 32
0.0
 13
93.932886852784591
 23
24.276052236112349
 33
0.0
210
0.0
220
0.0
230
1.0
  0
SOLID
  5
5A2
  8
DRG
  6
CONTINUOUS
 62
     7
 10
99.489802543822094
 20
25.246729925551559
 30
0.0
 11
98.402359265448993
 21
24.483782815394029
 31
0.0
 12
111.2523129779601
 22
23.54201089202471
 32
0.0
 13
111.2523129779601
 23
23.54201089202471
 33
0.0
210
0.0
220
0.0
230
1.0
  0
SOLID
  5
5A3
  8
DRG
  6
CONTINUOUS
 62
     7
 10
22.683854862926161
 20
25.455509253088579
 30
0.0
 11
8.8324468561460723
 21
24.6839201031652
 31
0.0
 12
26.699742183985649
 22
24.216483255703061
 32
0.0
 13
26.699742183985649
 23
24.216483255703061
 33
0.0
210
0.0
220
0.0
230
1.0
  0
SOLID
  5
5A4
  8
DRG
  6
CONTINUOUS
 62
     7
 10
21.324900358829058
 20
25.598514200010129
 30
0.0
 11
8.8324468561460723
 21
24.6839201031652
 31
0.0
 12
22.683854862926161
 22
25.455509253088579
 32
0.0
 13
22.683854862926161
 23
25.455509253088579
 33
0.0
210
0.0
220
0.0
230
1.0
  0
SOLID
  5
5A5
  8
DRG
  6
CONTINUOUS
 62
     7
 10
152.84236221236301
 20
25.689349277183162
 30
0.0
 11
141.867552470812
 21
24.15343339217111
 31
0.0
 12
153.45597869025349
 22
24.889668714002791
 32
0.0
 13
153.45597869025349
 23
24.889668714002791
 33
0.0
210
0.0
220
0.0
230
1.0
  0
SOLID
  5
5A6
  8
DRG
  6
CONTINUOUS
 62
     7
 10
159.5301556168971
 20
25.689349277183162
 30
0.0
 11
158.9165391390066
 21
24.889668714002799
 31
0.0
 12
170.5049628893465
 22
24.15343339217111
 32
0.0
 13
170.5049628893465
 23
24.15343339217111
 33
0.0
210
0.0
220
0.0
230
1.0
  0
SOLID
  5
5A7
  8
DRG
  6
CONTINUOUS
 62
     7
 10
56.030613940097538
 20
25.689349277183169
 30
0.0
 11
45.055804198546561
 21
24.153433392170971
 31
0.0
 12
56.644230417988048
 22
24.889668714002799
 32
0.0
 13
56.644230417988048
 23
24.889668714002799
 33
0.0
210
0.0
220
0.0
230
1.0
  0
SOLID
  5
5A8
  8
DRG
  6
CONTINUOUS
 62
     7
 10
62.718407344631679
 20
25.689349277183169
 30
0.0
 11
62.104790866741169
 21
24.889668714002809
 31
0.0
 12
73.693214617081026
 22
24.15343339217111
 32
0.0
 13
73.693214617081026
 23
24.15343339217111
 33
0.0
210
0.0
220
0.0
230
1.0
  0
SOLID
  5
5A9
  8
DRG
  6
CONTINUOUS
 62
     7
 10
92.519589811713786
 20
25.689349277183219
 30
0.0
 11
82.105613684769864
 21
23.921356027624689
 31
0.0
 12
93.13320628960426
 22
24.889668714002859
 32
0.0
 13
93.13320628960426
 23
24.889668714002859
 33
0.0
210
0.0
220
0.0
230
1.0
  0
SOLID
  5
5AA
  8
DRG
  6
CONTINUOUS
 62
     7
 10
27.267121908897021
 20
25.817196576320061
 30
0.0
 11
22.683854862926161
 21
25.455509253088579
 31
0.0
 12
26.699742183985649
 22
24.216483255703061
 32
0.0
 13
26.699742183985649
 23
24.216483255703061
 33
0.0
210
0.0
220
0.0
230
1.0
  0
SOLID
  5
5AB
  8
DRG
  6
CONTINUOUS
 62
     7
 10
27.267121908897021
 20
25.817196576320061
 30
0.0
 11
27.267121908897021
 21
13.51984597021351
 31
0.0
 12
37.639779947293839
 22
13.760967175618781
 32
0.0
 13
37.639779947293839
 23
13.760967175618781
 33
0.0
  0
SOLID
  5
5AC
  8
DRG
  6
CONTINUOUS
 62
     7
 10
81.607766753409166
 20
25.863606192389771
 30
0.0
 11
82.105613684769864
 21
23.921356027624689
 31
0.0
 12
92.519589811713786
 22
25.689349277183219
 32
0.0
 13
92.519589811713786
 23
25.689349277183219
 33
0.0
210
0.0
220
0.0
230
1.0
  0
SOLID
  5
5AD
  8
DRG
  6
CONTINUOUS
 62
     7
 10
44.616222306946739
 20
25.984423744187549
 30
0.0
 11
45.055804198546561
 21
24.153433392170971
 31
0.0
 12
56.030613940097538
 22
25.689349277183169
 32
0.0
 13
56.030613940097538
 23
25.689349277183169
 33
0.0
210
0.0
220
0.0
230
1.0
  0
SOLID
  5
5AE
  8
DRG
  6
CONTINUOUS
 62
     7
 10
74.13279650868084
 20
25.984423744187708
 30
0.0
 11
62.718407344631679
 21
25.689349277183169
 31
0.0
 12
73.693214617081026
 22
24.15343339217111
 32
0.0
 13
73.693214617081026
 23
24.15343339217111
 33
0.0
210
0.0
220
0.0
230
1.0
  0
SOLID
  5
5AF
  8
DRG
  6
CONTINUOUS
 62
     7
 10
170.9445447809463
 20
25.984423744187708
 30
0.0
 11
159.5301556168971
 21
25.689349277183162
 31
0.0
 12
170.5049628893465
 22
24.15343339217111
 32
0.0
 13
170.5049628893465
 23
24.15343339217111
 33
0.0
210
0.0
220
0.0
230
1.0
  0
SOLID
  5
5B0
  8
DRG
  6
CONTINUOUS
 62
     7
 10
141.4279705792122
 20
25.984423744187708
 30
0.0
 11
141.867552470812
 21
24.15343339217111
 31
0.0
 12
152.84236221236301
 22
25.689349277183162
 32
0.0
 13
152.84236221236301
 23
25.689349277183162
 33
0.0
210
0.0
220
0.0
230
1.0
  0
SOLID
  5
5B1
  8
DRG
  6
CONTINUOUS
 62
     7
 10
24.051224454271221
 20
25.98993993797998
 30
0.0
 11
22.683854862926161
 21
25.455509253088579
 31
0.0
 12
27.267121908897021
 22
25.817196576320061
 32
0.0
 13
27.267121908897021
 23
25.817196576320061
 33
0.0
210
0.0
220
0.0
230
1.0
  0
SOLID
  5
5B2
  8
DRG
  6
CONTINUOUS
 62
     7
 10
20.047581694184561
 20
26.08396737797953
 30
0.0
 11
8.8324468561460723
 21
24.6839201031652
 31
0.0
 12
21.324900358829058
 22
25.598514200010129
 32
0.0
 13
21.324900358829058
 23
25.598514200010129
 33
0.0
210
0.0
220
0.0
230
1.0
  0
SOLID
  5
5B3
  8
DRG
  6
CONTINUOUS
 62
     7
 10
100.382160469876
 20
26.230761687429851
 30
0.0
 11
99.489802543822094
 21
25.246729925551559
 31
0.0
 12
111.2523129779601
 22
23.54201089202471
 32
0.0
 13
111.2523129779601
 23
23.54201089202471
 33
0.0
210
0.0
220
0.0
230
1.0
  0
SOLID
  5
5B4
  8
DRG
  6
CONTINUOUS
 62
     7
 10
7.9419277727893016
 20
26.429828837316059
 30
0.0
 11
8.8324468561460723
 21
24.6839201031652
 31
0.0
 12
20.047581694184561
 22
26.08396737797953
 32
0.0
 13
20.047581694184561
 23
26.08396737797953
 33
0.0
  0
SOLID
  5
5B5
  8
DRG
  6
CONTINUOUS
 62
     7
 10
152.45662676868139
 20
26.62059701680726
 30
0.0
 11
141.4279705792122
 21
25.984423744187708
 31
0.0
 12
152.84236221236301
 22
25.689349277183162
 32
0.0
 13
152.84236221236301
 23
25.689349277183162
 33
0.0
210
0.0
220
0.0
230
1.0
  0
SOLID
  5
5B6
  8
DRG
  6
CONTINUOUS
 62
     7
 10
159.91589106057879
 20
26.62059701680727
 30
0.0
 11
159.5301556168971
 21
25.689349277183162
 31
0.0
 12
170.9445447809463
 22
25.984423744187708
 32
0.0
 13
170.9445447809463
 23
25.984423744187708
 33
0.0
210
0.0
220
0.0
230
1.0
  0
SOLID
  5
5B7
  8
DRG
  6
CONTINUOUS
 62
     7
 10
55.644878496415949
 20
26.62059701680727
 30
0.0
 11
44.616222306946739
 21
25.984423744187549
 31
0.0
 12
56.030613940097538
 22
25.689349277183169
 32
0.0
 13
56.030613940097538
 23
25.689349277183169
 33
0.0
210
0.0
220
0.0
230
1.0
  0
SOLID
  5
5B8
  8
DRG
  6
CONTINUOUS
 62
     7
 10
63.104142788313268
 20
26.62059701680727
 30
0.0
 11
62.718407344631679
 21
25.689349277183169
 31
0.0
 12
74.13279650868084
 22
25.984423744187708
 32
0.0
 13
74.13279650868084
 23
25.984423744187708
 33
0.0
210
0.0
220
0.0
230
1.0
  0
SOLID
  5
5B9
  8
DRG
  6
CONTINUOUS
 62
     7
 10
92.133854368032203
 20
26.620597016807292
 30
0.0
 11
81.607766753409166
 21
25.863606192389771
 31
0.0
 12
92.519589811713786
 22
25.689349277183219
 32
0.0
 13
92.519589811713786
 23
25.689349277183219
 33
0.0
210
0.0
220
0.0
230
1.0
  0
SOLID
  5
5BA
  8
DRG
  6
CONTINUOUS
 62
     7
 10
25.258677615930779
 20
26.825028327725018
 30
0.0
 11
24.051224454271221
 21
25.98993993797998
 31
0.0
 12
27.267121908897021
 22
25.817196576320061
 32
0.0
 13
27.267121908897021
 23
25.817196576320061
 33
0.0
210
0.0
220
0.0
230
1.0
  0
SOLID
  5
5BB
  8
DRG
  6
CONTINUOUS
 62
     7
 10
18.936680407078839
 20
26.879647017882871
 30
0.0
 11
7.9419277727893016
 21
26.429828837316059
 31
0.0
 12
20.047581694184561
 22
26.08396737797953
 32
0.0
 13
20.047581694184561
 23
26.08396737797953
 33
0.0
210
0.0
220
0.0
230
1.0
  0
SOLID
  5
5BC
  8
DRG
  6
CONTINUOUS
 62
     7
 10
101.0354696874371
 20
27.38739829536954
 30
0.0
 11
100.382160469876
 21
26.230761687429851
 31
0.0
 12
111.2523129779601
 22
23.54201089202471
 32
0.0
 13
111.2523129779601
 23
23.54201089202471
 33
0.0
210
0.0
220
0.0
230
1.0
  0
SOLID
  5
5BD
  8
DRG
  6
CONTINUOUS
 62
     7
 10
92.002287191588479
 20
27.619948938379359
 30
0.0
 11
81.607766753409166
 21
25.863606192389771
 31
0.0
 12
92.133854368032203
 22
26.620597016807292
 32
0.0
 13
92.133854368032203
 23
26.620597016807292
 33
0.0
210
0.0
220
0.0
230
1.0
  0
SOLID
  5
5BE
  8
DRG
  6
CONTINUOUS
 62
     7
 10
152.32505959223769
 20
27.619948938379359
 30
0.0
 11
141.4279705792122
 21
25.984423744187708
 31
0.0
 12
152.45662676868139
 22
26.62059701680726
 32
0.0
 13
152.45662676868139
 23
26.62059701680726
 33
0.0
210
0.0
220
0.0
230
1.0
  0
SOLID
  5
5BF
  8
DRG
  6
CONTINUOUS
 62
     7
 10
160.04745823702251
 20
27.619948938379359
 30
0.0
 11
159.91589106057879
 21
26.62059701680727
 31
0.0
 12
170.9445447809463
 22
25.984423744187708
 32
0.0
 13
170.9445447809463
 23
25.984423744187708
 33
0.0
210
0.0
220
0.0
230
1.0
  0
SOLID
  5
5C0
  8
DRG
  6
CONTINUOUS
 62
     7
 10
55.513311319972217
 20
27.61994893837937
 30
0.0
 11
44.616222306946739
 21
25.984423744187549
 31
0.0
 12
55.644878496415949
 22
26.62059701680727
 32
0.0
 13
55.644878496415949
 23
26.62059701680727
 33
0.0
  0
SOLID
  5
5C1
  8
DRG
  6
CONTINUOUS
 62
     7
 10
63.235709964757007
 20
27.61994893837937
 30
0.0
 11
63.104142788313268
 21
26.62059701680727
 31
0.0
 12
74.13279650868084
 22
25.984423744187708
 32
0.0
 13
74.13279650868084
 23
25.984423744187708
 33
0.0
  0
SOLID
  5
5C2
  8
DRG
  6
CONTINUOUS
 62
     7
 10
44.468482394088362
 20
27.861637324670291
 30
0.0
 11
44.616222306946739
 21
25.984423744187549
 31
0.0
 12
55.513311319972217
 22
27.61994893837937
 32
0.0
 13
55.513311319972217
 23
27.61994893837937
 33
0.0
  0
SOLID
  5
5C3
  8
DRG
  6
CONTINUOUS
 62
     7
 10
171.0922846938046
 20
27.861637324670479
 30
0.0
 11
160.04745823702251
 21
27.619948938379359
 31
0.0
 12
170.9445447809463
 22
25.984423744187708
 32
0.0
 13
170.9445447809463
 23
25.984423744187708
 33
0.0
210
0.0
220
0.0
230
1.0
  0
SOLID
  5
5C4
  8
DRG
  6
CONTINUOUS
 62
     7
 10
74.280536421539182
 20
27.861637324670479
 30
0.0
 11
63.235709964757007
 21
27.61994893837937
 31
0.0
 12
74.13279650868084
 22
25.984423744187708
 32
0.0
 13
74.13279650868084
 23
25.984423744187708
 33
0.0
210
0.0
220
0.0
230
1.0
  0
SOLID
  5
5C5
  8
DRG
  6
CONTINUOUS
 62
     7
 10
81.440258950509346
 20
27.861637324670479
 30
0.0
 11
81.607766753409166
 21
25.863606192389771
 31
0.0
 12
92.002287191588479
 22
27.619948938379359
 32
0.0
 13
92.002287191588479
 23
27.619948938379359
 33
0.0
210
0.0
220
0.0
230
1.0
  0
SOLID
  5
5C6
  8
DRG
  6
CONTINUOUS
 62
     7
 10
141.28023066635379
 20
27.861637324670479
 30
0.0
 11
141.4279705792122
 21
25.984423744187708
 31
0.0
 12
152.32505959223769
 22
27.619948938379359
 32
0.0
 13
152.32505959223769
 23
27.619948938379359
 33
0.0
  0
SOLID
  5
5C7
  8
DRG
  6
CONTINUOUS
 62
     7
 10
26.241246459003619
 20
27.915841888747771
 30
0.0
 11
25.258677615930779
 21
26.825028327725018
 31
0.0
 12
27.267121908897021
 22
25.817196576320061
 32
0.0
 13
27.267121908897021
 23
25.817196576320061
 33
0.0
210
0.0
220
0.0
230
1.0
  0
SOLID
  5
5C8
  8
DRG
  6
CONTINUOUS
 62
     7
 10
26.241246459003619
 20
27.915841888747771
 30
0.0
 11
27.267121908897021
 21
25.817196576320061
 31
0.0
 12
37.639779947293839
 22
13.760967175618781
 32
0.0
 13
37.639779947293839
 23
13.760967175618781
 33
0.0
210
0.0
220
0.0
230
1.0
  0
SOLID
  5
5C9
  8
DRG
  6
CONTINUOUS
 62
     7
 10
18.065932145780231
 20
27.932740187785338
 30
0.0
 11
7.9419277727893016
 21
26.429828837316059
 31
0.0
 12
18.936680407078839
 22
26.879647017882871
 32
0.0
 13
18.936680407078839
 23
26.879647017882871
 33
0.0
210
0.0
220
0.0
230
1.0
  0
SOLID
  5
5CA
  8
DRG
  6
CONTINUOUS
 62
     7
 10
7.3447609166631631
 20
28.296540730392032
 30
0.0
 11
7.9419277727893016
 21
26.429828837316059
 31
0.0
 12
18.065932145780231
 22
27.932740187785338
 32
0.0
 13
18.065932145780231
 23
27.932740187785338
 33
0.0
210
0.0
220
0.0
230
1.0
  0
SOLID
  5
5CB
  8
DRG
  6
CONTINUOUS
 62
     7
 10
101.4175439347101
 20
28.659656306209889
 30
0.0
 11
101.0354696874371
 21
27.38739829536954
 31
0.0
 12
111.2523129779601
 22
23.54201089202471
 32
0.0
 13
111.2523129779601
 23
23.54201089202471
 33
0.0
210
0.0
220
0.0
230
1.0
  0
SOLID
  5
5CC
  8
DRG
  6
CONTINUOUS
 62
     7
 10
17.493132493272189
 20
29.17334823109978
 30
0.0
 11
7.3447609166631631
 21
28.296540730392032
 31
0.0
 12
18.065932145780231
 22
27.932740187785338
 32
0.0
 13
18.065932145780231
 23
27.932740187785338
 33
0.0
210
0.0
220
0.0
230
1.0
  0
SOLID
  5
5CD
  8
DRG
  6
CONTINUOUS
 62
     7
 10
26.946063157671311
 20
29.203688610049579
 30
0.0
 11
26.241246459003619
 21
27.915841888747771
 31
0.0
 12
37.639779947293839
 22
13.760967175618781
 32
0.0
 13
37.639779947293839
 23
13.760967175618781
 33
0.0
210
0.0
220
0.0
230
1.0
  0
SOLID
  5
5CE
  8
DRG
  6
CONTINUOUS
 62
     7
 10
160.04745823702251
 20
29.300230626583549
 30
0.0
 11
160.04745823702251
 21
27.619948938379359
 31
0.0
 12
171.0922846938046
 22
27.861637324670479
 32
0.0
 13
171.0922846938046
 23
27.861637324670479
 33
0.0
210
0.0
220
0.0
230
1.0
  0
SOLID
  5
5CF
  8
DRG
  6
CONTINUOUS
 62
     7
 10
152.32505959223769
 20
29.959298931438969
 30
0.0
 11
141.28023066635379
 21
27.861637324670479
 31
0.0
 12
152.32505959223769
 22
27.619948938379359
 32
0.0
 13
152.32505959223769
 23
27.619948938379359
 33
0.0
210
0.0
220
0.0
230
1.0
  0
SOLID
  5
5D0
  8
DRG
  6
CONTINUOUS
 62
     7
 10
141.28023066635379
 20
29.95929893143898
 30
0.0
 11
141.28023066635379
 21
27.861637324670479
 31
0.0
 12
152.32505959223769
 22
29.959298931438969
 32
0.0
 13
152.32505959223769
 23
29.959298931438969
 33
0.0
210
0.0
220
0.0
230
1.0
  0
SOLID
  5
5D1
  8
DRG
  6
CONTINUOUS
 62
     7
 10
171.0922846938046
 20
29.95929893143904
 30
0.0
 11
160.04745823702251
 21
29.300230626583549
 31
0.0
 12
171.0922846938046
 22
27.861637324670479
 32
0.0
 13
171.0922846938046
 23
27.861637324670479
 33
0.0
210
0.0
220
0.0
230
1.0
  0
SOLID
  5
5D2
  8
DRG
  6
CONTINUOUS
 62
     7
 10
101.5095597489034
 20
29.984856014372749
 30
0.0
 11
101.4175439347101
 21
28.659656306209889
 31
0.0
 12
111.2523129779601
 22
23.54201089202471
 32
0.0
 13
111.2523129779601
 23
23.54201089202471
 33
0.0
  0
SOLID
  5
5D3
  8
DRG
  6
CONTINUOUS
 62
     7
 10
7.0565934473582743
 20
30.23514359210488
 30
0.0
 11
7.3447609166631631
 21
28.296540730392032
 31
0.0
 12
17.493132493272189
 22
29.17334823109978
 32
0.0
 13
17.493132493272189
 23
29.17334823109978
 33
0.0
  0
SOLID
  5
5D4
  8
DRG
  6
CONTINUOUS
 62
     7
 10
17.256300807526252
 20
30.5191262631974
 30
0.0
 11
7.0565934473582743
 21
30.23514359210488
 31
0.0
 12
17.493132493272189
 22
29.17334823109978
 32
0.0
 13
17.493132493272189
 23
29.17334823109978
 33
0.0
210
0.0
220
0.0
230
1.0
  0
SOLID
  5
5D5
  8
DRG
  6
CONTINUOUS
 62
     7
 10
159.3203063536362
 20
30.602411060542401
 30
0.0
 11
160.04745823702251
 21
29.300230626583549
 31
0.0
 12
171.0922846938046
 22
29.95929893143904
 32
0.0
 13
171.0922846938046
 23
29.95929893143904
 33
0.0
210
0.0
220
0.0
230
1.0
  0
SOLID
  5
5D6
  8
DRG
  6
CONTINUOUS
 62
     7
 10
27.335204540726242
 20
30.619274969224719
 30
0.0
 11
26.946063157671311
 21
29.203688610049579
 31
0.0
 12
37.639779947293839
 22
13.760967175618781
 32
0.0
 13
37.639779947293839
 23
13.760967175618781
 33
0.0
210
0.0
220
0.0
230
1.0
  0
SOLID
  5
5D7
  8
DRG
  6
CONTINUOUS
 62
     7
 10
63.235709964757
 20
30.81688778835381
 30
0.0
 11
63.235709964757007
 21
27.61994893837937
 31
0.0
 12
74.280536421539182
 22
27.861637324670479
 32
0.0
 13
74.280536421539182
 23
27.861637324670479
 33
0.0
210
0.0
220
0.0
230
1.0
  0
SOLID
  5
5D8
  8
DRG
  6
CONTINUOUS
 62
     7
 10
74.280536421539196
 20
30.816887788353831
 30
0.0
 11
63.235709964757
 21
30.81688778835381
 31
0.0
 12
74.280536421539182
 22
27.861637324670479
 32
0.0
 13
74.280536421539182
 23
27.861637324670479
 33
0.0
210
0.0
220
0.0
230
1.0
  0
SOLID
  5
5D9
  8
DRG
  6
CONTINUOUS
 62
     7
 10
158.32349423287391
 20
31.711820516063149
 30
0.0
 11
159.3203063536362
 21
30.602411060542401
 31
0.0
 12
171.0922846938046
 22
29.95929893143904
 32
0.0
 13
171.0922846938046
 23
29.95929893143904
 33
0.0
210
0.0
220
0.0
230
1.0
  0
SOLID
  5
5DA
  8
DRG
  6
CONTINUOUS
 62
     7
 10
170.6773093972524
 20
31.7696415103639
 30
0.0
 11
158.32349423287391
 21
31.711820516063149
 31
0.0
 12
171.0922846938046
 22
29.95929893143904
 32
0.0
 13
171.0922846938046
 23
29.95929893143904
 33
0.0
210
0.0
220
0.0
230
1.0
  0
SOLID
  5
5DB
  8
DRG
  6
CONTINUOUS
 62
     7
 10
27.387732575171409
 20
32.086434320449378
 30
0.0
 11
27.335204540726242
 21
30.619274969224719
 31
0.0
 12
37.639779947293839
 22
13.760967175618781
 32
0.0
 13
37.639779947293839
 23
13.760967175618781
 33
0.0
210
0.0
220
0.0
230
1.0
  0
SOLID
  5
5DC
  8
DRG
  6
CONTINUOUS
 62
     7
 10
81.440258950509346
 20
32.349374231810209
 30
0.0
 11
81.440258950509346
 21
27.861637324670479
 31
0.0
 12
92.002287191588479
 22
27.619948938379359
 32
0.0
 13
92.002287191588479
 23
27.619948938379359
 33
0.0
210
0.0
220
0.0
230
1.0
  0
SOLID
  5
5DD
  8
DRG
  6
CONTINUOUS
 62
     7
 10
157.10626025321309
 20
32.573658774007562
 30
0.0
 11
158.32349423287391
 21
31.711820516063149
 31
0.0
 12
170.6773093972524
 22
31.7696415103639
 32
0.0
 13
170.6773093972524
 23
31.7696415103639
 33
0.0
210
0.0
220
0.0
230
1.0
  0
SOLID
  5
5DE
  8
DRG
  6
CONTINUOUS
 62
     7
 10
92.002287191588479
 20
33.041326503689838
 30
0.0
 11
81.440258950509346
 21
32.349374231810209
 31
0.0
 12
92.002287191588479
 22
27.619948938379359
 32
0.0
 13
92.002287191588479
 23
27.619948938379359
 33
0.0
210
0.0
220
0.0
230
1.0
  0
SOLID
  5
5DF
  8
DRG
  6
CONTINUOUS
 62
     7
 10
155.72873071743231
 20
33.145354604103439
 30
0.0
 11
157.10626025321309
 21
32.573658774007562
 31
0.0
 12
170.6773093972524
 22
31.7696415103639
 32
0.0
 13
170.6773093972524
 23
31.7696415103639
 33
0.0
210
0.0
220
0.0
230
1.0
  0
SOLID
  5
5E0
  8
DRG
  6
CONTINUOUS
 62
     7
 10
169.98794975822989
 20
33.494265538349083
 30
0.0
 11
155.72873071743231
 21
33.145354604103439
 31
0.0
 12
170.6773093972524
 22
31.7696415103639
 32
0.0
 13
170.6773093972524
 23
31.7696415103639
 33
0.0
210
0.0
220
0.0
230
1.0
  0
SOLID
  5
5E1
  8
DRG
  6
CONTINUOUS
 62
     7
 10
44.202306277704807
 20
33.59256797502097
 30
0.0
 11
44.468482394088362
 21
27.861637324670291
 31
0.0
 12
55.513311319972217
 22
27.61994893837937
 32
0.0
 13
55.513311319972217
 23
27.61994893837937
 33
0.0
210
0.0
220
0.0
230
1.0
  0
SOLID
  5
5E2
  8
DRG
  6
CONTINUOUS
 62
     7
 10
152.98516973426729
 20
33.970446153339353
 30
0.0
 11
155.72873071743231
 21
33.145354604103439
 31
0.0
 12
169.98794975822989
 22
33.494265538349083
 32
0.0
 13
169.98794975822989
 23
33.494265538349083
 33
0.0
210
0.0
220
0.0
230
1.0
  0
SOLID
  5
5E3
  8
DRG
  6
CONTINUOUS
 62
     7
 10
81.820749237344913
 20
34.247867360112373
 30
0.0
 11
81.440258950509346
 21
32.349374231810209
 31
0.0
 12
92.002287191588479
 22
33.041326503689838
 32
0.0
 13
92.002287191588479
 23
33.041326503689838
 33
0.0
210
0.0
220
0.0
230
1.0
  0
SOLID
  5
5E4
  8
DRG
  6
CONTINUOUS
 62
     7
 10
92.479240148315725
 20
34.283253552925949
 30
0.0
 11
81.820749237344913
 21
34.247867360112373
 31
0.0
 12
92.002287191588479
 22
33.041326503689838
 32
0.0
 13
92.002287191588479
 23
33.041326503689838
 33
0.0
210
0.0
220
0.0
230
1.0
  0
SOLID
  5
5E5
  8
DRG
  6
CONTINUOUS
 62
     7
 10
169.04071950537289
 20
35.091857350386633
 30
0.0
 11
152.98516973426729
 21
33.970446153339353
 31
0.0
 12
169.98794975822989
 22
33.494265538349083
 32
0.0
 13
169.98794975822989
 23
33.494265538349083
 33
0.0
210
0.0
220
0.0
230
1.0
  0
SOLID
  5
5E6
  8
DRG
  6
CONTINUOUS
 62
     7
 10
150.3822216232935
 20
35.167343836745772
 30
0.0
 11
152.98516973426729
 21
33.970446153339353
 31
0.0
 12
169.04071950537289
 22
35.091857350386633
 32
0.0
 13
169.04071950537289
 23
35.091857350386633
 33
0.0
210
0.0
220
0.0
230
1.0
  0
SOLID
  5
5E7
  8
DRG
  6
CONTINUOUS
 62
     7
 10
93.226716747323209
 20
35.383774180852313
 30
0.0
 11
81.820749237344913
 21
34.247867360112373
 31
0.0
 12
92.479240148315725
 22
34.283253552925949
 32
0.0
 13
92.479240148315725
 23
34.283253552925949
 33
0.0
210
0.0
220
0.0
230
1.0
  0
SOLID
  5
5E8
  8
DRG
  6
CONTINUOUS
 62
     7
 10
55.513311319972232
 20
35.629722934820848
 30
0.0
 11
44.202306277704807
 21
33.59256797502097
 31
0.0
 12
55.513311319972217
 22
27.61994893837937
 32
0.0
 13
55.513311319972217
 23
27.61994893837937
 33
0.0
210
0.0
220
0.0
230
1.0
  0
SOLID
  5
5E9
  8
DRG
  6
CONTINUOUS
 62
     7
 10
82.501617102078072
 20
36.060453349068602
 30
0.0
 11
81.820749237344913
 21
34.247867360112373
 31
0.0
 12
93.226716747323209
 22
35.383774180852313
 32
0.0
 13
93.226716747323209
 23
35.383774180852313
 33
0.0
210
0.0
220
0.0
230
1.0
  0
SOLID
  5
5EA
  8
DRG
  6
CONTINUOUS
 62
     7
 10
94.205364320613299
 20
36.284948884141627
 30
0.0
 11
82.501617102078072
 21
36.060453349068602
 31
0.0
 12
93.226716747323209
 22
35.383774180852313
 32
0.0
 13
93.226716747323209
 23
35.383774180852313
 33
0.0
210
0.0
220
0.0
230
1.0
  0
SOLID
  5
5EB
  8
DRG
  6
CONTINUOUS
 62
     7
 10
167.85830970219251
 20
36.524146360035118
 30
0.0
 11
150.3822216232935
 21
35.167343836745772
 31
0.0
 12
169.04071950537289
 22
35.091857350386633
 32
0.0
 13
169.04071950537289
 23
35.091857350386633
 33
0.0
210
0.0
220
0.0
230
1.0
  0
SOLID
  5
5EC
  8
DRG
  6
CONTINUOUS
 62
     7
 10
147.96999619585119
 20
36.713005966762211
 30
0.0
 11
150.3822216232935
 21
35.167343836745772
 31
0.0
 12
167.85830970219251
 22
36.524146360035118
 32
0.0
 13
167.85830970219251
 23
36.524146360035118
 33
0.0
210
0.0
220
0.0
230
1.0
  0
SOLID
  5
5ED
  8
DRG
  6
CONTINUOUS
 62
     7
 10
95.363659659179305
 20
36.939333195698268
 30
0.0
 11
82.501617102078072
 21
36.060453349068602
 31
0.0
 12
94.205364320613299
 22
36.284948884141627
 32
0.0
 13
94.205364320613299
 23
36.284948884141627
 33
0.0
210
0.0
220
0.0
230
1.0
  0
SOLID
  5
5EE
  8
DRG
  6
CONTINUOUS
 62
     7
 10
96.640621573827801
 20
37.312475510495823
 30
0.0
 11
82.501617102078072
 21
36.060453349068602
 31
0.0
 12
95.363659659179305
 22
36.939333195698268
 32
0.0
 13
95.363659659179305
 23
36.939333195698268
 33
0.0
210
0.0
220
0.0
230
1.0
  0
SOLID
  5
5EF
  8
DRG
  6
CONTINUOUS
 62
     7
 10
101.5095597489034
 20
37.384730871555568
 30
0.0
 11
101.5095597489034
 21
29.984856014372749
 31
0.0
 12
111.2523129779601
 22
23.54201089202471
 32
0.0
 13
111.2523129779601
 23
23.54201089202471
 33
0.0
210
0.0
220
0.0
230
1.0
  0
SOLID
  5
5F0
  8
DRG
  6
CONTINUOUS
 62
     7
 10
83.465136107217845
 20
37.739941408961009
 30
0.0
 11
96.640621573827801
 21
37.312475510495823
 31
0.0
 12
97.969021393668683
 22
37.384730871555568
 32
0.0
 13
97.969021393668683
 23
37.384730871555568
 33
0.0
210
0.0
220
0.0
230
1.0
  0
SOLID
  5
5F1
  8
DRG
  6
CONTINUOUS
 62
     7
 10
83.465136107217845
 20
37.739941408961009
 30
0.0
 11
82.501617102078072
 21
36.060453349068602
 31
0.0
 12
96.640621573827801
 22
37.312475510495823
 32
0.0
 13
96.640621573827801
 23
37.312475510495823
 33
0.0
210
0.0
220
0.0
230
1.0
  0
SOLID
  5
5F2
  8
DRG
  6
CONTINUOUS
 62
     7
 10
166.4690451787491
 20
37.756821837895572
 30
0.0
 11
147.96999619585119
 21
36.713005966762211
 31
0.0
 12
167.85830970219251
 22
36.524146360035118
 32
0.0
 13
167.85830970219251
 23
36.524146360035118
 33
0.0
210
0.0
220
0.0
230
1.0
  0
SOLID
  5
5F3
  8
DRG
  6
CONTINUOUS
 62
     7
 10
6.7865631049779154
 20
38.202265524009427
 30
0.0
 11
7.0565934473582743
 21
30.23514359210488
 31
0.0
 12
17.256300807526252
 22
30.5191262631974
 32
0.0
 13
17.256300807526252
 23
30.5191262631974
 33
0.0
210
0.0
220
0.0
230
1.0
  0
SOLID
  5
5F4
  8
DRG
  6
CONTINUOUS
 62
     7
 10
145.79493162739621
 20
38.577676730199528
 30
0.0
 11
147.96999619585119
 21
36.713005966762211
 31
0.0
 12
166.4690451787491
 22
37.756821837895572
 32
0.0
 13
166.4690451787491
 23
37.756821837895572
 33
0.0
210
0.0
220
0.0
230
1.0
  0
SOLID
  5
5F5
  8
DRG
  6
CONTINUOUS
 62
     7
 10
164.90620600547979
 20
38.760354831031322
 30
0.0
 11
145.79493162739621
 21
38.577676730199528
 31
0.0
 12
166.4690451787491
 22
37.756821837895572
 32
0.0
 13
166.4690451787491
 23
37.756821837895572
 33
0.0
210
0.0
220
0.0
230
1.0
  0
SOLID
  5
5F6
  8
DRG
  6
CONTINUOUS
 62
     7
 10
84.686220975134489
 20
39.242605962988861
 30
0.0
 11
83.465136107217845
 21
37.739941408961009
 31
0.0
 12
97.969021393668683
 22
37.384730871555568
 32
0.0
 13
97.969021393668683
 23
37.384730871555568
 33
0.0
210
0.0
220
0.0
230
1.0
  0
SOLID
  5
5F7
  8
DRG
  6
CONTINUOUS
 62
     7
 10
84.686220975134489
 20
39.242605962988861
 30
0.0
 11
97.969021393668683
 21
37.384730871555568
 31
0.0
 12
101.5095597489034
 22
37.384730871555568
 32
0.0
 13
101.5095597489034
 23
37.384730871555568
 33
0.0
210
0.0
220
0.0
230
1.0
  0
SOLID
  5
5F8
  8
DRG
  6
CONTINUOUS
 62
     7
 10
44.202306277704807
 20
39.329676640896288
 30
0.0
 11
55.513311319972232
 21
35.629722934820848
 31
0.0
 12
74.280536421539182
 22
35.629722934820848
 32
0.0
 13
74.280536421539182
 23
35.629722934820848
 33
0.0
210
0.0
220
0.0
230
1.0
  0
SOLID
  5
5F9
  8
DRG
  6
CONTINUOUS
 62
     7
 10
44.202306277704807
 20
39.329676640896288
 30
0.0
 11
44.202306277704807
 21
33.59256797502097
 31
0.0
 12
55.513311319972232
 22
35.629722934820848
 32
0.0
 13
55.513311319972232
 23
35.629722934820848
 33
0.0
210
0.0
220
0.0
230
1.0
  0
SOLID
  5
5FA
  8
DRG
  6
CONTINUOUS
 62
     7
 10
163.20723026339141
 20
39.510705534110834
 30
0.0
 11
145.79493162739621
 21
38.577676730199528
 31
0.0
 12
164.90620600547979
 22
38.760354831031322
 32
0.0
 13
164.90620600547979
 23
38.760354831031322
 33
0.0
  0
SOLID
  5
5FB
  8
DRG
  6
CONTINUOUS
 62
     7
 10
161.4128172083947
 20
39.98989916707626
 30
0.0
 11
145.79493162739621
 21
38.577676730199528
 31
0.0
 12
163.20723026339141
 22
39.510705534110834
 32
0.0
 13
163.20723026339141
 23
39.510705534110834
 33
0.0
210
0.0
220
0.0
230
1.0
  0
SOLID
  5
5FC
  8
DRG
  6
CONTINUOUS
 62
     7
 10
86.133080684833345
 20
40.529325045398402
 30
0.0
 11
84.686220975134489
 21
39.242605962988861
 31
0.0
 12
101.5095597489034
 22
37.384730871555568
 32
0.0
 13
101.5095597489034
 23
37.384730871555568
 33
0.0
210
0.0
220
0.0
230
1.0
  0
SOLID
  5
5FD
  8
DRG
  6
CONTINUOUS
 62
     7
 10
159.18695030849
 20
40.665065806460063
 30
0.0
 11
145.79493162739621
 21
38.577676730199528
 31
0.0
 12
161.4128172083947
 22
39.98989916707626
 32
0.0
 13
161.4128172083947
 23
39.98989916707626
 33
0.0
210
0.0
220
0.0
230
1.0
  0
SOLID
  5
5FE
  8
DRG
  6
CONTINUOUS
 62
     7
 10
143.89890046802631
 20
40.725459022626843
 30
0.0
 11
145.79493162739621
 21
38.577676730199528
 31
0.0
 12
159.18695030849
 22
40.665065806460063
 32
0.0
 13
159.18695030849
 23
40.665065806460063
 33
0.0
210
0.0
220
0.0
230
1.0
  0
SOLID
  5
5FF
  8
DRG
  6
CONTINUOUS
 62
     7
 10
127.2345352189994
 20
40.740104065808097
 30
0.0
 11
116.19314081319391
 21
17.28637227261407
 31
0.0
 12
127.2345352189994
 22
17.28637227261407
 32
0.0
 13
127.2345352189994
 23
17.28637227261407
 33
0.0
210
0.0
220
0.0
230
1.0
  0
SOLID
  5
600
  8
DRG
  6
CONTINUOUS
 62
     7
 10
87.768046153177011
 20
41.566598844310938
 30
0.0
 11
86.133080684833345
 21
40.529325045398402
 31
0.0
 12
101.5095597489034
 22
37.384730871555568
 32
0.0
 13
101.5095597489034
 23
37.384730871555568
 33
0.0
210
0.0
220
0.0
230
1.0
  0
SOLID
  5
601
  8
DRG
  6
CONTINUOUS
 62
     7
 10
157.0907498111003
 20
41.67317141688541
 30
0.0
 11
143.89890046802631
 21
40.725459022626843
 31
0.0
 12
159.18695030849
 22
40.665065806460063
 32
0.0
 13
159.18695030849
 23
40.665065806460063
 33
0.0
210
0.0
220
0.0
230
1.0
  0
SOLID
  5
602
  8
DRG
  6
CONTINUOUS
 62
     7
 10
55.51331131997221
 20
41.923431282527638
 30
0.0
 11
44.202306277704807
 21
39.329676640896288
 31
0.0
 12
74.280536421539182
 22
35.629722934820848
 32
0.0
 13
74.280536421539182
 23
35.629722934820848
 33
0.0
210
0.0
220
0.0
230
1.0
  0
SOLID
  5
603
  8
DRG
  6
CONTINUOUS
 62
     7
 10
63.235709964756971
 20
41.923431282527652
 30
0.0
 11
55.51331131997221
 21
41.923431282527638
 31
0.0
 12
74.280536421539182
 22
35.629722934820848
 32
0.0
 13
74.280536421539182
 23
35.629722934820848
 33
0.0
210
0.0
220
0.0
230
1.0
  0
SOLID
  5
604
  8
DRG
  6
CONTINUOUS
 62
     7
 10
127.3882529757736
 20
42.300826641937121
 30
0.0
 11
116.19314081319391
 21
17.28637227261407
 31
0.0
 12
127.2345352189994
 22
40.740104065808097
 32
0.0
 13
127.2345352189994
 23
40.740104065808097
 33
0.0
210
0.0
220
0.0
230
1.0
  0
SOLID
  5
605
  8
DRG
  6
CONTINUOUS
 62
     7
 10
89.548550951823515
 20
42.327421871422729
 30
0.0
 11
87.768046153177011
 21
41.566598844310938
 31
0.0
 12
101.5095597489034
 22
37.384730871555568
 32
0.0
 13
101.5095597489034
 23
37.384730871555568
 33
0.0
210
0.0
220
0.0
230
1.0
  0
SOLID
  5
606
  8
DRG
  6
CONTINUOUS
 62
     7
 10
91.428239526853417
 20
42.791986051583798
 30
0.0
 11
89.548550951823515
 21
42.327421871422729
 31
0.0
 12
101.5095597489034
 22
37.384730871555568
 32
0.0
 13
101.5095597489034
 23
37.384730871555568
 33
0.0
210
0.0
220
0.0
230
1.0
  0
SOLID
  5
607
  8
DRG
  6
CONTINUOUS
 62
     7
 10
93.358174068518778
 20
42.948196427274922
 30
0.0
 11
91.428239526853417
 21
42.791986051583798
 31
0.0
 12
101.5095597489034
 22
37.384730871555568
 32
0.0
 13
101.5095597489034
 23
37.384730871555568
 33
0.0
210
0.0
220
0.0
230
1.0
  0
SOLID
  5
608
  8
DRG
  6
CONTINUOUS
 62
     7
 10
101.5095597489034
 20
37.384730871555568
 30
0.0
 11
100.207486521178
 21
42.948196427274922
 31
0.0
 12
93.358174068518778
 22
42.948196427274922
 32
0.0
 13
93.358174068518778
 23
42.948196427274922
 33
0.0
  0
SOLID
  5
609
  8
DRG
  6
CONTINUOUS
 62
     7
 10
100.207486521178
 20
42.948196427274922
 30
0.0
 11
101.5095597489034
 21
37.384730871555568
 31
0.0
 12
111.2523129779601
 22
23.54201089202471
 32
0.0
 13
111.2523129779601
 23
23.54201089202471
 33
0.0
  0
SOLID
  5
60A
  8
DRG
  6
CONTINUOUS
 62
     7
 10
155.17367747190539
 20
42.990428830347881
 30
0.0
 11
143.89890046802631
 21
40.725459022626843
 31
0.0
 12
157.0907498111003
 22
41.67317141688541
 32
0.0
 13
157.0907498111003
 23
41.67317141688541
 33
0.0
210
0.0
220
0.0
230
1.0
  0
SOLID
  5
60B
  8
DRG
  6
CONTINUOUS
 62
     7
 10
142.3184035466634
 20
43.11500550983493
 30
0.0
 11
143.89890046802631
 21
40.725459022626843
 31
0.0
 12
155.17367747190539
 22
42.990428830347881
 32
0.0
 13
155.17367747190539
 23
42.990428830347881
 33
0.0
  0
SOLID
  5
60C
  8
DRG
  6
CONTINUOUS
 62
     7
 10
127.84349895890909
 20
43.801571524728807
 30
0.0
 11
116.19314081319391
 21
17.28637227261407
 31
0.0
 12
127.3882529757736
 22
42.300826641937121
 32
0.0
 13
127.3882529757736
 23
42.300826641937121
 33
0.0
210
0.0
220
0.0
230
1.0
  0
SOLID
  5
60D
  8
DRG
  6
CONTINUOUS
 62
     7
 10
141.7953563081854
 20
44.48865706092365
 30
0.0
 11
142.3184035466634
 21
43.11500550983493
 31
0.0
 12
155.17367747190539
 22
42.990428830347881
 32
0.0
 13
155.17367747190539
 23
42.990428830347881
 33
0.0
210
0.0
220
0.0
230
1.0
  0
SOLID
  5
60E
  8
DRG
  6
CONTINUOUS
 62
     7
 10
153.4809683549079
 20
44.585756161105429
 30
0.0
 11
141.7953563081854
 21
44.48865706092365
 31
0.0
 12
155.17367747190539
 22
42.990428830347881
 32
0.0
 13
155.17367747190539
 23
42.990428830347881
 33
0.0
  0
SOLID
  5
60F
  8
DRG
  6
CONTINUOUS
 62
     7
 10
27.387732575171409
 20
44.745475926535612
 30
0.0
 11
27.387732575171409
 21
32.086434320449378
 31
0.0
 12
37.639779947293839
 22
13.760967175618781
 32
0.0
 13
37.639779947293839
 23
13.760967175618781
 33
0.0
210
0.0
220
0.0
230
1.0
  0
SOLID
  5
610
  8
DRG
  6
CONTINUOUS
 62
     7
 10
111.2523129779601
 20
45.06060729124669
 30
0.0
 11
100.207486521178
 21
42.948196427274922
 31
0.0
 12
111.2523129779601
 22
23.54201089202471
 32
0.0
 13
111.2523129779601
 23
23.54201089202471
 33
0.0
  0
SOLID
  5
611
  8
DRG
  6
CONTINUOUS
 62
     7
 10
74.280536421539182
 20
45.06060729124669
 30
0.0
 11
63.235709964756971
 21
41.923431282527652
 31
0.0
 12
74.280536421539182
 22
35.629722934820848
 32
0.0
 13
74.280536421539182
 23
35.629722934820848
 33
0.0
  0
SOLID
  5
612
  8
DRG
  6
CONTINUOUS
 62
     7
 10
44.468482394088362
 20
45.06060729124696
 30
0.0
 11
44.202306277704807
 21
39.329676640896288
 31
0.0
 12
55.51331131997221
 22
41.923431282527638
 32
0.0
 13
55.51331131997221
 23
41.923431282527638
 33
0.0
210
0.0
220
0.0
230
1.0
  0
SOLID
  5
613
  8
DRG
  6
CONTINUOUS
 62
     7
 10
152.91369055756721
 20
45.212615778285837
 30
0.0
 11
141.7953563081854
 21
44.48865706092365
 31
0.0
 12
153.4809683549079
 22
44.585756161105429
 32
0.0
 13
153.4809683549079
 23
44.585756161105429
 33
0.0
210
0.0
220
0.0
230
1.0
  0
SOLID
  5
614
  8
DRG
  6
CONTINUOUS
 62
     7
 10
141.54546826268481
 20
45.937122787892669
 30
0.0
 11
141.7953563081854
 21
44.48865706092365
 31
0.0
 12
152.91369055756721
 22
45.212615778285837
 32
0.0
 13
152.91369055756721
 23
45.212615778285837
 33
0.0
210
0.0
220
0.0
230
1.0
  0
SOLID
  5
615
  8
DRG
  6
CONTINUOUS
 62
     7
 10
152.54834175226111
 20
45.975031235545693
 30
0.0
 11
141.54546826268481
 21
45.937122787892669
 31
0.0
 12
152.91369055756721
 22
45.212615778285837
 32
0.0
 13
152.91369055756721
 23
45.212615778285837
 33
0.0
210
0.0
220
0.0
230
1.0
  0
SOLID
  5
616
  8
DRG
  6
CONTINUOUS
 62
     7
 10
7.0305774038875759
 20
46.17022669896302
 30
0.0
 11
6.7865631049779154
 21
38.202265524009427
 31
0.0
 12
17.256300807526252
 22
30.5191262631974
 32
0.0
 13
17.256300807526252
 23
30.5191262631974
 33
0.0
  0
SOLID
  5
617
  8
DRG
  6
CONTINUOUS
 62
     7
 10
27.335204540726249
 20
46.212635277760249
 30
0.0
 11
27.387732575171409
 21
44.745475926535612
 31
0.0
 12
37.639779947293839
 22
13.760967175618781
 32
0.0
 13
37.639779947293839
 23
13.760967175618781
 33
0.0
210
0.0
220
0.0
230
1.0
  0
SOLID
  5
618
  8
DRG
  6
CONTINUOUS
 62
     7
 10
17.256300807526252
 20
46.312783983787632
 30
0.0
 11
7.0305774038875759
 21
46.17022669896302
 31
0.0
 12
17.256300807526252
 22
30.5191262631974
 32
0.0
 13
17.256300807526252
 23
30.5191262631974
 33
0.0
210
0.0
220
0.0
230
1.0
  0
SOLID
  5
619
  8
DRG
  6
CONTINUOUS
 62
     7
 10
160.04745823702251
 20
46.421288526219293
 30
0.0
 11
160.04745823702251
 21
45.21828747592599
 31
0.0
 12
171.0912486890569
 22
45.21828747592599
 32
0.0
 13
171.0912486890569
 23
45.21828747592599
 33
0.0
210
0.0
220
0.0
230
1.0
  0
SOLID
  5
61A
  8
DRG
  6
CONTINUOUS
 62
     7
 10
63.235709964757007
 20
46.690614073903127
 30
0.0
 11
63.235709964756971
 21
41.923431282527652
 31
0.0
 12
74.280536421539182
 22
45.06060729124669
 32
0.0
 13
74.280536421539182
 23
45.06060729124669
 33
0.0
210
0.0
220
0.0
230
1.0
  0
SOLID
  5
61B
  8
DRG
  6
CONTINUOUS
 62
     7
 10
55.513311319972217
 20
46.690614073903141
 30
0.0
 11
44.468482394088362
 21
45.06060729124696
 31
0.0
 12
55.51331131997221
 22
41.923431282527638
 32
0.0
 13
55.51331131997221
 23
41.923431282527638
 33
0.0
210
0.0
220
0.0
230
1.0
  0
SOLID
  5
61C
  8
DRG
  6
CONTINUOUS
 62
     7
 10
152.41515688108319
 20
46.809907794742699
 30
0.0
 11
141.54546826268481
 21
45.937122787892669
 31
0.0
 12
152.54834175226111
 22
45.975031235545693
 32
0.0
 13
152.54834175226111
 23
45.975031235545693
 33
0.0
  0
SOLID
  5
61D
  8
DRG
  6
CONTINUOUS
 62
     7
 10
111.1045730651018
 20
46.937820871729471
 30
0.0
 11
100.207486521178
 21
42.948196427274922
 31
0.0
 12
111.2523129779601
 22
45.06060729124669
 32
0.0
 13
111.2523129779601
 23
45.06060729124669
 33
0.0
210
0.0
220
0.0
230
1.0
  0
SOLID
  5
61E
  8
DRG
  6
CONTINUOUS
 62
     7
 10
74.13279650868084
 20
46.937820871729471
 30
0.0
 11
63.235709964757007
 21
46.690614073903127
 31
0.0
 12
74.280536421539182
 22
45.06060729124669
 32
0.0
 13
74.280536421539182
 23
45.06060729124669
 33
0.0
210
0.0
220
0.0
230
1.0
  0
SOLID
  5
61F
  8
DRG
  6
CONTINUOUS
 62
     7
 10
44.616222306946753
 20
46.937820871729677
 30
0.0
 11
44.468482394088362
 21
45.06060729124696
 31
0.0
 12
55.513311319972217
 22
46.690614073903141
 32
0.0
 13
55.513311319972217
 23
46.690614073903141
 33
0.0
210
0.0
220
0.0
230
1.0
  0
SOLID
  5
620
  8
DRG
  6
CONTINUOUS
 62
     7
 10
170.92151587114179
 20
47.077855355594501
 30
0.0
 11
160.04745823702251
 21
46.421288526219293
 31
0.0
 12
171.0912486890569
 22
45.21828747592599
 32
0.0
 13
171.0912486890569
 23
45.21828747592599
 33
0.0
210
0.0
220
0.0
230
1.0
  0
SOLID
  5
621
  8
DRG
  6
CONTINUOUS
 62
     7
 10
92.485087876393209
 20
47.313129977668268
 30
0.0
 11
81.470405744524527
 21
45.910674481046733
 31
0.0
 12
92.485087876393209
 22
45.910674481046733
 32
0.0
 13
92.485087876393209
 23
45.910674481046733
 33
0.0
210
0.0
220
0.0
230
1.0
  0
SOLID
  5
622
  8
DRG
  6
CONTINUOUS
 62
     7
 10
100.2074865211779
 20
47.313129977668268
 30
0.0
 11
100.207486521178
 21
42.948196427274922
 31
0.0
 12
111.1045730651018
 22
46.937820871729471
 32
0.0
 13
111.1045730651018
 23
46.937820871729471
 33
0.0
210
0.0
220
0.0
230
1.0
  0
SOLID
  5
623
  8
DRG
  6
CONTINUOUS
 62
     7
 10
159.92142428177769
 20
47.399756659223272
 30
0.0
 11
160.04745823702251
 21
46.421288526219293
 31
0.0
 12
170.92151587114179
 22
47.077855355594501
 32
0.0
 13
170.92151587114179
 23
47.077855355594501
 33
0.0
210
0.0
220
0.0
230
1.0
  0
SOLID
  5
624
  8
DRG
  6
CONTINUOUS
 62
     7
 10
141.57801704221129
 20
47.406625280044132
 30
0.0
 11
141.54546826268481
 21
45.937122787892669
 31
0.0
 12
152.41515688108319
 22
46.809907794742699
 32
0.0
 13
152.41515688108319
 23
46.809907794742699
 33
0.0
210
0.0
220
0.0
230
1.0
  0
SOLID
  5
625
  8
DRG
  6
CONTINUOUS
 62
     7
 10
26.946063157671329
 20
47.628221636935379
 30
0.0
 11
27.335204540726249
 21
46.212635277760249
 31
0.0
 12
37.639779947293839
 22
13.760967175618781
 32
0.0
 13
37.639779947293839
 23
13.760967175618781
 33
0.0
210
0.0
220
0.0
230
1.0
  0
SOLID
  5
626
  8
DRG
  6
CONTINUOUS
 62
     7
 10
152.52515784094209
 20
47.648154099737518
 30
0.0
 11
141.57801704221129
 21
47.406625280044132
 31
0.0
 12
152.41515688108319
 22
46.809907794742699
 32
0.0
 13
152.41515688108319
 23
46.809907794742699
 33
0.0
210
0.0
220
0.0
230
1.0
  0
SOLID
  5
627
  8
DRG
  6
CONTINUOUS
 62
     7
 10
17.493132493272199
 20
47.658562015885273
 30
0.0
 11
7.0305774038875759
 21
46.17022669896302
 31
0.0
 12
17.256300807526252
 22
46.312783983787632
 32
0.0
 13
17.256300807526252
 23
46.312783983787632
 33
0.0
210
0.0
220
0.0
230
1.0
  0
SOLID
  5
628
  8
DRG
  6
CONTINUOUS
 62
     7
 10
81.731819932129795
 20
47.68976224158471
 30
0.0
 11
81.470405744524527
 21
45.910674481046733
 31
0.0
 12
92.485087876393209
 22
47.313129977668268
 32
0.0
 13
92.485087876393209
 23
47.313129977668268
 33
0.0
210
0.0
220
0.0
230
1.0
  0
SOLID
  5
629
  8
DRG
  6
CONTINUOUS
 62
     7
 10
63.104142788313268
 20
47.689965995475227
 30
0.0
 11
63.235709964757007
 21
46.690614073903127
 31
0.0
 12
74.13279650868084
 22
46.937820871729471
 32
0.0
 13
74.13279650868084
 23
46.937820871729471
 33
0.0
210
0.0
220
0.0
230
1.0
  0
SOLID
  5
62A
  8
DRG
  6
CONTINUOUS
 62
     7
 10
55.644878496415949
 20
47.689965995475241
 30
0.0
 11
44.616222306946753
 21
46.937820871729677
 31
0.0
 12
55.513311319972217
 22
46.690614073903141
 32
0.0
 13
55.513311319972217
 23
46.690614073903141
 33
0.0
210
0.0
220
0.0
230
1.0
  0
SOLID
  5
62B
  8
DRG
  6
CONTINUOUS
 62
     7
 10
7.1897238671107937
 20
47.994218182042239
 30
0.0
 11
7.0305774038875759
 21
46.17022669896302
 31
0.0
 12
17.493132493272199
 22
47.658562015885273
 32
0.0
 13
17.493132493272199
 23
47.658562015885273
 33
0.0
210
0.0
220
0.0
230
1.0
  0
SOLID
  5
62C
  8
DRG
  6
CONTINUOUS
 62
     7
 10
92.616655052836919
 20
48.31248189924036
 30
0.0
 11
81.731819932129795
 21
47.68976224158471
 31
0.0
 12
92.485087876393209
 22
47.313129977668268
 32
0.0
 13
92.485087876393209
 23
47.313129977668268
 33
0.0
210
0.0
220
0.0
230
1.0
  0
SOLID
  5
62D
  8
DRG
  6
CONTINUOUS
 62
     7
 10
100.0759193447342
 20
48.31248189924036
 30
0.0
 11
100.2074865211779
 21
47.313129977668268
 31
0.0
 12
111.1045730651018
 22
46.937820871729471
 32
0.0
 13
111.1045730651018
 23
46.937820871729471
 33
0.0
210
0.0
220
0.0
230
1.0
  0
SOLID
  5
62E
  8
DRG
  6
CONTINUOUS
 62
     7
 10
159.55155020049509
 20
48.314348157748292
 30
0.0
 11
159.92142428177769
 21
47.399756659223272
 31
0.0
 12
170.92151587114179
 22
47.077855355594501
 32
0.0
 13
170.92151587114179
 23
47.077855355594501
 33
0.0
  0
SOLID
  5
62F
  8
DRG
  6
CONTINUOUS
 62
     7
 10
152.9555608782567
 20
48.535868958602258
 30
0.0
 11
141.57801704221129
 21
47.406625280044132
 31
0.0
 12
152.52515784094209
 22
47.648154099737518
 32
0.0
 13
152.52515784094209
 23
47.648154099737518
 33
0.0
210
0.0
220
0.0
230
1.0
  0
SOLID
  5
630
  8
DRG
  6
CONTINUOUS
 62
     7
 10
62.718407344631679
 20
48.621213735099332
 30
0.0
 11
63.104142788313268
 21
47.689965995475227
 31
0.0
 12
74.13279650868084
 22
46.937820871729471
 32
0.0
 13
74.13279650868084
 23
46.937820871729471
 33
0.0
  0
SOLID
  5
631
  8
DRG
  6
CONTINUOUS
 62
     7
 10
56.030613940097538
 20
48.621213735099339
 30
0.0
 11
44.616222306946753
 21
46.937820871729677
 31
0.0
 12
55.644878496415949
 22
47.689965995475241
 32
0.0
 13
55.644878496415949
 23
47.689965995475241
 33
0.0
210
0.0
220
0.0
230
1.0
  0
SOLID
  5
632
  8
DRG
  6
CONTINUOUS
 62
     7
 10
73.693214617081026
 20
48.76881122374607
 30
0.0
 11
62.718407344631679
 21
48.621213735099332
 31
0.0
 12
74.13279650868084
 22
46.937820871729471
 32
0.0
 13
74.13279650868084
 23
46.937820871729471
 33
0.0
210
0.0
220
0.0
230
1.0
  0
SOLID
  5
633
  8
DRG
  6
CONTINUOUS
 62
     7
 10
110.664991173502
 20
48.76881122374607
 30
0.0
 11
100.0759193447342
 21
48.31248189924036
 31
0.0
 12
111.1045730651018
 22
46.937820871729471
 32
0.0
 13
111.1045730651018
 23
46.937820871729471
 33
0.0
210
0.0
220
0.0
230
1.0
  0
SOLID
  5
634
  8
DRG
  6
CONTINUOUS
 62
     7
 10
45.055804198546582
 20
48.768811223746262
 30
0.0
 11
44.616222306946753
 21
46.937820871729677
 31
0.0
 12
56.030613940097538
 22
48.621213735099339
 32
0.0
 13
56.030613940097538
 23
48.621213735099339
 33
0.0
210
0.0
220
0.0
230
1.0
  0
SOLID
  5
635
  8
DRG
  6
CONTINUOUS
 62
     7
 10
141.8917942032017
 20
48.84260609145101
 30
0.0
 11
141.57801704221129
 21
47.406625280044132
 31
0.0
 12
152.9555608782567
 22
48.535868958602258
 32
0.0
 13
152.9555608782567
 23
48.535868958602258
 33
0.0
210
0.0
220
0.0
230
1.0
  0
SOLID
  5
636
  8
DRG
  6
CONTINUOUS
 62
     7
 10
170.46535120543041
 20
48.888577787754841
 30
0.0
 11
159.55155020049509
 21
48.314348157748292
 31
0.0
 12
170.92151587114179
 22
47.077855355594501
 32
0.0
 13
170.92151587114179
 23
47.077855355594501
 33
0.0
210
0.0
220
0.0
230
1.0
  0
SOLID
  5
637
  8
DRG
  6
CONTINUOUS
 62
     7
 10
18.06593214578028
 20
48.899170059199712
 30
0.0
 11
7.1897238671107937
 21
47.994218182042239
 31
0.0
 12
17.493132493272199
 22
47.658562015885273
 32
0.0
 13
17.493132493272199
 23
47.658562015885273
 33
0.0
  0
SOLID
  5
638
  8
DRG
  6
CONTINUOUS
 62
     7
 10
158.96198221796851
 20
49.105356399904181
 30
0.0
 11
159.55155020049509
 21
48.314348157748292
 31
0.0
 12
170.46535120543041
 22
48.888577787754841
 32
0.0
 13
170.46535120543041
 23
48.888577787754841
 33
0.0
210
0.0
220
0.0
230
1.0
  0
SOLID
  5
639
  8
DRG
  6
CONTINUOUS
 62
     7
 10
93.00239049651853
 20
49.243729638864473
 30
0.0
 11
81.731819932129795
 21
47.68976224158471
 31
0.0
 12
92.616655052836919
 22
48.31248189924036
 32
0.0
 13
92.616655052836919
 23
48.31248189924036
 33
0.0
210
0.0
220
0.0
230
1.0
  0
SOLID
  5
63A
  8
DRG
  6
CONTINUOUS
 62
     7
 10
99.690183901052691
 20
49.243729638864473
 30
0.0
 11
100.0759193447342
 21
48.31248189924036
 31
0.0
 12
110.664991173502
 22
48.76881122374607
 32
0.0
 13
110.664991173502
 23
48.76881122374607
 33
0.0
210
0.0
220
0.0
230
1.0
  0
SOLID
  5
63B
  8
DRG
  6
CONTINUOUS
 62
     7
 10
153.59687126208641
 20
49.28553917727929
 30
0.0
 11
141.8917942032017
 21
48.84260609145101
 31
0.0
 12
152.9555608782567
 22
48.535868958602258
 32
0.0
 13
152.9555608782567
 23
48.535868958602258
 33
0.0
210
0.0
220
0.0
230
1.0
  0
SOLID
  5
63C
  8
DRG
  6
CONTINUOUS
 62
     7
 10
82.256144730442657
 20
49.40981286381988
 30
0.0
 11
81.731819932129795
 21
47.68976224158471
 31
0.0
 12
93.00239049651853
 22
49.243729638864473
 32
0.0
 13
93.00239049651853
 23
49.243729638864473
 33
0.0
210
0.0
220
0.0
230
1.0
  0
SOLID
  5
63D
  8
DRG
  6
CONTINUOUS
 62
     7
 10
62.104790866741169
 20
49.420894298279691
 30
0.0
 11
62.718407344631679
 21
48.621213735099332
 31
0.0
 12
73.693214617081026
 22
48.76881122374607
 32
0.0
 13
73.693214617081026
 23
48.76881122374607
 33
0.0
210
0.0
220
0.0
230
1.0
  0
SOLID
  5
63E
  8
DRG
  6
CONTINUOUS
 62
     7
 10
56.644230417988048
 20
49.420894298279698
 30
0.0
 11
45.055804198546582
 21
48.768811223746262
 31
0.0
 12
56.030613940097538
 22
48.621213735099339
 32
0.0
 13
56.030613940097538
 23
48.621213735099339
 33
0.0
210
0.0
220
0.0
230
1.0
  0
SOLID
  5
63F
  8
DRG
  6
CONTINUOUS
 62
     7
 10
158.19120867863171
 20
49.721142561032508
 30
0.0
 11
158.96198221796851
 21
49.105356399904181
 31
0.0
 12
170.46535120543041
 22
48.888577787754841
 32
0.0
 13
170.46535120543041
 23
48.888577787754841
 33
0.0
210
0.0
220
0.0
230
1.0
  0
SOLID
  5
640
  8
DRG
  6
CONTINUOUS
 62
     7
 10
7.6220824279870287
 20
49.773358030940919
 30
0.0
 11
7.1897238671107937
 21
47.994218182042239
 31
0.0
 12
18.06593214578028
 22
48.899170059199712
 32
0.0
 13
18.06593214578028
 23
48.899170059199712
 33
0.0
210
0.0
220
0.0
230
1.0
  0
SOLID
  5
641
  8
DRG
  6
CONTINUOUS
 62
     7
 10
154.40722278586409
 20
49.848224571696171
 30
0.0
 11
141.8917942032017
 21
48.84260609145101
 31
0.0
 12
153.59687126208641
 22
49.28553917727929
 32
0.0
 13
153.59687126208641
 23
49.28553917727929
 33
0.0
210
0.0
220
0.0
230
1.0
  0
SOLID
  5
642
  8
DRG
  6
CONTINUOUS
 62
     7
 10
18.93668040707891
 20
49.952263229102194
 30
0.0
 11
7.6220824279870287
 21
49.773358030940919
 31
0.0
 12
18.06593214578028
 22
48.899170059199712
 32
0.0
 13
18.06593214578028
 23
48.899170059199712
 33
0.0
210
0.0
220
0.0
230
1.0
  0
SOLID
  5
643
  8
DRG
  6
CONTINUOUS
 62
     7
 10
57.443910981168422
 20
50.034510776170208
 30
0.0
 11
45.055804198546582
 21
48.768811223746262
 31
0.0
 12
56.644230417988048
 22
49.420894298279698
 32
0.0
 13
56.644230417988048
 23
49.420894298279698
 33
0.0
210
0.0
220
0.0
230
1.0
  0
SOLID
  5
644
  8
DRG
  6
CONTINUOUS
 62
     7
 10
61.305110303560809
 20
50.034510776170208
 30
0.0
 11
62.104790866741169
 21
49.420894298279691
 31
0.0
 12
73.693214617081026
 22
48.76881122374607
 32
0.0
 13
73.693214617081026
 23
48.76881122374607
 33
0.0
210
0.0
220
0.0
230
1.0
  0
SOLID
  5
645
  8
DRG
  6
CONTINUOUS
 62
     7
 10
93.616006974409046
 20
50.043410202044832
 30
0.0
 11
82.256144730442657
 21
49.40981286381988
 31
0.0
 12
93.00239049651853
 22
49.243729638864473
 32
0.0
 13
93.00239049651853
 23
49.243729638864473
 33
0.0
210
0.0
220
0.0
230
1.0
  0
SOLID
  5
646
  8
DRG
  6
CONTINUOUS
 62
     7
 10
99.076567423162174
 20
50.043410202044832
 30
0.0
 11
99.690183901052691
 21
49.243729638864473
 31
0.0
 12
110.664991173502
 22
48.76881122374607
 32
0.0
 13
110.664991173502
 23
48.76881122374607
 33
0.0
210
0.0
220
0.0
230
1.0
  0
SOLID
  5
647
  8
DRG
  6
CONTINUOUS
 62
     7
 10
157.28954743952829
 20
50.121506714120002
 30
0.0
 11
158.19120867863171
 21
49.721142561032508
 31
0.0
 12
170.46535120543041
 22
48.888577787754841
 32
0.0
 13
170.46535120543041
 23
48.888577787754841
 33
0.0
210
0.0
220
0.0
230
1.0
  0
SOLID
  5
648
  8
DRG
  6
CONTINUOUS
 62
     7
 10
155.33371385132841
 20
50.187191754169177
 30
0.0
 11
141.8917942032017
 21
48.84260609145101
 31
0.0
 12
154.40722278586409
 22
49.848224571696171
 32
0.0
 13
154.40722278586409
 23
49.848224571696171
 33
0.0
210
0.0
220
0.0
230
1.0
  0
SOLID
  5
649
  8
DRG
  6
CONTINUOUS
 62
     7
 10
156.3158610056816
 20
50.280312172847857
 30
0.0
 11
157.28954743952829
 21
50.121506714120002
 31
0.0
 12
170.46535120543041
 22
48.888577787754841
 32
0.0
 13
170.46535120543041
 23
48.888577787754841
 33
0.0
210
0.0
220
0.0
230
1.0
  0
SOLID
  5
64A
  8
DRG
  6
CONTINUOUS
 62
     7
 10
58.375158720792513
 20
50.420246219851798
 30
0.0
 11
45.055804198546582
 21
48.768811223746262
 31
0.0
 12
57.443910981168422
 22
50.034510776170208
 32
0.0
 13
57.443910981168422
 23
50.034510776170208
 33
0.0
210
0.0
220
0.0
230
1.0
  0
SOLID
  5
64B
  8
DRG
  6
CONTINUOUS
 62
     7
 10
60.373862563936711
 20
50.420246219851798
 30
0.0
 11
61.305110303560809
 21
50.034510776170208
 31
0.0
 12
73.693214617081026
 22
48.76881122374607
 32
0.0
 13
73.693214617081026
 23
48.76881122374607
 33
0.0
210
0.0
220
0.0
230
1.0
  0
SOLID
  5
64C
  8
DRG
  6
CONTINUOUS
 62
     7
 10
109.9443912682205
 20
50.508493288121258
 30
0.0
 11
99.076567423162174
 21
50.043410202044832
 31
0.0
 12
110.664991173502
 22
48.76881122374607
 32
0.0
 13
110.664991173502
 23
48.76881122374607
 33
0.0
210
0.0
220
0.0
230
1.0
  0
SOLID
  5
64D
  8
DRG
  6
CONTINUOUS
 62
     7
 10
72.972614711799594
 20
50.508493288121258
 30
0.0
 11
60.373862563936711
 21
50.420246219851798
 31
0.0
 12
73.693214617081026
 22
48.76881122374607
 32
0.0
 13
73.693214617081026
 23
48.76881122374607
 33
0.0
210
0.0
220
0.0
230
1.0
  0
SOLID
  5
64E
  8
DRG
  6
CONTINUOUS
 62
     7
 10
45.776404103828028
 20
50.508493288121407
 30
0.0
 11
45.055804198546582
 21
48.768811223746262
 31
0.0
 12
58.375158720792513
 22
50.420246219851798
 32
0.0
 13
58.375158720792513
 23
50.420246219851798
 33
0.0
  0
SOLID
  5
64F
  8
DRG
  6
CONTINUOUS
 62
     7
 10
59.374510642364612
 20
50.551813396295529
 30
0.0
 11
45.776404103828028
 21
50.508493288121407
 31
0.0
 12
58.375158720792513
 22
50.420246219851798
 32
0.0
 13
58.375158720792513
 23
50.420246219851798
 33
0.0
  0
SOLID
  5
650
  8
DRG
  6
CONTINUOUS
 62
     7
 10
59.374510642364612
 20
50.551813396295529
 30
0.0
 11
60.373862563936711
 21
50.420246219851798
 31
0.0
 12
72.972614711799594
 22
50.508493288121258
 32
0.0
 13
72.972614711799594
 23
50.508493288121258
 33
0.0
210
0.0
220
0.0
230
1.0
  0
SOLID
  5
651
  8
DRG
  6
CONTINUOUS
 62
     7
 10
142.61917934783079
 20
50.568963196943031
 30
0.0
 11
155.33371385132841
 21
50.187191754169177
 31
0.0
 12
156.3158610056816
 22
50.280312172847857
 32
0.0
 13
156.3158610056816
 23
50.280312172847857
 33
0.0
210
0.0
220
0.0
230
1.0
  0
SOLID
  5
652
  8
DRG
  6
CONTINUOUS
 62
     7
 10
142.61917934783079
 20
50.568963196943031
 30
0.0
 11
141.8917942032017
 21
48.84260609145101
 31
0.0
 12
155.33371385132841
 22
50.187191754169177
 32
0.0
 13
155.33371385132841
 23
50.187191754169177
 33
0.0
210
0.0
220
0.0
230
1.0
  0
SOLID
  5
653
  8
DRG
  6
CONTINUOUS
 62
     7
 10
169.73380021856269
 20
50.606610116375307
 30
0.0
 11
142.61917934783079
 21
50.568963196943031
 31
0.0
 12
156.3158610056816
 22
50.280312172847857
 32
0.0
 13
156.3158610056816
 23
50.280312172847857
 33
0.0
210
0.0
220
0.0
230
1.0
  0
SOLID
  5
654
  8
DRG
  6
CONTINUOUS
 62
     7
 10
169.73380021856269
 20
50.606610116375307
 30
0.0
 11
156.3158610056816
 21
50.280312172847857
 31
0.0
 12
170.46535120543041
 22
48.888577787754841
 32
0.0
 13
170.46535120543041
 23
48.888577787754841
 33
0.0
210
0.0
220
0.0
230
1.0
  0
SOLID
  5
655
  8
DRG
  6
CONTINUOUS
 62
     7
 10
94.415687537589406
 20
50.657026679935342
 30
0.0
 11
82.256144730442657
 21
49.40981286381988
 31
0.0
 12
93.616006974409046
 22
50.043410202044832
 32
0.0
 13
93.616006974409046
 23
50.043410202044832
 33
0.0
  0
SOLID
  5
656
  8
DRG
  6
CONTINUOUS
 62
     7
 10
98.276886859981815
 20
50.657026679935342
 30
0.0
 11
99.076567423162174
 21
50.043410202044832
 31
0.0
 12
109.9443912682205
 22
50.508493288121258
 32
0.0
 13
109.9443912682205
 23
50.508493288121258
 33
0.0
210
0.0
220
0.0
230
1.0
  0
SOLID
  5
657
  8
DRG
  6
CONTINUOUS
 62
     7
 10
20.04758169418465
 20
50.747942869005499
 30
0.0
 11
7.6220824279870287
 21
49.773358030940919
 31
0.0
 12
18.93668040707891
 22
49.952263229102194
 32
0.0
 13
18.93668040707891
 23
49.952263229102194
 33
0.0
210
0.0
220
0.0
230
1.0
  0
SOLID
  5
658
  8
DRG
  6
CONTINUOUS
 62
     7
 10
83.031606533031265
 20
51.032202961762849
 30
0.0
 11
82.256144730442657
 21
49.40981286381988
 31
0.0
 12
94.415687537589406
 22
50.657026679935342
 32
0.0
 13
94.415687537589406
 23
50.657026679935342
 33
0.0
210
0.0
220
0.0
230
1.0
  0
SOLID
  5
659
  8
DRG
  6
CONTINUOUS
 62
     7
 10
95.346935277213504
 20
51.042762123616932
 30
0.0
 11
83.031606533031265
 21
51.032202961762849
 31
0.0
 12
94.415687537589406
 22
50.657026679935342
 32
0.0
 13
94.415687537589406
 23
50.657026679935342
 33
0.0
210
0.0
220
0.0
230
1.0
  0
SOLID
  5
65A
  8
DRG
  6
CONTINUOUS
 62
     7
 10
97.345639120357703
 20
51.042762123616932
 30
0.0
 11
98.276886859981815
 21
50.657026679935342
 31
0.0
 12
109.9443912682205
 22
50.508493288121258
 32
0.0
 13
109.9443912682205
 23
50.508493288121258
 33
0.0
210
0.0
220
0.0
230
1.0
  0
SOLID
  5
65B
  8
DRG
  6
CONTINUOUS
 62
     7
 10
96.346287198785603
 20
51.174329300060663
 30
0.0
 11
83.031606533031265
 21
51.032202961762849
 31
0.0
 12
95.346935277213504
 22
51.042762123616932
 32
0.0
 13
95.346935277213504
 23
51.042762123616932
 33
0.0
210
0.0
220
0.0
230
1.0
  0
SOLID
  5
65C
  8
DRG
  6
CONTINUOUS
 62
     7
 10
96.346287198785603
 20
51.174329300060663
 30
0.0
 11
97.345639120357703
 21
51.042762123616932
 31
0.0
 12
109.9443912682205
 22
50.508493288121258
 32
0.0
 13
109.9443912682205
 23
50.508493288121258
 33
0.0
210
0.0
220
0.0
230
1.0
  0
SOLID
  5
65D
  8
DRG
  6
CONTINUOUS
 62
     7
 10
21.324900358829169
 20
51.233396046974882
 30
0.0
 11
7.6220824279870287
 21
49.773358030940919
 31
0.0
 12
20.04758169418465
 22
50.747942869005499
 32
0.0
 13
20.04758169418465
 23
50.747942869005499
 33
0.0
  0
SOLID
  5
65E
  8
DRG
  6
CONTINUOUS
 62
     7
 10
27.267121908897021
 20
51.255838552818979
 30
0.0
 11
24.05122445427131
 21
50.841970309004992
 31
0.0
 12
25.258677615930839
 22
50.006881919259932
 32
0.0
 13
25.258677615930839
 23
50.006881919259932
 33
0.0
210
0.0
220
0.0
230
1.0
  0
SOLID
  5
65F
  8
DRG
  6
CONTINUOUS
 62
     7
 10
27.267121908897021
 20
51.255838552818979
 30
0.0
 11
25.258677615930839
 21
50.006881919259932
 31
0.0
 12
26.241246459003669
 22
48.91606835823719
 32
0.0
 13
26.241246459003669
 23
48.91606835823719
 33
0.0
210
0.0
220
0.0
230
1.0
  0
SOLID
  5
660
  8
DRG
  6
CONTINUOUS
 62
     7
 10
27.267121908897021
 20
51.255838552818979
 30
0.0
 11
26.241246459003669
 21
48.91606835823719
 31
0.0
 12
26.946063157671329
 22
47.628221636935379
 32
0.0
 13
26.946063157671329
 23
47.628221636935379
 33
0.0
210
0.0
220
0.0
230
1.0
  0
SOLID
  5
661
  8
DRG
  6
CONTINUOUS
 62
     7
 10
27.267121908897021
 20
51.255838552818979
 30
0.0
 11
26.946063157671329
 21
47.628221636935379
 31
0.0
 12
37.639779947293839
 22
13.760967175618781
 32
0.0
 13
37.639779947293839
 23
13.760967175618781
 33
0.0
210
0.0
220
0.0
230
1.0
  0
SOLID
  5
662
  8
DRG
  6
CONTINUOUS
 62
     7
 10
22.683854862926282
 20
51.376400993896397
 30
0.0
 11
24.05122445427131
 21
50.841970309004992
 31
0.0
 12
27.267121908897021
 22
51.255838552818979
 32
0.0
 13
27.267121908897021
 23
51.255838552818979
 33
0.0
210
0.0
220
0.0
230
1.0
  0
SOLID
  5
663
  8
DRG
  6
CONTINUOUS
 62
     7
 10
8.3177663299538551
 20
51.46696259979587
 30
0.0
 11
21.324900358829169
 21
51.233396046974882
 31
0.0
 12
22.683854862926282
 22
51.376400993896397
 32
0.0
 13
22.683854862926282
 23
51.376400993896397
 33
0.0
  0
SOLID
  5
664
  8
DRG
  6
CONTINUOUS
 62
     7
 10
8.3177663299538551
 20
51.46696259979587
 30
0.0
 11
7.6220824279870287
 21
49.773358030940919
 31
0.0
 12
21.324900358829169
 22
51.233396046974882
 32
0.0
 13
21.324900358829169
 23
51.233396046974882
 33
0.0
210
0.0
220
0.0
230
1.0
  0
SOLID
  5
665
  8
DRG
  6
CONTINUOUS
 62
     7
 10
108.9605169104595
 20
52.11403031875637
 30
0.0
 11
96.346287198785603
 21
51.174329300060663
 31
0.0
 12
109.9443912682205
 22
50.508493288121258
 32
0.0
 13
109.9443912682205
 23
50.508493288121258
 33
0.0
210
0.0
220
0.0
230
1.0
  0
SOLID
  5
666
  8
DRG
  6
CONTINUOUS
 62
     7
 10
71.988740354038555
 20
52.11403031875637
 30
0.0
 11
59.374510642364612
 21
50.551813396295529
 31
0.0
 12
72.972614711799594
 22
50.508493288121258
 32
0.0
 13
72.972614711799594
 23
50.508493288121258
 33
0.0
210
0.0
220
0.0
230
1.0
  0
SOLID
  5
667
  8
DRG
  6
CONTINUOUS
 62
     7
 10
46.760278461589081
 20
52.114030318756498
 30
0.0
 11
59.374510642364612
 21
50.551813396295529
 31
0.0
 12
71.988740354038555
 22
52.11403031875637
 32
0.0
 13
71.988740354038555
 23
52.11403031875637
 33
0.0
210
0.0
220
0.0
230
1.0
  0
SOLID
  5
668
  8
DRG
  6
CONTINUOUS
 62
     7
 10
46.760278461589081
 20
52.114030318756498
 30
0.0
 11
45.776404103828028
 21
50.508493288121407
 31
0.0
 12
59.374510642364612
 22
50.551813396295529
 32
0.0
 13
59.374510642364612
 23
50.551813396295529
 33
0.0
210
0.0
220
0.0
230
1.0
  0
SOLID
  5
669
  8
DRG
  6
CONTINUOUS
 62
     7
 10
143.6063830495508
 20
52.161077155056709
 30
0.0
 11
142.61917934783079
 21
50.568963196943031
 31
0.0
 12
169.73380021856269
 22
50.606610116375307
 32
0.0
 13
169.73380021856269
 23
50.606610116375307
 33
0.0
210
0.0
220
0.0
230
1.0
  0
SOLID
  5
66A
  8
DRG
  6
CONTINUOUS
 62
     7
 10
168.74457661464871
 20
52.190352074533777
 30
0.0
 11
143.6063830495508
 21
52.161077155056709
 31
0.0
 12
169.73380021856269
 22
50.606610116375307
 32
0.0
 13
169.73380021856269
 23
50.606610116375307
 33
0.0
210
0.0
220
0.0
230
1.0
  0
SOLID
  5
66B
  8
DRG
  6
CONTINUOUS
 62
     7
 10
84.040792503241747
 20
52.520502096583449
 30
0.0
 11
96.346287198785603
 21
51.174329300060663
 31
0.0
 12
108.9605169104595
 22
52.11403031875637
 32
0.0
 13
108.9605169104595
 23
52.11403031875637
 33
0.0
210
0.0
220
0.0
230
1.0
  0
SOLID
  5
66C
  8
DRG
  6
CONTINUOUS
 62
     7
 10
84.040792503241747
 20
52.520502096583449
 30
0.0
 11
83.031606533031265
 21
51.032202961762849
 31
0.0
 12
96.346287198785603
 22
51.174329300060663
 32
0.0
 13
96.346287198785603
 23
51.174329300060663
 33
0.0
  0
SOLID
  5
66D
  8
DRG
  6
CONTINUOUS
 62
     7
 10
26.699742183985649
 20
52.856551873435983
 30
0.0
 11
8.3177663299538551
 21
51.46696259979587
 31
0.0
 12
22.683854862926282
 22
51.376400993896397
 32
0.0
 13
22.683854862926282
 23
51.376400993896397
 33
0.0
210
0.0
220
0.0
230
1.0
  0
SOLID
  5
66E
  8
DRG
  6
CONTINUOUS
 62
     7
 10
26.699742183985649
 20
52.856551873435983
 30
0.0
 11
22.683854862926282
 21
51.376400993896397
 31
0.0
 12
27.267121908897021
 22
51.255838552818979
 32
0.0
 13
27.267121908897021
 23
51.255838552818979
 33
0.0
210
0.0
220
0.0
230
1.0
  0
SOLID
  5
66F
  8
DRG
  6
CONTINUOUS
 62
     7
 10
9.2608673477428542
 20
53.036304180633991
 30
0.0
 11
8.3177663299538551
 21
51.46696259979587
 31
0.0
 12
26.699742183985649
 22
52.856551873435983
 32
0.0
 13
26.699742183985649
 23
52.856551873435983
 33
0.0
210
0.0
220
0.0
230
1.0
  0
SOLID
  5
670
  8
DRG
  6
CONTINUOUS
 62
     7
 10
127.2345352189994
 20
53.086533694841222
 30
0.0
 11
135.23453521899941
 21
48.740104065808111
 31
0.0
 12
136.6041529029215
 22
48.740104065808111
 32
0.0
 13
136.6041529029215
 23
48.740104065808111
 33
0.0
210
0.0
220
0.0
230
1.0
  0
SOLID
  5
671
  8
DRG
  6
CONTINUOUS
 62
     7
 10
127.2345352189994
 20
53.086533694841222
 30
0.0
 11
133.67381264287039
 21
48.586386309033962
 31
0.0
 12
135.23453521899941
 22
48.740104065808111
 32
0.0
 13
135.23453521899941
 23
48.740104065808111
 33
0.0
  0
SOLID
  5
672
  8
DRG
  6
CONTINUOUS
 62
     7
 10
127.2345352189994
 20
53.086533694841222
 30
0.0
 11
132.17306776007871
 21
48.1311403258984
 31
0.0
 12
133.67381264287039
 22
48.586386309033962
 32
0.0
 13
133.67381264287039
 23
48.586386309033962
 33
0.0
210
0.0
220
0.0
230
1.0
  0
SOLID
  5
673
  8
DRG
  6
CONTINUOUS
 62
     7
 10
127.2345352189994
 20
53.086533694841222
 30
0.0
 11
130.7899733548426
 21
47.391860964228471
 31
0.0
 12
132.17306776007871
 22
48.1311403258984
 32
0.0
 13
132.17306776007871
 23
48.1311403258984
 33
0.0
210
0.0
220
0.0
230
1.0
  0
SOLID
  5
674
  8
DRG
  6
CONTINUOUS
 62
     7
 10
127.2345352189994
 20
53.086533694841222
 30
0.0
 11
129.57768096950701
 21
46.396958315300481
 31
0.0
 12
130.7899733548426
 22
47.391860964228471
 32
0.0
 13
130.7899733548426
 23
47.391860964228471
 33
0.0
210
0.0
220
0.0
230
1.0
  0
SOLID
  5
675
  8
DRG
  6
CONTINUOUS
 62
     7
 10
127.2345352189994
 20
53.086533694841222
 30
0.0
 11
128.582778320579
 21
45.184665929964922
 31
0.0
 12
129.57768096950701
 22
46.396958315300481
 32
0.0
 13
129.57768096950701
 23
46.396958315300481
 33
0.0
210
0.0
220
0.0
230
1.0
  0
SOLID
  5
676
  8
DRG
  6
CONTINUOUS
 62
     7
 10
127.2345352189994
 20
53.086533694841222
 30
0.0
 11
127.84349895890909
 21
43.801571524728807
 31
0.0
 12
128.582778320579
 22
45.184665929964922
 32
0.0
 13
128.582778320579
 23
45.184665929964922
 33
0.0
210
0.0
220
0.0
230
1.0
  0
SOLID
  5
677
  8
DRG
  6
CONTINUOUS
 62
     7
 10
127.2345352189994
 20
53.086533694841222
 30
0.0
 11
116.19314081319391
 21
17.28637227261407
 31
0.0
 12
127.84349895890909
 22
43.801571524728807
 32
0.0
 13
127.84349895890909
 23
43.801571524728807
 33
0.0
210
0.0
220
0.0
230
1.0
  0
SOLID
  5
678
  8
DRG
  6
CONTINUOUS
 62
     7
 10
70.76581779577775
 20
53.545888665485272
 30
0.0
 11
46.760278461589081
 21
52.114030318756498
 31
0.0
 12
71.988740354038555
 22
52.11403031875637
 32
0.0
 13
71.988740354038555
 23
52.11403031875637
 33
0.0
210
0.0
220
0.0
230
1.0
  0
SOLID
  5
679
  8
DRG
  6
CONTINUOUS
 62
     7
 10
107.7375943521987
 20
53.545888665485272
 30
0.0
 11
84.040792503241747
 21
52.520502096583449
 31
0.0
 12
108.9605169104595
 22
52.11403031875637
 32
0.0
 13
108.9605169104595
 23
52.11403031875637
 33
0.0
210
0.0
220
0.0
230
1.0
  0
SOLID
  5
67A
  8
DRG
  6
CONTINUOUS
 62
     7
 10
47.983201019849879
 20
53.54588866548535
 30
0.0
 11
46.760278461589081
 21
52.114030318756498
 31
0.0
 12
70.76581779577775
 22
53.545888665485272
 32
0.0
 13
70.76581779577775
 23
53.545888665485272
 33
0.0
210
0.0
220
0.0
230
1.0
  0
SOLID
  5
67B
  8
DRG
  6
CONTINUOUS
 62
     7
 10
144.82934634516241
 20
53.580146843936248
 30
0.0
 11
143.6063830495508
 21
52.161077155056709
 31
0.0
 12
168.74457661464871
 22
52.190352074533777
 32
0.0
 13
168.74457661464871
 23
52.190352074533777
 33
0.0
210
0.0
220
0.0
230
1.0
  0
SOLID
  5
67C
  8
DRG
  6
CONTINUOUS
 62
     7
 10
167.52163335736839
 20
53.601455089215932
 30
0.0
 11
144.82934634516241
 21
53.580146843936248
 31
0.0
 12
168.74457661464871
 22
52.190352074533777
 32
0.0
 13
168.74457661464871
 23
52.190352074533777
 33
0.0
210
0.0
220
0.0
230
1.0
  0
SOLID
  5
67D
  8
DRG
  6
CONTINUOUS
 62
     7
 10
85.261041575894609
 20
53.84129081468609
 30
0.0
 11
84.040792503241747
 21
52.520502096583449
 31
0.0
 12
107.7375943521987
 22
53.545888665485272
 32
0.0
 13
107.7375943521987
 23
53.545888665485272
 33
0.0
210
0.0
220
0.0
230
1.0
  0
SOLID
  5
67E
  8
DRG
  6
CONTINUOUS
 62
     7
 10
25.844798136495001
 20
54.32395555433007
 30
0.0
 11
9.2608673477428542
 21
53.036304180633991
 31
0.0
 12
26.699742183985649
 22
52.856551873435983
 32
0.0
 13
26.699742183985649
 23
52.856551873435983
 33
0.0
210
0.0
220
0.0
230
1.0
  0
SOLID
  5
67F
  8
DRG
  6
CONTINUOUS
 62
     7
 10
128.4120288872063
 20
54.426660978047501
 30
0.0
 11
127.2345352189994
 21
53.086533694841222
 31
0.0
 12
136.6041529029215
 22
48.740104065808111
 32
0.0
 13
136.6041529029215
 23
48.740104065808111
 33
0.0
  0
SOLID
  5
680
  8
DRG
  6
CONTINUOUS
 62
     7
 10
10.42981956125807
 20
54.445496591066302
 30
0.0
 11
9.2608673477428542
 21
53.036304180633991
 31
0.0
 12
25.844798136495001
 22
54.32395555433007
 32
0.0
 13
25.844798136495001
 23
54.32395555433007
 33
0.0
210
0.0
220
0.0
230
1.0
  0
SOLID
  5
681
  8
DRG
  6
CONTINUOUS
 62
     7
 10
106.3057360054698
 20
54.76881122374607
 30
0.0
 11
85.261041575894609
 21
53.84129081468609
 31
0.0
 12
107.7375943521987
 22
53.545888665485272
 32
0.0
 13
107.7375943521987
 23
53.545888665485272
 33
0.0
210
0.0
220
0.0
230
1.0
  0
SOLID
  5
682
  8
DRG
  6
CONTINUOUS
 62
     7
 10
69.333959449048862
 20
54.76881122374607
 30
0.0
 11
47.983201019849879
 21
53.54588866548535
 31
0.0
 12
70.76581779577775
 22
53.545888665485272
 32
0.0
 13
70.76581779577775
 23
53.545888665485272
 33
0.0
210
0.0
220
0.0
230
1.0
  0
SOLID
  5
683
  8
DRG
  6
CONTINUOUS
 62
     7
 10
49.415059366578767
 20
54.768811223746127
 30
0.0
 11
47.983201019849879
 21
53.54588866548535
 31
0.0
 12
69.333959449048862
 22
54.76881122374607
 32
0.0
 13
69.333959449048862
 23
54.76881122374607
 33
0.0
210
0.0
220
0.0
230
1.0
  0
SOLID
  5
684
  8
DRG
  6
CONTINUOUS
 62
     7
 10
146.25826461696471
 20
54.791588372372388
 30
0.0
 11
144.82934634516241
 21
53.580146843936248
 31
0.0
 12
167.52163335736839
 22
53.601455089215932
 32
0.0
 13
167.52163335736839
 23
53.601455089215932
 33
0.0
210
0.0
220
0.0
230
1.0
  0
SOLID
  5
685
  8
DRG
  6
CONTINUOUS
 62
     7
 10
166.0945826752498
 20
54.805750849914723
 30
0.0
 11
146.25826461696471
 21
54.791588372372388
 31
0.0
 12
167.52163335736839
 22
53.601455089215932
 32
0.0
 13
167.52163335736839
 23
53.601455089215932
 33
0.0
210
0.0
220
0.0
230
1.0
  0
SOLID
  5
686
  8
DRG
  6
CONTINUOUS
 62
     7
 10
86.66495330688258
 20
54.964911074725819
 30
0.0
 11
85.261041575894609
 21
53.84129081468609
 31
0.0
 12
106.3057360054698
 22
54.76881122374607
 32
0.0
 13
106.3057360054698
 23
54.76881122374607
 33
0.0
210
0.0
220
0.0
230
1.0
  0
SOLID
  5
687
  8
DRG
  6
CONTINUOUS
 62
     7
 10
129.80398889070241
 20
55.542402804156168
 30
0.0
 11
128.4120288872063
 21
54.426660978047501
 31
0.0
 12
136.6041529029215
 22
48.740104065808111
 32
0.0
 13
136.6041529029215
 23
48.740104065808111
 33
0.0
210
0.0
220
0.0
230
1.0
  0
SOLID
  5
688
  8
DRG
  6
CONTINUOUS
 62
     7
 10
24.732069813226278
 20
55.606935899322451
 30
0.0
 11
10.42981956125807
 21
54.445496591066302
 31
0.0
 12
25.844798136495001
 22
54.32395555433007
 32
0.0
 13
25.844798136495001
 23
54.32395555433007
 33
0.0
210
0.0
220
0.0
230
1.0
  0
SOLID
  5
689
  8
DRG
  6
CONTINUOUS
 62
     7
 10
11.797892504136779
 20
55.662315784728747
 30
0.0
 11
10.42981956125807
 21
54.445496591066302
 31
0.0
 12
24.732069813226278
 22
55.606935899322451
 32
0.0
 13
24.732069813226278
 23
55.606935899322451
 33
0.0
210
0.0
220
0.0
230
1.0
  0
SOLID
  5
68A
  8
DRG
  6
CONTINUOUS
 62
     7
 10
67.728422418413743
 20
55.752685581507109
 30
0.0
 11
49.415059366578767
 21
54.768811223746127
 31
0.0
 12
69.333959449048862
 22
54.76881122374607
 32
0.0
 13
69.333959449048862
 23
54.76881122374607
 33
0.0
210
0.0
220
0.0
230
1.0
  0
SOLID
  5
68B
  8
DRG
  6
CONTINUOUS
 62
     7
 10
104.70019897483471
 20
55.752685581507109
 30
0.0
 11
86.66495330688258
 21
54.964911074725819
 31
0.0
 12
106.3057360054698
 22
54.76881122374607
 32
0.0
 13
106.3057360054698
 23
54.76881122374607
 33
0.0
210
0.0
220
0.0
230
1.0
  0
SOLID
  5
68C
  8
DRG
  6
CONTINUOUS
 62
     7
 10
51.020596397213872
 20
55.752685581507151
 30
0.0
 11
49.415059366578767
 21
54.768811223746127
 31
0.0
 12
67.728422418413743
 22
55.752685581507109
 32
0.0
 13
67.728422418413743
 23
55.752685581507109
 33
0.0
  0
SOLID
  5
68D
  8
DRG
  6
CONTINUOUS
 62
     7
 10
147.85831395571171
 20
55.765877917571849
 30
0.0
 11
146.25826461696471
 21
54.791588372372388
 31
0.0
 12
166.0945826752498
 22
54.805750849914723
 32
0.0
 13
166.0945826752498
 23
54.805750849914723
 33
0.0
210
0.0
220
0.0
230
1.0
  0
SOLID
  5
68E
  8
DRG
  6
CONTINUOUS
 62
     7
 10
164.49797903406079
 20
55.774078656762292
 30
0.0
 11
147.85831395571171
 21
55.765877917571849
 31
0.0
 12
166.0945826752498
 22
54.805750849914723
 32
0.0
 13
166.0945826752498
 23
54.805750849914723
 33
0.0
210
0.0
220
0.0
230
1.0
  0
SOLID
  5
68F
  8
DRG
  6
CONTINUOUS
 62
     7
 10
88.221003144555837
 20
55.866132212879158
 30
0.0
 11
86.66495330688258
 21
54.964911074725819
 31
0.0
 12
104.70019897483471
 22
55.752685581507109
 32
0.0
 13
104.70019897483471
 23
55.752685581507109
 33
0.0
210
0.0
220
0.0
230
1.0
  0
SOLID
  5
690
  8
DRG
  6
CONTINUOUS
 62
     7
 10
131.36827517159969
 20
56.399981316747272
 30
0.0
 11
129.80398889070241
 21
55.542402804156168
 31
0.0
 12
136.6041529029215
 22
48.740104065808111
 32
0.0
 13
136.6041529029215
 23
48.740104065808111
 33
0.0
210
0.0
220
0.0
230
1.0
  0
SOLID
  5
691
  8
DRG
  6
CONTINUOUS
 62
     7
 10
102.9605169104595
 20
56.473285486788541
 30
0.0
 11
88.221003144555837
 21
55.866132212879158
 31
0.0
 12
104.70019897483471
 22
55.752685581507109
 32
0.0
 13
104.70019897483471
 23
55.752685581507109
 33
0.0
210
0.0
220
0.0
230
1.0
  0
SOLID
  5
692
  8
DRG
  6
CONTINUOUS
 62
     7
 10
65.988740354038555
 20
56.473285486788541
 30
0.0
 11
51.020596397213872
 21
55.752685581507151
 31
0.0
 12
67.728422418413743
 22
55.752685581507109
 32
0.0
 13
67.728422418413743
 23
55.752685581507109
 33
0.0
210
0.0
220
0.0
230
1.0
  0
SOLID
  5
693
  8
DRG
  6
CONTINUOUS
 62
     7
 10
52.760278461589039
 20
56.473285486788562
 30
0.0
 11
51.020596397213872
 21
55.752685581507151
 31
0.0
 12
65.988740354038555
 22
56.473285486788541
 32
0.0
 13
65.988740354038555
 23
56.473285486788541
 33
0.0
210
0.0
220
0.0
230
1.0
  0
SOLID
  5
694
  8
DRG
  6
CONTINUOUS
 62
     7
 10
149.59049984781899
 20
56.479271244912823
 30
0.0
 11
147.85831395571171
 21
55.765877917571849
 31
0.0
 12
164.49797903406079
 22
55.774078656762292
 32
0.0
 13
164.49797903406079
 23
55.774078656762292
 33
0.0
210
0.0
220
0.0
230
1.0
  0
SOLID
  5
695
  8
DRG
  6
CONTINUOUS
 62
     7
 10
162.77048243835179
 20
56.482991514866931
 30
0.0
 11
149.59049984781899
 21
56.479271244912823
 31
0.0
 12
164.49797903406079
 22
55.774078656762292
 32
0.0
 13
164.49797903406079
 23
55.774078656762292
 33
0.0
210
0.0
220
0.0
230
1.0
  0
SOLID
  5
696
  8
DRG
  6
CONTINUOUS
 62
     7
 10
89.894250307101217
 20
56.524717492255519
 30
0.0
 11
88.221003144555837
 21
55.866132212879158
 31
0.0
 12
102.9605169104595
 22
56.473285486788541
 32
0.0
 13
102.9605169104595
 23
56.473285486788541
 33
0.0
210
0.0
220
0.0
230
1.0
  0
SOLID
  5
697
  8
DRG
  6
CONTINUOUS
 62
     7
 10
13.33380241014922
 20
56.658936719545487
 30
0.0
 11
11.797892504136779
 21
55.662315784728747
 31
0.0
 12
24.732069813226278
 22
55.606935899322451
 32
0.0
 13
24.732069813226278
 23
55.606935899322451
 33
0.0
210
0.0
220
0.0
230
1.0
  0
SOLID
  5
698
  8
DRG
  6
CONTINUOUS
 62
     7
 10
23.40031659456379
 20
56.660803183008269
 30
0.0
 11
13.33380241014922
 21
56.658936719545487
 31
0.0
 12
24.732069813226278
 22
55.606935899322451
 32
0.0
 13
24.732069813226278
 23
55.606935899322451
 33
0.0
210
0.0
220
0.0
230
1.0
  0
SOLID
  5
699
  8
DRG
  6
CONTINUOUS
 62
     7
 10
64.157750002021956
 20
56.912867378388363
 30
0.0
 11
52.760278461589039
 21
56.473285486788562
 31
0.0
 12
65.988740354038555
 22
56.473285486788541
 32
0.0
 13
65.988740354038555
 23
56.473285486788541
 33
0.0
210
0.0
220
0.0
230
1.0
  0
SOLID
  5
69A
  8
DRG
  6
CONTINUOUS
 62
     7
 10
101.1295265584429
 20
56.912867378388363
 30
0.0
 11
89.894250307101217
 21
56.524717492255519
 31
0.0
 12
102.9605169104595
 22
56.473285486788541
 32
0.0
 13
102.9605169104595
 23
56.473285486788541
 33
0.0
  0
SOLID
  5
69B
  8
DRG
  6
CONTINUOUS
 62
     7
 10
54.591268813605623
 20
56.912867378388363
 30
0.0
 11
52.760278461589039
 21
56.473285486788562
 31
0.0
 12
64.157750002021956
 22
56.912867378388363
 32
0.0
 13
64.157750002021956
 23
56.912867378388363
 33
0.0
210
0.0
220
0.0
230
1.0
  0
SOLID
  5
69C
  8
DRG
  6
CONTINUOUS
 62
     7
 10
151.4126075036138
 20
56.914382374400461
 30
0.0
 11
149.59049984781899
 21
56.479271244912823
 31
0.0
 12
162.77048243835179
 22
56.482991514866931
 32
0.0
 13
162.77048243835179
 23
56.482991514866931
 33
0.0
210
0.0
220
0.0
230
1.0
  0
SOLID
  5
69D
  8
DRG
  6
CONTINUOUS
 62
     7
 10
160.9539223218834
 20
56.91532387755619
 30
0.0
 11
151.4126075036138
 21
56.914382374400461
 31
0.0
 12
162.77048243835179
 22
56.482991514866931
 32
0.0
 13
162.77048243835179
 23
56.482991514866931
 33
0.0
  0
SOLID
  5
69E
  8
DRG
  6
CONTINUOUS
 62
     7
 10
91.647122370673046
 20
56.925878514697629
 30
0.0
 11
89.894250307101217
 21
56.524717492255519
 31
0.0
 12
101.1295265584429
 22
56.912867378388363
 32
0.0
 13
101.1295265584429
 23
56.912867378388363
 33
0.0
210
0.0
220
0.0
230
1.0
  0
SOLID
  5
69F
  8
DRG
  6
CONTINUOUS
 62
     7
 10
133.05753068352811
 20
56.973434269726511
 30
0.0
 11
131.36827517159969
 21
56.399981316747272
 31
0.0
 12
136.6041529029215
 22
48.740104065808111
 32
0.0
 13
136.6041529029215
 23
48.740104065808111
 33
0.0
210
0.0
220
0.0
230
1.0
  0
SOLID
  5
6A0
  8
DRG
  6
CONTINUOUS
 62
     7
 10
160.9539223218834
 20
56.91532387755619
 30
0.0
 11
159.0922846938046
 21
57.06060729124669
 31
0.0
 12
153.28023066635379
 22
57.06060729124669
 32
0.0
 13
153.28023066635379
 23
57.06060729124669
 33
0.0
210
0.0
220
0.0
230
1.0
  0
SOLID
  5
6A1
  8
DRG
  6
CONTINUOUS
 62
     7
 10
153.28023066635379
 20
57.06060729124669
 30
0.0
 11
151.4126075036138
 21
56.914382374400461
 31
0.0
 12
160.9539223218834
 22
56.91532387755619
 32
0.0
 13
160.9539223218834
 23
56.91532387755619
 33
0.0
210
0.0
220
0.0
230
1.0
  0
SOLID
  5
6A2
  8
DRG
  6
CONTINUOUS
 62
     7
 10
27.267121908897021
 20
51.255838552818979
 30
0.0
 11
37.639779947293832
 21
57.06060729124669
 31
0.0
 12
27.267121908897028
 22
57.06060729124669
 32
0.0
 13
27.267121908897028
 23
57.06060729124669
 33
0.0
210
0.0
220
0.0
230
1.0
  0
SOLID
  5
6A3
  8
DRG
  6
CONTINUOUS
 62
     7
 10
37.639779947293832
 20
57.06060729124669
 30
0.0
 11
27.267121908897021
 21
51.255838552818979
 31
0.0
 12
37.639779947293839
 22
13.760967175618781
 32
0.0
 13
37.639779947293839
 23
13.760967175618781
 33
0.0
  0
SOLID
  5
6A4
  8
DRG
  6
CONTINUOUS
 62
     7
 10
54.591268813605623
 20
56.912867378388363
 30
0.0
 11
62.280536421539182
 21
57.06060729124669
 31
0.0
 12
56.468482394088369
 22
57.06060729124669
 32
0.0
 13
56.468482394088369
 23
57.06060729124669
 33
0.0
210
0.0
220
0.0
230
1.0
  0
SOLID
  5
6A5
  8
DRG
  6
CONTINUOUS
 62
     7
 10
62.280536421539182
 20
57.06060729124669
 30
0.0
 11
54.591268813605623
 21
56.912867378388363
 31
0.0
 12
64.157750002021956
 22
56.912867378388363
 32
0.0
 13
64.157750002021956
 23
56.912867378388363
 33
0.0
210
0.0
220
0.0
230
1.0
  0
SOLID
  5
6A6
  8
DRG
  6
CONTINUOUS
 62
     7
 10
91.647122370673046
 20
56.925878514697629
 30
0.0
 11
99.252312977960173
 21
57.06060729124669
 31
0.0
 12
93.440258950509346
 22
57.06060729124669
 32
0.0
 13
93.440258950509346
 23
57.06060729124669
 33
0.0
210
0.0
220
0.0
230
1.0
  0
SOLID
  5
6A7
  8
DRG
  6
CONTINUOUS
 62
     7
 10
99.252312977960173
 20
57.06060729124669
 30
0.0
 11
91.647122370673046
 21
56.925878514697629
 31
0.0
 12
101.1295265584429
 22
56.912867378388363
 32
0.0
 13
101.1295265584429
 23
56.912867378388363
 33
0.0
210
0.0
220
0.0
230
1.0
  0
SOLID
  5
6A8
  8
DRG
  6
CONTINUOUS
 62
     7
 10
127.2345352189994
 20
53.086533694841222
 30
0.0
 11
127.2345352189994
 21
57.207648031108022
 31
0.0
 12
116.19314081319391
 22
57.207648031108022
 32
0.0
 13
116.19314081319391
 23
57.207648031108022
 33
0.0
210
0.0
220
0.0
230
1.0
  0
SOLID
  5
6A9
  8
DRG
  6
CONTINUOUS
 62
     7
 10
116.19314081319391
 20
57.207648031108022
 30
0.0
 11
116.19314081319391
 21
17.28637227261407
 31
0.0
 12
127.2345352189994
 22
53.086533694841222
 32
0.0
 13
127.2345352189994
 23
53.086533694841222
 33
0.0
210
0.0
220
0.0
230
1.0
  0
SOLID
  5
6AA
  8
DRG
  6
CONTINUOUS
 62
     7
 10
136.6041529029215
 20
57.207648031108022
 30
0.0
 11
133.05753068352811
 21
56.973434269726511
 31
0.0
 12
136.6041529029215
 22
48.740104065808111
 32
0.0
 13
136.6041529029215
 23
48.740104065808111
 33
0.0
210
0.0
220
0.0
230
1.0
  0
SOLID
  5
6AB
  8
DRG
  6
CONTINUOUS
 62
     7
 10
134.8206150741201
 20
57.245401005766141
 30
0.0
 11
133.05753068352811
 21
56.973434269726511
 31
0.0
 12
136.6041529029215
 22
57.207648031108022
 32
0.0
 13
136.6041529029215
 23
57.207648031108022
 33
0.0
210
0.0
220
0.0
230
1.0
  0
SOLID
  5
6AC
  8
DRG
  6
CONTINUOUS
 62
     7
 10
15.00242758004698
 20
57.41256963382525
 30
0.0
 11
13.33380241014922
 21
56.658936719545487
 31
0.0
 12
23.40031659456379
 22
56.660803183008269
 32
0.0
 13
23.40031659456379
 23
56.660803183008269
 33
0.0
  0
SOLID
  5
6AD
  8
DRG
  6
CONTINUOUS
 62
     7
 10
21.895927098915749
 20
57.448848316503202
 30
0.0
 11
15.00242758004698
 21
57.41256963382525
 31
0.0
 12
23.40031659456379
 22
56.660803183008269
 32
0.0
 13
23.40031659456379
 23
56.660803183008269
 33
0.0
210
0.0
220
0.0
230
1.0
  0
SOLID
  5
6AE
  8
DRG
  6
CONTINUOUS
 62
     7
 10
16.765611510544261
 20
57.905981180445629
 30
0.0
 11
15.00242758004698
 21
57.41256963382525
 31
0.0
 12
21.895927098915749
 22
57.448848316503202
 32
0.0
 13
21.895927098915749
 23
57.448848316503202
 33
0.0
210
0.0
220
0.0
230
1.0
  0
SOLID
  5
6AF
  8
DRG
  6
CONTINUOUS
 62
     7
 10
20.271303339863209
 20
57.943621525724573
 30
0.0
 11
16.765611510544261
 21
57.905981180445629
 31
0.0
 12
21.895927098915749
 22
57.448848316503202
 32
0.0
 13
21.895927098915749
 23
57.448848316503202
 33
0.0
210
0.0
220
0.0
230
1.0
  0
SOLID
  5
6B0
  8
DRG
  6
CONTINUOUS
 62
     7
 10
18.58303542025671
 20
58.127888502333931
 30
0.0
 11
16.765611510544261
 21
57.905981180445629
 31
0.0
 12
20.271303339863209
 22
57.943621525724573
 32
0.0
 13
20.271303339863209
 23
57.943621525724573
 33
0.0
210
0.0
220
0.0
230
1.0
  0
SOLID
  5
6B1
  8
DRG
  6
CONTINUOUS
 62
     7
 10
82.01868759770089
 20
61.040289496156653
 30
0.0
 11
75.331191210151701
 21
60.89733173546756
 31
0.0
 12
80.675802928262684
 22
60.89733173546756
 32
0.0
 13
80.675802928262684
 23
60.89733173546756
 33
0.0
210
0.0
220
0.0
230
1.0
  0
SOLID
  5
6B2
  8
DRG
  6
CONTINUOUS
 62
     7
 10
105.53904684726351
 20
61.045071094397443
 30
0.0
 11
97.849782736700035
 21
60.89733173546756
 31
0.0
 12
103.66183676415081
 22
60.89733173546756
 32
0.0
 13
103.66183676415081
 23
60.89733173546756
 33
0.0
210
0.0
220
0.0
230
1.0
  0
SOLID
  5
6B3
  8
DRG
  6
CONTINUOUS
 62
     7
 10
49.52740701022941
 20
61.045071094397443
 30
0.0
 11
41.838142899665847
 21
60.89733173546756
 31
0.0
 12
47.650196927116667
 22
60.89733173546756
 32
0.0
 13
47.650196927116667
 23
60.89733173546756
 33
0.0
210
0.0
220
0.0
230
1.0
  0
SOLID
  5
6B4
  8
DRG
  6
CONTINUOUS
 62
     7
 10
95.972569156217247
 20
61.045071648325901
 30
0.0
 11
97.849782736700035
 21
60.89733173546756
 31
0.0
 12
105.53904684726351
 22
61.045071094397443
 32
0.0
 13
105.53904684726351
 23
61.045071094397443
 33
0.0
210
0.0
220
0.0
230
1.0
  0
SOLID
  5
6B5
  8
DRG
  6
CONTINUOUS
 62
     7
 10
39.960929319183123
 20
61.045071648325901
 30
0.0
 11
41.838142899665847
 21
60.89733173546756
 31
0.0
 12
49.52740701022941
 22
61.045071094397443
 32
0.0
 13
49.52740701022941
 23
61.045071094397443
 33
0.0
  0
SOLID
  5
6B6
  8
DRG
  6
CONTINUOUS
 62
     7
 10
73.770468634022663
 20
61.051049492241717
 30
0.0
 11
75.331191210151701
 21
60.89733173546756
 31
0.0
 12
82.01868759770089
 22
61.040289496156653
 32
0.0
 13
82.01868759770089
 23
61.040289496156653
 33
0.0
210
0.0
220
0.0
230
1.0
  0
SOLID
  5
6B7
  8
DRG
  6
CONTINUOUS
 62
     7
 10
83.309615438619744
 20
61.436876770654941
 30
0.0
 11
73.770468634022663
 21
61.051049492241717
 31
0.0
 12
82.01868759770089
 22
61.040289496156653
 32
0.0
 13
82.01868759770089
 23
61.040289496156653
 33
0.0
  0
SOLID
  5
6B8
  8
DRG
  6
CONTINUOUS
 62
     7
 10
51.358394124299522
 20
61.484651351490918
 30
0.0
 11
39.960929319183123
 21
61.045071648325901
 31
0.0
 12
49.52740701022941
 22
61.045071094397443
 32
0.0
 13
49.52740701022941
 23
61.045071094397443
 33
0.0
210
0.0
220
0.0
230
1.0
  0
SOLID
  5
6B9
  8
DRG
  6
CONTINUOUS
 62
     7
 10
107.3700339613337
 20
61.484651351490918
 30
0.0
 11
95.972569156217247
 21
61.045071648325901
 31
0.0
 12
105.53904684726351
 22
61.045071094397443
 32
0.0
 13
105.53904684726351
 23
61.045071094397443
 33
0.0
210
0.0
220
0.0
230
1.0
  0
SOLID
  5
6BA
  8
DRG
  6
CONTINUOUS
 62
     7
 10
38.129938967166559
 20
61.484653539925702
 30
0.0
 11
39.960929319183123
 21
61.045071648325901
 31
0.0
 12
51.358394124299522
 22
61.484651351490918
 32
0.0
 13
51.358394124299522
 23
61.484651351490918
 33
0.0
210
0.0
220
0.0
230
1.0
  0
SOLID
  5
6BB
  8
DRG
  6
CONTINUOUS
 62
     7
 10
94.141578804200677
 20
61.484653539925709
 30
0.0
 11
95.972569156217247
 21
61.045071648325901
 31
0.0
 12
107.3700339613337
 22
61.484651351490918
 32
0.0
 13
107.3700339613337
 23
61.484651351490918
 33
0.0
210
0.0
220
0.0
230
1.0
  0
SOLID
  5
6BC
  8
DRG
  6
CONTINUOUS
 62
     7
 10
72.269723751230984
 20
61.506295475377271
 30
0.0
 11
73.770468634022663
 21
61.051049492241717
 31
0.0
 12
83.309615438619744
 22
61.436876770654941
 32
0.0
 13
83.309615438619744
 23
61.436876770654941
 33
0.0
210
0.0
220
0.0
230
1.0
  0
SOLID
  5
6BD
  8
DRG
  6
CONTINUOUS
 62
     7
 10
84.501142256151084
 20
62.072518178885289
 30
0.0
 11
72.269723751230984
 21
61.506295475377271
 31
0.0
 12
83.309615438619744
 22
61.436876770654941
 32
0.0
 13
83.309615438619744
 23
61.436876770654941
 33
0.0
  0
SOLID
  5
6BE
  8
DRG
  6
CONTINUOUS
 62
     7
 10
53.098073458920069
 20
62.205248622517793
 30
0.0
 11
38.129938967166559
 21
61.484653539925702
 31
0.0
 12
51.358394124299522
 22
61.484651351490918
 32
0.0
 13
51.358394124299522
 23
61.484651351490918
 33
0.0
210
0.0
220
0.0
230
1.0
  0
SOLID
  5
6BF
  8
DRG
  6
CONTINUOUS
 62
     7
 10
109.10971329595419
 20
62.205248622517793
 30
0.0
 11
94.141578804200677
 21
61.484653539925709
 31
0.0
 12
107.3700339613337
 22
61.484651351490918
 32
0.0
 13
107.3700339613337
 23
61.484651351490918
 33
0.0
210
0.0
220
0.0
230
1.0
  0
SOLID
  5
6C0
  8
DRG
  6
CONTINUOUS
 62
     7
 10
36.390256902791393
 20
62.205253445207092
 30
0.0
 11
38.129938967166559
 21
61.484653539925702
 31
0.0
 12
53.098073458920069
 22
62.205248622517793
 32
0.0
 13
53.098073458920069
 23
62.205248622517793
 33
0.0
210
0.0
220
0.0
230
1.0
  0
SOLID
  5
6C1
  8
DRG
  6
CONTINUOUS
 62
     7
 10
92.401896739825474
 20
62.205253445207127
 30
0.0
 11
94.141578804200677
 21
61.484653539925709
 31
0.0
 12
109.10971329595419
 22
62.205248622517793
 32
0.0
 13
109.10971329595419
 23
62.205248622517793
 33
0.0
  0
SOLID
  5
6C2
  8
DRG
  6
CONTINUOUS
 62
     7
 10
70.886629345994876
 20
62.245574837047201
 30
0.0
 11
72.269723751230984
 21
61.506295475377271
 31
0.0
 12
84.501142256151084
 22
62.072518178885289
 32
0.0
 13
84.501142256151084
 23
62.072518178885289
 33
0.0
210
0.0
220
0.0
230
1.0
  0
SOLID
  5
6C3
  8
DRG
  6
CONTINUOUS
 62
     7
 10
110.7152483328518
 20
63.189119477666686
 30
0.0
 11
92.401896739825474
 21
62.205253445207127
 31
0.0
 12
109.10971329595419
 22
62.205248622517793
 32
0.0
 13
109.10971329595419
 23
62.205248622517793
 33
0.0
210
0.0
220
0.0
230
1.0
  0
SOLID
  5
6C4
  8
DRG
  6
CONTINUOUS
 62
     7
 10
54.703608495817662
 20
63.189119477666686
 30
0.0
 11
36.390256902791393
 21
62.205253445207092
 31
0.0
 12
53.098073458920069
 22
62.205248622517793
 32
0.0
 13
53.098073458920069
 23
62.205248622517793
 33
0.0
210
0.0
220
0.0
230
1.0
  0
SOLID
  5
6C5
  8
DRG
  6
CONTINUOUS
 62
     7
 10
34.784719872156288
 20
63.189127802968102
 30
0.0
 11
36.390256902791393
 21
62.205253445207092
 31
0.0
 12
54.703608495817662
 22
63.189119477666686
 32
0.0
 13
54.703608495817662
 23
63.189119477666686
 33
0.0
210
0.0
220
0.0
230
1.0
  0
SOLID
  5
6C6
  8
DRG
  6
CONTINUOUS
 62
     7
 10
90.796359709190384
 20
63.189127802968173
 30
0.0
 11
92.401896739825474
 21
62.205253445207127
 31
0.0
 12
110.7152483328518
 22
63.189119477666686
 32
0.0
 13
110.7152483328518
 23
63.189119477666686
 33
0.0
210
0.0
220
0.0
230
1.0
  0
SOLID
  5
6C7
  8
DRG
  6
CONTINUOUS
 62
     7
 10
69.674336960659303
 20
63.240477485975177
 30
0.0
 11
70.886629345994876
 21
62.245574837047201
 31
0.0
 12
84.501142256151084
 22
62.072518178885289
 32
0.0
 13
84.501142256151084
 23
62.072518178885289
 33
0.0
210
0.0
220
0.0
230
1.0
  0
SOLID
  5
6C8
  8
DRG
  6
CONTINUOUS
 62
     7
 10
112.14710561917801
 20
64.412037842036057
 30
0.0
 11
90.796359709190384
 21
63.189127802968173
 31
0.0
 12
110.7152483328518
 22
63.189119477666686
 32
0.0
 13
110.7152483328518
 23
63.189119477666686
 33
0.0
210
0.0
220
0.0
230
1.0
  0
SOLID
  5
6C9
  8
DRG
  6
CONTINUOUS
 62
     7
 10
56.135465782143832
 20
64.412037842036057
 30
0.0
 11
34.784719872156288
 21
63.189127802968102
 31
0.0
 12
54.703608495817662
 22
63.189119477666686
 32
0.0
 13
54.703608495817662
 23
63.189119477666686
 33
0.0
210
0.0
220
0.0
230
1.0
  0
SOLID
  5
6CA
  8
DRG
  6
CONTINUOUS
 62
     7
 10
33.352861525427407
 20
64.412050361228864
 30
0.0
 11
34.784719872156288
 21
63.189127802968102
 31
0.0
 12
56.135465782143832
 22
64.412037842036057
 32
0.0
 13
56.135465782143832
 23
64.412037842036057
 33
0.0
  0
SOLID
  5
6CB
  8
DRG
  6
CONTINUOUS
 62
     7
 10
89.364501362461496
 20
64.412050361228964
 30
0.0
 11
90.796359709190384
 21
63.189127802968173
 31
0.0
 12
112.14710561917801
 22
64.412037842036057
 32
0.0
 13
112.14710561917801
 23
64.412037842036057
 33
0.0
210
0.0
220
0.0
230
1.0
  0
SOLID
  5
6CC
  8
DRG
  6
CONTINUOUS
 62
     7
 10
68.679434311731342
 20
64.45276987131075
 30
0.0
 11
69.674336960659303
 21
63.240477485975177
 31
0.0
 12
84.501142256151084
 22
62.072518178885289
 32
0.0
 13
84.501142256151084
 23
62.072518178885289
 33
0.0
210
0.0
220
0.0
230
1.0
  0
SOLID
  5
6CD
  8
DRG
  6
CONTINUOUS
 62
     7
 10
67.940154950061412
 20
65.835864276546843
 30
0.0
 11
68.679434311731342
 21
64.45276987131075
 31
0.0
 12
84.501142256151084
 22
62.072518178885289
 32
0.0
 13
84.501142256151084
 23
62.072518178885289
 33
0.0
210
0.0
220
0.0
230
1.0
  0
SOLID
  5
6CE
  8
DRG
  6
CONTINUOUS
 62
     7
 10
57.358388371638434
 20
65.843891519763289
 30
0.0
 11
33.352861525427407
 21
64.412050361228864
 31
0.0
 12
56.135465782143832
 22
64.412037842036057
 32
0.0
 13
56.135465782143832
 23
64.412037842036057
 33
0.0
  0
SOLID
  5
6CF
  8
DRG
  6
CONTINUOUS
 62
     7
 10
113.37002820867259
 20
65.843891519763289
 30
0.0
 11
89.364501362461496
 21
64.412050361228964
 31
0.0
 12
112.14710561917801
 22
64.412037842036057
 32
0.0
 13
112.14710561917801
 23
64.412037842036057
 33
0.0
210
0.0
220
0.0
230
1.0
  0
SOLID
  5
6D0
  8
DRG
  6
CONTINUOUS
 62
     7
 10
32.129938967166609
 20
65.843908707957709
 30
0.0
 11
33.352861525427407
 21
64.412050361228864
 31
0.0
 12
57.358388371638434
 22
65.843891519763289
 32
0.0
 13
57.358388371638434
 23
65.843891519763289
 33
0.0
210
0.0
220
0.0
230
1.0
  0
SOLID
  5
6D1
  8
DRG
  6
CONTINUOUS
 62
     7
 10
88.141578804200691
 20
65.843908707957823
 30
0.0
 11
89.364501362461496
 21
64.412050361228964
 31
0.0
 12
113.37002820867259
 22
65.843891519763289
 32
0.0
 13
113.37002820867259
 23
65.843891519763289
 33
0.0
210
0.0
220
0.0
230
1.0
  0
SOLID
  5
6D2
  8
DRG
  6
CONTINUOUS
 62
     7
 10
67.484908966925857
 20
67.336609159338536
 30
0.0
 11
67.940154950061412
 21
65.835864276546843
 31
0.0
 12
84.501142256151084
 22
62.072518178885289
 32
0.0
 13
84.501142256151084
 23
62.072518178885289
 33
0.0
210
0.0
220
0.0
230
1.0
  0
SOLID
  5
6D3
  8
DRG
  6
CONTINUOUS
 62
     7
 10
58.342263964402669
 20
67.449423653443588
 30
0.0
 11
32.129938967166609
 21
65.843908707957709
 31
0.0
 12
57.358388371638434
 22
65.843891519763289
 32
0.0
 13
57.358388371638434
 23
65.843891519763289
 33
0.0
210
0.0
220
0.0
230
1.0
  0
SOLID
  5
6D4
  8
DRG
  6
CONTINUOUS
 62
     7
 10
114.3539038014368
 20
67.449423653443588
 30
0.0
 11
88.141578804200691
 21
65.843908707957823
 31
0.0
 12
113.37002820867259
 22
65.843891519763289
 32
0.0
 13
113.37002820867259
 23
65.843891519763289
 33
0.0
210
0.0
220
0.0
230
1.0
  0
SOLID
  5
6D5
  8
DRG
  6
CONTINUOUS
 62
     7
 10
31.146064609405549
 20
67.449445738592772
 30
0.0
 11
32.129938967166609
 21
65.843908707957709
 31
0.0
 12
58.342263964402669
 22
67.449423653443588
 32
0.0
 13
58.342263964402669
 23
67.449423653443588
 33
0.0
  0
SOLID
  5
6D6
  8
DRG
  6
CONTINUOUS
 62
     7
 10
87.157704446439652
 20
67.449445738592942
 30
0.0
 11
88.141578804200691
 21
65.843908707957823
 31
0.0
 12
114.3539038014368
 22
67.449423653443588
 32
0.0
 13
114.3539038014368
 23
67.449423653443588
 33
0.0
210
0.0
220
0.0
230
1.0
  0
SOLID
  5
6D7
  8
DRG
  6
CONTINUOUS
 62
     7
 10
44.744171147941039
 20
68.794444026784149
 30
0.0
 11
31.146064609405549
 21
67.449445738592772
 31
0.0
 12
58.342263964402669
 22
67.449423653443588
 32
0.0
 13
58.342263964402669
 23
67.449423653443588
 33
0.0
210
0.0
220
0.0
230
1.0
  0
SOLID
  5
6D8
  8
DRG
  6
CONTINUOUS
 62
     7
 10
100.7558109849752
 20
68.794444026784163
 30
0.0
 11
87.157704446439652
 21
67.449445738592942
 31
0.0
 12
114.3539038014368
 22
67.449423653443588
 32
0.0
 13
114.3539038014368
 23
67.449423653443588
 33
0.0
210
0.0
220
0.0
230
1.0
  0
SOLID
  5
6D9
  8
DRG
  6
CONTINUOUS
 62
     7
 10
67.331191210151701
 20
68.89733173546756
 30
0.0
 11
67.484908966925857
 21
67.336609159338536
 31
0.0
 12
84.501142256151084
 22
62.072518178885289
 32
0.0
 13
84.501142256151084
 23
62.072518178885289
 33
0.0
210
0.0
220
0.0
230
1.0
  0
SOLID
  5
6DA
  8
DRG
  6
CONTINUOUS
 62
     7
 10
45.743523069513166
 20
68.926011203227603
 30
0.0
 11
44.744171147941039
 21
68.794444026784149
 31
0.0
 12
58.342263964402669
 22
67.449423653443588
 32
0.0
 13
58.342263964402669
 23
67.449423653443588
 33
0.0
  0
SOLID
  5
6DB
  8
DRG
  6
CONTINUOUS
 62
     7
 10
101.7551629065473
 20
68.926011203227617
 30
0.0
 11
100.7558109849752
 21
68.794444026784163
 31
0.0
 12
114.3539038014368
 22
67.449423653443588
 32
0.0
 13
114.3539038014368
 23
67.449423653443588
 33
0.0
210
0.0
220
0.0
230
1.0
  0
SOLID
  5
6DC
  8
DRG
  6
CONTINUOUS
 62
     7
 10
43.744819226368982
 20
68.926011203228157
 30
0.0
 11
31.146064609405549
 21
67.449445738592772
 31
0.0
 12
44.744171147941039
 22
68.794444026784149
 32
0.0
 13
44.744171147941039
 23
68.794444026784149
 33
0.0
210
0.0
220
0.0
230
1.0
  0
SOLID
  5
6DD
  8
DRG
  6
CONTINUOUS
 62
     7
 10
99.756459063403184
 20
68.926011203228157
 30
0.0
 11
87.157704446439652
 21
67.449445738592942
 31
0.0
 12
100.7558109849752
 22
68.794444026784163
 32
0.0
 13
100.7558109849752
 23
68.794444026784163
 33
0.0
210
0.0
220
0.0
230
1.0
  0
SOLID
  5
6DE
  8
DRG
  6
CONTINUOUS
 62
     7
 10
115.07450620591371
 20
69.189100861715076
 30
0.0
 11
101.7551629065473
 21
68.926011203227617
 31
0.0
 12
114.3539038014368
 22
67.449423653443588
 32
0.0
 13
114.3539038014368
 23
67.449423653443588
 33
0.0
210
0.0
220
0.0
230
1.0
  0
SOLID
  5
6DF
  8
DRG
  6
CONTINUOUS
 62
     7
 10
59.062866368879583
 20
69.189100861715076
 30
0.0
 11
45.743523069513166
 21
68.926011203227603
 31
0.0
 12
58.342263964402669
 22
67.449423653443588
 32
0.0
 13
58.342263964402669
 23
67.449423653443588
 33
0.0
210
0.0
220
0.0
230
1.0
  0
SOLID
  5
6E0
  8
DRG
  6
CONTINUOUS
 62
     7
 10
30.425464704124099
 20
69.189127802967917
 30
0.0
 11
31.146064609405549
 21
67.449445738592772
 31
0.0
 12
43.744819226368982
 22
68.926011203228157
 32
0.0
 13
43.744819226368982
 23
68.926011203228157
 33
0.0
210
0.0
220
0.0
230
1.0
  0
SOLID
  5
6E1
  8
DRG
  6
CONTINUOUS
 62
     7
 10
86.437104541158206
 20
69.18912780296813
 30
0.0
 11
87.157704446439652
 21
67.449445738592942
 31
0.0
 12
99.756459063403184
 22
68.926011203228157
 32
0.0
 13
99.756459063403184
 23
68.926011203228157
 33
0.0
210
0.0
220
0.0
230
1.0
  0
SOLID
  5
6E2
  8
DRG
  6
CONTINUOUS
 62
     7
 10
46.674770809137378
 20
69.311746646908944
 30
0.0
 11
45.743523069513166
 21
68.926011203227603
 31
0.0
 12
59.062866368879583
 22
69.189100861715076
 32
0.0
 13
59.062866368879583
 23
69.189100861715076
 33
0.0
210
0.0
220
0.0
230
1.0
  0
SOLID
  5
6E3
  8
DRG
  6
CONTINUOUS
 62
     7
 10
102.6864106461715
 20
69.311746646908958
 30
0.0
 11
101.7551629065473
 21
68.926011203227617
 31
0.0
 12
115.07450620591371
 22
69.189100861715076
 32
0.0
 13
115.07450620591371
 23
69.189100861715076
 33
0.0
210
0.0
220
0.0
230
1.0
  0
SOLID
  5
6E4
  8
DRG
  6
CONTINUOUS
 62
     7
 10
42.813571486744991
 20
69.311746646909995
 30
0.0
 11
30.425464704124099
 21
69.189127802967917
 31
0.0
 12
43.744819226368982
 22
68.926011203228157
 32
0.0
 13
43.744819226368982
 23
68.926011203228157
 33
0.0
210
0.0
220
0.0
230
1.0
  0
SOLID
  5
6E5
  8
DRG
  6
CONTINUOUS
 62
     7
 10
98.825211323779172
 20
69.311746646910009
 30
0.0
 11
86.437104541158206
 21
69.18912780296813
 31
0.0
 12
99.756459063403184
 22
68.926011203228157
 32
0.0
 13
99.756459063403184
 23
68.926011203228157
 33
0.0
  0
SOLID
  5
6E6
  8
DRG
  6
CONTINUOUS
 62
     7
 10
80.482556033578916
 20
69.876055965300111
 30
0.0
 11
67.331191210151701
 21
68.89733173546756
 31
0.0
 12
84.501142256151084
 22
62.072518178885289
 32
0.0
 13
84.501142256151084
 23
62.072518178885289
 33
0.0
210
0.0
220
0.0
230
1.0
  0
SOLID
  5
6E7
  8
DRG
  6
CONTINUOUS
 62
     7
 10
84.501142256151084
 20
62.072518178885289
 30
0.0
 11
83.501142256151255
 21
69.876055965300111
 31
0.0
 12
80.482556033578916
 22
69.876055965300111
 32
0.0
 13
80.482556033578916
 23
69.876055965300111
 33
0.0
210
0.0
220
0.0
230
1.0
  0
SOLID
  5
6E8
  8
DRG
  6
CONTINUOUS
 62
     7
 10
47.474451372317922
 20
69.925363124799233
 30
0.0
 11
46.674770809137378
 21
69.311746646908944
 31
0.0
 12
59.062866368879583
 22
69.189100861715076
 32
0.0
 13
59.062866368879583
 23
69.189100861715076
 33
0.0
210
0.0
220
0.0
230
1.0
  0
SOLID
  5
6E9
  8
DRG
  6
CONTINUOUS
 62
     7
 10
103.4860912093521
 20
69.925363124799233
 30
0.0
 11
102.6864106461715
 21
69.311746646908958
 31
0.0
 12
115.07450620591371
 22
69.189100861715076
 32
0.0
 13
115.07450620591371
 23
69.189100861715076
 33
0.0
  0
SOLID
  5
6EA
  8
DRG
  6
CONTINUOUS
 62
     7
 10
98.025530760598997
 20
69.925363124800725
 30
0.0
 11
86.437104541158206
 21
69.18912780296813
 31
0.0
 12
98.825211323779172
 22
69.311746646910009
 32
0.0
 13
98.825211323779172
 23
69.311746646910009
 33
0.0
210
0.0
220
0.0
230
1.0
  0
SOLID
  5
6EB
  8
DRG
  6
CONTINUOUS
 62
     7
 10
42.01389092356478
 20
69.925363124800725
 30
0.0
 11
30.425464704124099
 21
69.189127802967917
 31
0.0
 12
42.813571486744991
 22
69.311746646909995
 32
0.0
 13
42.813571486744991
 23
69.311746646909995
 33
0.0
210
0.0
220
0.0
230
1.0
  0
SOLID
  5
6EC
  8
DRG
  6
CONTINUOUS
 62
     7
 10
84.015250681967487
 20
70.00375669518948
 30
0.0
 11
83.501142256151255
 21
69.876055965300111
 31
0.0
 12
84.501142256151084
 22
62.072518178885289
 32
0.0
 13
84.501142256151084
 23
62.072518178885289
 33
0.0
  0
SOLID
  5
6ED
  8
DRG
  6
CONTINUOUS
 62
     7
 10
79.555505050454073
 20
70.02288641641465
 30
0.0
 11
67.331191210151701
 21
68.89733173546756
 31
0.0
 12
80.482556033578916
 22
69.876055965300111
 32
0.0
 13
80.482556033578916
 23
69.876055965300111
 33
0.0
210
0.0
220
0.0
230
1.0
  0
SOLID
  5
6EE
  8
DRG
  6
CONTINUOUS
 62
     7
 10
84.501142256151084
 20
70.214764581409185
 30
0.0
 11
84.015250681967487
 21
70.00375669518948
 31
0.0
 12
84.501142256151084
 22
62.072518178885289
 32
0.0
 13
84.501142256151084
 23
62.072518178885289
 33
0.0
210
0.0
220
0.0
230
1.0
  0
SOLID
  5
6EF
  8
DRG
  6
CONTINUOUS
 62
     7
 10
78.719200276701514
 20
70.449004982175254
 30
0.0
 11
67.331191210151701
 21
68.89733173546756
 31
0.0
 12
79.555505050454073
 22
70.02288641641465
 32
0.0
 13
79.555505050454073
 23
70.02288641641465
 33
0.0
210
0.0
220
0.0
230
1.0
  0
SOLID
  5
6F0
  8
DRG
  6
CONTINUOUS
 62
     7
 10
48.088067850208638
 20
70.725043687979436
 30
0.0
 11
47.474451372317922
 21
69.925363124799233
 31
0.0
 12
59.062866368879583
 22
69.189100861715076
 32
0.0
 13
59.062866368879583
 23
69.189100861715076
 33
0.0
210
0.0
220
0.0
230
1.0
  0
SOLID
  5
6F1
  8
DRG
  6
CONTINUOUS
 62
     7
 10
104.0997076872428
 20
70.725043687979451
 30
0.0
 11
103.4860912093521
 21
69.925363124799233
 31
0.0
 12
115.07450620591371
 22
69.189100861715076
 32
0.0
 13
115.07450620591371
 23
69.189100861715076
 33
0.0
210
0.0
220
0.0
230
1.0
  0
SOLID
  5
6F2
  8
DRG
  6
CONTINUOUS
 62
     7
 10
97.411914282708679
 20
70.725043687981255
 30
0.0
 11
86.437104541158206
 21
69.18912780296813
 31
0.0
 12
98.025530760598997
 22
69.925363124800725
 32
0.0
 13
98.025530760598997
 23
69.925363124800725
 33
0.0
210
0.0
220
0.0
230
1.0
  0
SOLID
  5
6F3
  8
DRG
  6
CONTINUOUS
 62
     7
 10
41.400274445674498
 20
70.725043687981255
 30
0.0
 11
30.425464704124099
 21
69.189127802967917
 31
0.0
 12
42.01389092356478
 22
69.925363124800725
 32
0.0
 13
42.01389092356478
 23
69.925363124800725
 33
0.0
210
0.0
220
0.0
230
1.0
  0
SOLID
  5
6F4
  8
DRG
  6
CONTINUOUS
 62
     7
 10
115.5140918658898
 20
71.020086678661926
 30
0.0
 11
104.0997076872428
 21
70.725043687979451
 31
0.0
 12
115.07450620591371
 22
69.189100861715076
 32
0.0
 13
115.07450620591371
 23
69.189100861715076
 33
0.0
210
0.0
220
0.0
230
1.0
  0
SOLID
  5
6F5
  8
DRG
  6
CONTINUOUS
 62
     7
 10
59.502452028855693
 20
71.020086678661926
 30
0.0
 11
48.088067850208638
 21
70.725043687979436
 31
0.0
 12
59.062866368879583
 22
69.189100861715076
 32
0.0
 13
59.062866368879583
 23
69.189100861715076
 33
0.0
210
0.0
220
0.0
230
1.0
  0
SOLID
  5
6F6
  8
DRG
  6
CONTINUOUS
 62
     7
 10
29.985882812524249
 20
71.020118154984459
 30
0.0
 11
30.425464704124099
 21
69.189127802967917
 31
0.0
 12
41.400274445674498
 22
70.725043687981255
 32
0.0
 13
41.400274445674498
 23
70.725043687981255
 33
0.0
210
0.0
220
0.0
230
1.0
  0
SOLID
  5
6F7
  8
DRG
  6
CONTINUOUS
 62
     7
 10
85.997522649558391
 20
71.020118154984715
 30
0.0
 11
86.437104541158206
 21
69.18912780296813
 31
0.0
 12
97.411914282708679
 22
70.725043687981255
 32
0.0
 13
97.411914282708679
 23
70.725043687981255
 33
0.0
210
0.0
220
0.0
230
1.0
  0
SOLID
  5
6F8
  8
DRG
  6
CONTINUOUS
 62
     7
 10
78.055505050454087
 20
71.112700208422694
 30
0.0
 11
67.331191210151701
 21
68.89733173546756
 31
0.0
 12
78.719200276701514
 22
70.449004982175254
 32
0.0
 13
78.719200276701514
 23
70.449004982175254
 33
0.0
210
0.0
220
0.0
230
1.0
  0
SOLID
  5
6F9
  8
DRG
  6
CONTINUOUS
 62
     7
 10
48.473803293890491
 20
71.656291427603421
 30
0.0
 11
48.088067850208638
 21
70.725043687979436
 31
0.0
 12
59.502452028855693
 22
71.020086678661926
 32
0.0
 13
59.502452028855693
 23
71.020086678661926
 33
0.0
210
0.0
220
0.0
230
1.0
  0
SOLID
  5
6FA
  8
DRG
  6
CONTINUOUS
 62
     7
 10
104.48544313092459
 20
71.656291427603435
 30
0.0
 11
104.0997076872428
 21
70.725043687979451
 31
0.0
 12
115.5140918658898
 22
71.020086678661926
 32
0.0
 13
115.5140918658898
 23
71.020086678661926
 33
0.0
210
0.0
220
0.0
230
1.0
  0
SOLID
  5
6FB
  8
DRG
  6
CONTINUOUS
 62
     7
 10
97.026178839027338
 20
71.656291427605453
 30
0.0
 11
85.997522649558391
 21
71.020118154984715
 31
0.0
 12
97.411914282708679
 22
70.725043687981255
 32
0.0
 13
97.411914282708679
 23
70.725043687981255
 33
0.0
210
0.0
220
0.0
230
1.0
  0
SOLID
  5
6FC
  8
DRG
  6
CONTINUOUS
 62
     7
 10
41.014539001993157
 20
71.656291427605453
 30
0.0
 11
29.985882812524249
 21
71.020118154984459
 31
0.0
 12
41.400274445674498
 22
70.725043687981255
 32
0.0
 13
41.400274445674498
 23
70.725043687981255
 33
0.0
  0
SOLID
  5
6FD
  8
DRG
  6
CONTINUOUS
 62
     7
 10
77.62938648469347
 20
71.949004982175268
 30
0.0
 11
67.331191210151701
 21
68.89733173546756
 31
0.0
 12
78.055505050454087
 22
71.112700208422694
 32
0.0
 13
78.055505050454087
 23
71.112700208422694
 33
0.0
210
0.0
220
0.0
230
1.0
  0
SOLID
  5
6FE
  8
DRG
  6
CONTINUOUS
 62
     7
 10
48.605370470334492
 20
72.655643349175492
 30
0.0
 11
48.473803293890491
 21
71.656291427603421
 31
0.0
 12
59.502452028855693
 22
71.020086678661926
 32
0.0
 13
59.502452028855693
 23
71.020086678661926
 33
0.0
210
0.0
220
0.0
230
1.0
  0
SOLID
  5
6FF
  8
DRG
  6
CONTINUOUS
 62
     7
 10
104.6170103073686
 20
72.655643349175506
 30
0.0
 11
104.48544313092459
 21
71.656291427603435
 31
0.0
 12
115.5140918658898
 22
71.020086678661926
 32
0.0
 13
115.5140918658898
 23
71.020086678661926
 33
0.0
210
0.0
220
0.0
230
1.0
  0
SOLID
  5
700
  8
DRG
  6
CONTINUOUS
 62
     7
 10
40.882971825549703
 20
72.655643349177566
 30
0.0
 11
29.985882812524249
 21
71.020118154984459
 31
0.0
 12
41.014539001993157
 22
71.656291427605453
 32
0.0
 13
41.014539001993157
 23
71.656291427605453
 33
0.0
210
0.0
220
0.0
230
1.0
  0
SOLID
  5
701
  8
DRG
  6
CONTINUOUS
 62
     7
 10
96.894611662583884
 20
72.655643349177595
 30
0.0
 11
85.997522649558391
 21
71.020118154984715
 31
0.0
 12
97.026178839027338
 22
71.656291427605453
 32
0.0
 13
97.026178839027338
 23
71.656291427605453
 33
0.0
210
0.0
220
0.0
230
1.0
  0
SOLID
  5
702
  8
DRG
  6
CONTINUOUS
 62
     7
 10
77.482556033578931
 20
72.876055965300111
 30
0.0
 11
67.331191210151701
 21
68.89733173546756
 31
0.0
 12
77.62938648469347
 22
71.949004982175268
 32
0.0
 13
77.62938648469347
 23
71.949004982175268
 33
0.0
210
0.0
220
0.0
230
1.0
  0
SOLID
  5
703
  8
DRG
  6
CONTINUOUS
 62
     7
 10
115.6618367640986
 20
72.897296325816527
 30
0.0
 11
104.6170103073686
 21
72.655643349175506
 31
0.0
 12
115.5140918658898
 22
71.020086678661926
 32
0.0
 13
115.5140918658898
 23
71.020086678661926
 33
0.0
210
0.0
220
0.0
230
1.0
  0
SOLID
  5
704
  8
DRG
  6
CONTINUOUS
 62
     7
 10
59.650196927064421
 20
72.897296325816555
 30
0.0
 11
48.605370470334492
 21
72.655643349175492
 31
0.0
 12
59.502452028855693
 22
71.020086678661926
 32
0.0
 13
59.502452028855693
 23
71.020086678661926
 33
0.0
210
0.0
220
0.0
230
1.0
  0
SOLID
  5
705
  8
DRG
  6
CONTINUOUS
 62
     7
 10
29.838142899665851
 20
72.897331735467191
 30
0.0
 11
29.985882812524249
 21
71.020118154984459
 31
0.0
 12
40.882971825549703
 22
72.655643349177566
 32
0.0
 13
40.882971825549703
 23
72.655643349177566
 33
0.0
  0
SOLID
  5
706
  8
DRG
  6
CONTINUOUS
 62
     7
 10
85.849782736700035
 20
72.897331735467475
 30
0.0
 11
85.997522649558391
 21
71.020118154984715
 31
0.0
 12
96.894611662583884
 22
72.655643349177595
 32
0.0
 13
96.894611662583884
 23
72.655643349177595
 33
0.0
210
0.0
220
0.0
230
1.0
  0
SOLID
  5
707
  8
DRG
  6
CONTINUOUS
 62
     7
 10
165.4162645291251
 20
78.311404477182364
 30
0.0
 11
161.3332883364622
 21
62.115696081838678
 31
0.0
 12
171.78072804963571
 22
62.115696081838678
 32
0.0
 13
171.78072804963571
 23
62.115696081838678
 33
0.0
210
0.0
220
0.0
230
1.0
  0
SOLID
  5
708
  8
DRG
  6
CONTINUOUS
 62
     7
 10
115.9280150750885
 20
78.628250557125298
 30
0.0
 11
104.6170103073686
 21
72.655643349175506
 31
0.0
 12
115.6618367640986
 22
72.897296325816527
 32
0.0
 13
115.6618367640986
 23
72.897296325816527
 33
0.0
210
0.0
220
0.0
230
1.0
  0
SOLID
  5
709
  8
DRG
  6
CONTINUOUS
 62
     7
 10
59.916375238054371
 20
78.628250557125327
 30
0.0
 11
48.605370470334492
 21
72.655643349175492
 31
0.0
 12
59.650196927064421
 22
72.897296325816555
 32
0.0
 13
59.650196927064421
 23
72.897296325816555
 33
0.0
210
0.0
220
0.0
230
1.0
  0
SOLID
  5
70A
  8
DRG
  6
CONTINUOUS
 62
     7
 10
29.57196678328226
 20
78.628262385817905
 30
0.0
 11
29.838142899665851
 21
72.897331735467191
 31
0.0
 12
40.882971825549703
 22
72.655643349177566
 32
0.0
 13
40.882971825549703
 23
72.655643349177566
 33
0.0
210
0.0
220
0.0
230
1.0
  0
SOLID
  5
70B
  8
DRG
  6
CONTINUOUS
 62
     7
 10
85.583606620316473
 20
78.628262385818132
 30
0.0
 11
85.849782736700035
 21
72.897331735467475
 31
0.0
 12
96.894611662583884
 22
72.655643349177595
 32
0.0
 13
96.894611662583884
 23
72.655643349177595
 33
0.0
210
0.0
220
0.0
230
1.0
  0
SOLID
  5
70C
  8
DRG
  6
CONTINUOUS
 62
     7
 10
48.825355035771203
 20
81.496816718755184
 30
0.0
 11
48.605370470334492
 21
72.655643349175492
 31
0.0
 12
59.916375238054371
 22
78.628250557125327
 32
0.0
 13
59.916375238054371
 23
78.628250557125327
 33
0.0
210
0.0
220
0.0
230
1.0
  0
SOLID
  5
70D
  8
DRG
  6
CONTINUOUS
 62
     7
 10
104.83699487280531
 20
81.496816718755184
 30
0.0
 11
104.6170103073686
 21
72.655643349175506
 31
0.0
 12
115.9280150750885
 22
78.628250557125298
 32
0.0
 13
115.9280150750885
 23
78.628250557125298
 33
0.0
210
0.0
220
0.0
230
1.0
  0
SOLID
  5
70E
  8
DRG
  6
CONTINUOUS
 62
     7
 10
40.662987260112992
 20
81.496816718755866
 30
0.0
 11
29.57196678328226
 21
78.628262385817905
 31
0.0
 12
40.882971825549703
 22
72.655643349177566
 32
0.0
 13
40.882971825549703
 23
72.655643349177566
 33
0.0
210
0.0
220
0.0
230
1.0
  0
SOLID
  5
70F
  8
DRG
  6
CONTINUOUS
 62
     7
 10
96.674627097147194
 20
81.496816718756293
 30
0.0
 11
85.583606620316473
 21
78.628262385818132
 31
0.0
 12
96.894611662583884
 22
72.655643349177595
 32
0.0
 13
96.894611662583884
 23
72.655643349177595
 33
0.0
210
0.0
220
0.0
230
1.0
  0
SOLID
  5
710
  8
DRG
  6
CONTINUOUS
 62
     7
 10
153.2899770207527
 20
82.583583780839575
 30
0.0
 11
161.3332883364622
 21
62.115696081838678
 31
0.0
 12
165.4162645291251
 22
78.311404477182364
 32
0.0
 13
165.4162645291251
 23
78.311404477182364
 33
0.0
210
0.0
220
0.0
230
1.0
  0
SOLID
  5
711
  8
DRG
  6
CONTINUOUS
 62
     7
 10
29.57196678328226
 20
84.365371051693273
 30
0.0
 11
29.57196678328226
 21
78.628262385817905
 31
0.0
 12
40.662987260112992
 22
81.496816718755866
 32
0.0
 13
40.662987260112992
 23
81.496816718755866
 33
0.0
210
0.0
220
0.0
230
1.0
  0
SOLID
  5
712
  8
DRG
  6
CONTINUOUS
 62
     7
 10
85.583606620316473
 20
84.365371051693415
 30
0.0
 11
85.583606620316473
 21
78.628262385818132
 31
0.0
 12
96.674627097147194
 22
81.496816718756293
 32
0.0
 13
96.674627097147194
 23
81.496816718756293
 33
0.0
  0
SOLID
  5
713
  8
DRG
  6
CONTINUOUS
 62
     7
 10
115.9280150750885
 20
84.365382880385525
 30
0.0
 11
104.83699487280531
 21
81.496816718755184
 31
0.0
 12
115.9280150750885
 22
78.628250557125298
 32
0.0
 13
115.9280150750885
 23
78.628250557125298
 33
0.0
210
0.0
220
0.0
230
1.0
  0
SOLID
  5
714
  8
DRG
  6
CONTINUOUS
 62
     7
 10
59.916375238054371
 20
84.365382880385553
 30
0.0
 11
48.825355035771203
 21
81.496816718755184
 31
0.0
 12
59.916375238054371
 22
78.628250557125327
 32
0.0
 13
59.916375238054371
 23
78.628250557125327
 33
0.0
210
0.0
220
0.0
230
1.0
  0
SOLID
  5
715
  8
DRG
  6
CONTINUOUS
 62
     7
 10
18.821661727211438
 20
85.569427875032716
 30
0.0
 11
7.7802673214059723
 21
62.115696081838671
 31
0.0
 12
18.821661727211438
 22
62.115696081838678
 32
0.0
 13
18.821661727211438
 23
62.115696081838678
 33
0.0
  0
SOLID
  5
716
  8
DRG
  6
CONTINUOUS
 62
     7
 10
130.05101171535759
 20
85.569427875032716
 30
0.0
 11
119.0096173095521
 21
62.115696081838678
 31
0.0
 12
130.05101171535759
 22
62.115696081838671
 32
0.0
 13
130.05101171535759
 23
62.115696081838671
 33
0.0
210
0.0
220
0.0
230
1.0
  0
SOLID
  5
717
  8
DRG
  6
CONTINUOUS
 62
     7
 10
176.9709164189357
 20
86.855763084496857
 30
0.0
 11
153.2899770207527
 21
82.583583780839575
 31
0.0
 12
165.4162645291251
 22
78.311404477182364
 32
0.0
 13
165.4162645291251
 23
78.311404477182364
 33
0.0
210
0.0
220
0.0
230
1.0
  0
SOLID
  5
718
  8
DRG
  6
CONTINUOUS
 62
     7
 10
176.9709164189357
 20
86.855763084496857
 30
0.0
 11
165.4162645291251
 21
78.311404477182364
 31
0.0
 12
176.9709164189357
 22
78.31140447718235
 32
0.0
 13
176.9709164189357
 23
78.31140447718235
 33
0.0
210
0.0
220
0.0
230
1.0
  0
SOLID
  5
719
  8
DRG
  6
CONTINUOUS
 62
     7
 10
165.4162645291251
 20
86.855763084496886
 30
0.0
 11
153.2899770207527
 21
82.583583780839575
 31
0.0
 12
176.9709164189357
 22
86.855763084496857
 32
0.0
 13
176.9709164189357
 23
86.855763084496857
 33
0.0
210
0.0
220
0.0
230
1.0
  0
SOLID
  5
71A
  8
DRG
  6
CONTINUOUS
 62
     7
 10
18.975379483985598
 20
87.13015045116174
 30
0.0
 11
7.7802673214059723
 21
62.115696081838671
 31
0.0
 12
18.821661727211438
 22
85.569427875032716
 32
0.0
 13
18.821661727211438
 23
85.569427875032716
 33
0.0
210
0.0
220
0.0
230
1.0
  0
SOLID
  5
71B
  8
DRG
  6
CONTINUOUS
 62
     7
 10
130.2047294721317
 20
87.130150451161754
 30
0.0
 11
119.0096173095521
 21
62.115696081838678
 31
0.0
 12
130.05101171535759
 22
85.569427875032716
 32
0.0
 13
130.05101171535759
 23
85.569427875032716
 33
0.0
  0
SOLID
  5
71C
  8
DRG
  6
CONTINUOUS
 62
     7
 10
19.43062546712115
 20
88.630895333953447
 30
0.0
 11
7.7802673214059723
 21
62.115696081838671
 31
0.0
 12
18.975379483985598
 22
87.13015045116174
 32
0.0
 13
18.975379483985598
 23
87.13015045116174
 33
0.0
210
0.0
220
0.0
230
1.0
  0
SOLID
  5
71D
  8
DRG
  6
CONTINUOUS
 62
     7
 10
130.6599754552673
 20
88.630895333953447
 30
0.0
 11
119.0096173095521
 21
62.115696081838678
 31
0.0
 12
130.2047294721317
 22
87.130150451161754
 32
0.0
 13
130.2047294721317
 23
87.130150451161754
 33
0.0
210
0.0
220
0.0
230
1.0
  0
SOLID
  5
71E
  8
DRG
  6
CONTINUOUS
 62
     7
 10
29.83814289966584
 20
90.096301702044016
 30
0.0
 11
29.57196678328226
 21
84.365371051693273
 31
0.0
 12
40.662987260112992
 22
81.496816718755866
 32
0.0
 13
40.662987260112992
 23
81.496816718755866
 33
0.0
  0
SOLID
  5
71F
  8
DRG
  6
CONTINUOUS
 62
     7
 10
85.849782736700035
 20
90.096301702044045
 30
0.0
 11
85.583606620316473
 21
84.365371051693415
 31
0.0
 12
96.674627097147194
 22
81.496816718756293
 32
0.0
 13
96.674627097147194
 23
81.496816718756293
 33
0.0
  0
SOLID
  5
720
  8
DRG
  6
CONTINUOUS
 62
     7
 10
115.6618367640986
 20
90.096337111694325
 30
0.0
 11
104.83699487280531
 21
81.496816718755184
 31
0.0
 12
115.9280150750885
 22
84.365382880385525
 32
0.0
 13
115.9280150750885
 23
84.365382880385525
 33
0.0
210
0.0
220
0.0
230
1.0
  0
SOLID
  5
721
  8
DRG
  6
CONTINUOUS
 62
     7
 10
59.650196927064421
 20
90.096337111694368
 30
0.0
 11
48.825355035771203
 21
81.496816718755184
 31
0.0
 12
59.916375238054371
 22
84.365382880385553
 32
0.0
 13
59.916375238054371
 23
84.365382880385553
 33
0.0
210
0.0
220
0.0
230
1.0
  0
SOLID
  5
722
  8
DRG
  6
CONTINUOUS
 62
     7
 10
40.882971825549703
 20
90.337990088334166
 30
0.0
 11
29.83814289966584
 21
90.096301702044016
 31
0.0
 12
40.662987260112992
 22
81.496816718755866
 32
0.0
 13
40.662987260112992
 23
81.496816718755866
 33
0.0
  0
SOLID
  5
723
  8
DRG
  6
CONTINUOUS
 62
     7
 10
48.605370470334456
 20
90.337990088334735
 30
0.0
 11
48.825355035771203
 21
81.496816718755184
 31
0.0
 12
59.650196927064421
 22
90.096337111694368
 32
0.0
 13
59.650196927064421
 23
90.096337111694368
 33
0.0
210
0.0
220
0.0
230
1.0
  0
SOLID
  5
724
  8
DRG
  6
CONTINUOUS
 62
     7
 10
104.6170103073686
 20
90.337990088334735
 30
0.0
 11
104.83699487280531
 21
81.496816718755184
 31
0.0
 12
115.6618367640986
 22
90.096337111694325
 32
0.0
 13
115.6618367640986
 23
90.096337111694325
 33
0.0
210
0.0
220
0.0
230
1.0
  0
SOLID
  5
725
  8
DRG
  6
CONTINUOUS
 62
     7
 10
96.894611662583884
 20
90.337990088335033
 30
0.0
 11
85.849782736700035
 21
90.096301702044045
 31
0.0
 12
96.674627097147194
 22
81.496816718756293
 32
0.0
 13
96.674627097147194
 23
81.496816718756293
 33
0.0
210
0.0
220
0.0
230
1.0
  0
SOLID
  5
726
  8
DRG
  6
CONTINUOUS
 62
     7
 10
41.014539001993349
 20
91.337342009906294
 30
0.0
 11
29.83814289966584
 21
90.096301702044016
 31
0.0
 12
40.882971825549703
 22
90.337990088334166
 32
0.0
 13
40.882971825549703
 23
90.337990088334166
 33
0.0
  0
SOLID
  5
727
  8
DRG
  6
CONTINUOUS
 62
     7
 10
48.47380329389069
 20
91.337342009906834
 30
0.0
 11
48.605370470334456
 21
90.337990088334735
 31
0.0
 12
59.650196927064421
 22
90.096337111694368
 32
0.0
 13
59.650196927064421
 23
90.096337111694368
 33
0.0
210
0.0
220
0.0
230
1.0
  0
SOLID
  5
728
  8
DRG
  6
CONTINUOUS
 62
     7
 10
104.48544313092491
 20
91.337342009906848
 30
0.0
 11
104.6170103073686
 21
90.337990088334735
 31
0.0
 12
115.6618367640986
 22
90.096337111694325
 32
0.0
 13
115.6618367640986
 23
90.096337111694325
 33
0.0
210
0.0
220
0.0
230
1.0
  0
SOLID
  5
729
  8
DRG
  6
CONTINUOUS
 62
     7
 10
97.026178839027665
 20
91.337342009907147
 30
0.0
 11
85.849782736700035
 21
90.096301702044045
 31
0.0
 12
96.894611662583884
 22
90.337990088335033
 32
0.0
 13
96.894611662583884
 23
90.337990088335033
 33
0.0
210
0.0
220
0.0
230
1.0
  0
SOLID
  5
72A
  8
DRG
  6
CONTINUOUS
 62
     7
 10
29.985882812524231
 20
91.973515282526762
 30
0.0
 11
29.83814289966584
 21
90.096301702044016
 31
0.0
 12
41.014539001993349
 22
91.337342009906294
 32
0.0
 13
41.014539001993349
 23
91.337342009906294
 33
0.0
  0
SOLID
  5
72B
  8
DRG
  6
CONTINUOUS
 62
     7
 10
85.99752264955842
 20
91.973515282526762
 30
0.0
 11
85.849782736700035
 21
90.096301702044045
 31
0.0
 12
97.026178839027665
 22
91.337342009907147
 32
0.0
 13
97.026178839027665
 23
91.337342009907147
 33
0.0
  0
SOLID
  5
72C
  8
DRG
  6
CONTINUOUS
 62
     7
 10
115.5140918658899
 20
91.973546758849025
 30
0.0
 11
104.48544313092491
 21
91.337342009906848
 31
0.0
 12
115.6618367640986
 22
90.096337111694325
 32
0.0
 13
115.6618367640986
 23
90.096337111694325
 33
0.0
210
0.0
220
0.0
230
1.0
  0
SOLID
  5
72D
  8
DRG
  6
CONTINUOUS
 62
     7
 10
59.50245202885575
 20
91.973546758849054
 30
0.0
 11
48.47380329389069
 21
91.337342009906834
 31
0.0
 12
59.650196927064421
 22
90.096337111694368
 32
0.0
 13
59.650196927064421
 23
90.096337111694368
 33
0.0
210
0.0
220
0.0
230
1.0
  0
SOLID
  5
72E
  8
DRG
  6
CONTINUOUS
 62
     7
 10
41.400274445674881
 20
92.26858974953042
 30
0.0
 11
29.985882812524231
 21
91.973515282526762
 31
0.0
 12
41.014539001993349
 22
91.337342009906294
 32
0.0
 13
41.014539001993349
 23
91.337342009906294
 33
0.0
210
0.0
220
0.0
230
1.0
  0
SOLID
  5
72F
  8
DRG
  6
CONTINUOUS
 62
     7
 10
48.088067850209029
 20
92.268589749530904
 30
0.0
 11
48.47380329389069
 21
91.337342009906834
 31
0.0
 12
59.50245202885575
 22
91.973546758849054
 32
0.0
 13
59.50245202885575
 23
91.973546758849054
 33
0.0
210
0.0
220
0.0
230
1.0
  0
SOLID
  5
730
  8
DRG
  6
CONTINUOUS
 62
     7
 10
104.0997076872434
 20
92.268589749530975
 30
0.0
 11
104.48544313092491
 21
91.337342009906848
 31
0.0
 12
115.5140918658899
 22
91.973546758849025
 32
0.0
 13
115.5140918658899
 23
91.973546758849025
 33
0.0
210
0.0
220
0.0
230
1.0
  0
SOLID
  5
731
  8
DRG
  6
CONTINUOUS
 62
     7
 10
97.411914282709276
 20
92.268589749531216
 30
0.0
 11
85.99752264955842
 21
91.973515282526762
 31
0.0
 12
97.026178839027665
 22
91.337342009907147
 32
0.0
 13
97.026178839027665
 23
91.337342009907147
 33
0.0
210
0.0
220
0.0
230
1.0
  0
SOLID
  5
732
  8
DRG
  6
CONTINUOUS
 62
     7
 10
42.013890923565327
 20
93.068270312710808
 30
0.0
 11
29.985882812524231
 21
91.973515282526762
 31
0.0
 12
41.400274445674881
 22
92.26858974953042
 32
0.0
 13
41.400274445674881
 23
92.26858974953042
 33
0.0
210
0.0
220
0.0
230
1.0
  0
SOLID
  5
733
  8
DRG
  6
CONTINUOUS
 62
     7
 10
47.474451372318462
 20
93.068270312711235
 30
0.0
 11
48.088067850209029
 21
92.268589749530904
 31
0.0
 12
59.50245202885575
 22
91.973546758849054
 32
0.0
 13
59.50245202885575
 23
91.973546758849054
 33
0.0
210
0.0
220
0.0
230
1.0
  0
SOLID
  5
734
  8
DRG
  6
CONTINUOUS
 62
     7
 10
103.48609120935291
 20
93.068270312711377
 30
0.0
 11
104.0997076872434
 21
92.268589749530975
 31
0.0
 12
115.5140918658899
 22
91.973546758849025
 32
0.0
 13
115.5140918658899
 23
91.973546758849025
 33
0.0
210
0.0
220
0.0
230
1.0
  0
SOLID
  5
735
  8
DRG
  6
CONTINUOUS
 62
     7
 10
98.025530760599821
 20
93.068270312711576
 30
0.0
 11
85.99752264955842
 21
91.973515282526762
 31
0.0
 12
97.411914282709276
 22
92.268589749531216
 32
0.0
 13
97.411914282709276
 23
92.268589749531216
 33
0.0
210
0.0
220
0.0
230
1.0
  0
SOLID
  5
736
  8
DRG
  6
CONTINUOUS
 62
     7
 10
42.813571486745637
 20
93.681886790601396
 30
0.0
 11
29.985882812524231
 21
91.973515282526762
 31
0.0
 12
42.013890923565327
 22
93.068270312710808
 32
0.0
 13
42.013890923565327
 23
93.068270312710808
 33
0.0
  0
SOLID
  5
737
  8
DRG
  6
CONTINUOUS
 62
     7
 10
46.674770809138039
 20
93.681886790601681
 30
0.0
 11
47.474451372318462
 21
93.068270312711235
 31
0.0
 12
59.50245202885575
 22
91.973546758849054
 32
0.0
 13
59.50245202885575
 23
91.973546758849054
 33
0.0
210
0.0
220
0.0
230
1.0
  0
SOLID
  5
738
  8
DRG
  6
CONTINUOUS
 62
     7
 10
102.6864106461726
 20
93.681886790601908
 30
0.0
 11
103.48609120935291
 21
93.068270312711377
 31
0.0
 12
115.5140918658899
 22
91.973546758849025
 32
0.0
 13
115.5140918658899
 23
91.973546758849025
 33
0.0
210
0.0
220
0.0
230
1.0
  0
SOLID
  5
739
  8
DRG
  6
CONTINUOUS
 62
     7
 10
98.825211323780209
 20
93.68188679060205
 30
0.0
 11
85.99752264955842
 21
91.973515282526762
 31
0.0
 12
98.025530760599821
 22
93.068270312711576
 32
0.0
 13
98.025530760599821
 23
93.068270312711576
 33
0.0
210
0.0
220
0.0
230
1.0
  0
SOLID
  5
73A
  8
DRG
  6
CONTINUOUS
 62
     7
 10
86.437104541158234
 20
93.804505634543304
 30
0.0
 11
85.99752264955842
 21
91.973515282526762
 31
0.0
 12
98.825211323780209
 22
93.68188679060205
 32
0.0
 13
98.825211323780209
 23
93.68188679060205
 33
0.0
210
0.0
220
0.0
230
1.0
  0
SOLID
  5
73B
  8
DRG
  6
CONTINUOUS
 62
     7
 10
30.425464704124071
 20
93.804505634543304
 30
0.0
 11
29.985882812524231
 21
91.973515282526762
 31
0.0
 12
42.813571486745637
 22
93.681886790601396
 32
0.0
 13
42.813571486745637
 23
93.681886790601396
 33
0.0
210
0.0
220
0.0
230
1.0
  0
SOLID
  5
73C
  8
DRG
  6
CONTINUOUS
 62
     7
 10
115.07450620591381
 20
93.804532575795946
 30
0.0
 11
102.6864106461726
 21
93.681886790601908
 31
0.0
 12
115.5140918658899
 22
91.973546758849025
 32
0.0
 13
115.5140918658899
 23
91.973546758849025
 33
0.0
210
0.0
220
0.0
230
1.0
  0
SOLID
  5
73D
  8
DRG
  6
CONTINUOUS
 62
     7
 10
59.062866368879661
 20
93.80453257579596
 30
0.0
 11
46.674770809138039
 21
93.681886790601681
 31
0.0
 12
59.50245202885575
 22
91.973546758849054
 32
0.0
 13
59.50245202885575
 23
91.973546758849054
 33
0.0
210
0.0
220
0.0
230
1.0
  0
SOLID
  5
73E
  8
DRG
  6
CONTINUOUS
 62
     7
 10
43.744819226369721
 20
94.06762223428305
 30
0.0
 11
30.425464704124071
 21
93.804505634543304
 31
0.0
 12
42.813571486745637
 22
93.681886790601396
 32
0.0
 13
42.813571486745637
 23
93.681886790601396
 33
0.0
210
0.0
220
0.0
230
1.0
  0
SOLID
  5
73F
  8
DRG
  6
CONTINUOUS
 62
     7
 10
45.74352306951392
 20
94.067622234283206
 30
0.0
 11
46.674770809138039
 21
93.681886790601681
 31
0.0
 12
59.062866368879661
 22
93.80453257579596
 32
0.0
 13
59.062866368879661
 23
93.80453257579596
 33
0.0
210
0.0
220
0.0
230
1.0
  0
SOLID
  5
740
  8
DRG
  6
CONTINUOUS
 62
     7
 10
101.75516290654851
 20
94.067622234283533
 30
0.0
 11
102.6864106461726
 21
93.681886790601908
 31
0.0
 12
115.07450620591381
 22
93.804532575795946
 32
0.0
 13
115.07450620591381
 23
93.804532575795946
 33
0.0
210
0.0
220
0.0
230
1.0
  0
SOLID
  5
741
  8
DRG
  6
CONTINUOUS
 62
     7
 10
99.756459063404321
 20
94.067622234283604
 30
0.0
 11
86.437104541158234
 21
93.804505634543304
 31
0.0
 12
98.825211323780209
 22
93.68188679060205
 32
0.0
 13
98.825211323780209
 23
93.68188679060205
 33
0.0
210
0.0
220
0.0
230
1.0
  0
SOLID
  5
742
  8
DRG
  6
CONTINUOUS
 62
     7
 10
44.744171147941813
 20
94.199189410726845
 30
0.0
 11
30.425464704124071
 21
93.804505634543304
 31
0.0
 12
43.744819226369721
 22
94.06762223428305
 32
0.0
 13
43.744819226369721
 23
94.06762223428305
 33
0.0
210
0.0
220
0.0
230
1.0
  0
SOLID
  5
743
  8
DRG
  6
CONTINUOUS
 62
     7
 10
44.744171147941813
 20
94.199189410726845
 30
0.0
 11
45.74352306951392
 21
94.067622234283206
 31
0.0
 12
59.062866368879661
 22
93.80453257579596
 32
0.0
 13
59.062866368879661
 23
93.80453257579596
 33
0.0
  0
SOLID
  5
744
  8
DRG
  6
CONTINUOUS
 62
     7
 10
100.75581098497641
 20
94.199189410727286
 30
0.0
 11
86.437104541158234
 21
93.804505634543304
 31
0.0
 12
99.756459063404321
 22
94.067622234283604
 32
0.0
 13
99.756459063404321
 23
94.067622234283604
 33
0.0
210
0.0
220
0.0
230
1.0
  0
SOLID
  5
745
  8
DRG
  6
CONTINUOUS
 62
     7
 10
100.75581098497641
 20
94.199189410727286
 30
0.0
 11
101.75516290654851
 21
94.067622234283533
 31
0.0
 12
115.07450620591381
 22
93.804532575795946
 32
0.0
 13
115.07450620591381
 23
93.804532575795946
 33
0.0
210
0.0
220
0.0
230
1.0
  0
SOLID
  5
746
  8
DRG
  6
CONTINUOUS
 62
     7
 10
77.482556033578931
 20
94.593352860836134
 30
0.0
 11
67.331191210151701
 21
68.89733173546756
 31
0.0
 12
77.482556033578931
 22
72.876055965300111
 32
0.0
 13
77.482556033578931
 23
72.876055965300111
 33
0.0
210
0.0
220
0.0
230
1.0
  0
SOLID
  5
747
  8
DRG
  6
CONTINUOUS
 62
     7
 10
67.331191210151687
 20
94.593352860836134
 30
0.0
 11
77.482556033578931
 21
94.593352860836134
 31
0.0
 12
84.553623006881026
 22
94.593352860836134
 32
0.0
 13
84.553623006881026
 23
94.593352860836134
 33
0.0
210
0.0
220
0.0
230
1.0
  0
SOLID
  5
748
  8
DRG
  6
CONTINUOUS
 62
     7
 10
67.331191210151687
 20
94.593352860836134
 30
0.0
 11
67.331191210151701
 21
68.89733173546756
 31
0.0
 12
77.482556033578931
 22
94.593352860836134
 32
0.0
 13
77.482556033578931
 23
94.593352860836134
 33
0.0
210
0.0
220
0.0
230
1.0
  0
SOLID
  5
749
  8
DRG
  6
CONTINUOUS
 62
     7
 10
31.14606460940551
 20
95.544187698918478
 30
0.0
 11
30.425464704124071
 21
93.804505634543304
 31
0.0
 12
44.744171147941813
 22
94.199189410726845
 32
0.0
 13
44.744171147941813
 23
94.199189410726845
 33
0.0
210
0.0
220
0.0
230
1.0
  0
SOLID
  5
74A
  8
DRG
  6
CONTINUOUS
 62
     7
 10
87.157704446439695
 20
95.544187698918478
 30
0.0
 11
86.437104541158234
 21
93.804505634543304
 31
0.0
 12
100.75581098497641
 22
94.199189410727286
 32
0.0
 13
100.75581098497641
 23
94.199189410727286
 33
0.0
  0
SOLID
  5
74B
  8
DRG
  6
CONTINUOUS
 62
     7
 10
114.3539038014369
 20
95.544209784067476
 30
0.0
 11
87.157704446439695
 21
95.544187698918478
 31
0.0
 12
100.75581098497641
 22
94.199189410727286
 32
0.0
 13
100.75581098497641
 23
94.199189410727286
 33
0.0
  0
SOLID
  5
74C
  8
DRG
  6
CONTINUOUS
 62
     7
 10
114.3539038014369
 20
95.544209784067476
 30
0.0
 11
100.75581098497641
 21
94.199189410727286
 31
0.0
 12
115.07450620591381
 22
93.804532575795946
 32
0.0
 13
115.07450620591381
 23
93.804532575795946
 33
0.0
210
0.0
220
0.0
230
1.0
  0
SOLID
  5
74D
  8
DRG
  6
CONTINUOUS
 62
     7
 10
58.342263964402783
 20
95.544209784067505
 30
0.0
 11
31.14606460940551
 21
95.544187698918478
 31
0.0
 12
44.744171147941813
 22
94.199189410726845
 32
0.0
 13
44.744171147941813
 23
94.199189410726845
 33
0.0
210
0.0
220
0.0
230
1.0
  0
SOLID
  5
74E
  8
DRG
  6
CONTINUOUS
 62
     7
 10
58.342263964402783
 20
95.544209784067505
 30
0.0
 11
44.744171147941813
 21
94.199189410726845
 31
0.0
 12
59.062866368879661
 22
93.80453257579596
 32
0.0
 13
59.062866368879661
 23
93.80453257579596
 33
0.0
210
0.0
220
0.0
230
1.0
  0
SOLID
  5
74F
  8
DRG
  6
CONTINUOUS
 62
     7
 10
32.129938967166559
 20
97.149724729553569
 30
0.0
 11
31.14606460940551
 21
95.544187698918478
 31
0.0
 12
58.342263964402783
 22
95.544209784067505
 32
0.0
 13
58.342263964402783
 23
95.544209784067505
 33
0.0
210
0.0
220
0.0
230
1.0
  0
SOLID
  5
750
  8
DRG
  6
CONTINUOUS
 62
     7
 10
88.141578804200734
 20
97.149724729553569
 30
0.0
 11
87.157704446439695
 21
95.544187698918478
 31
0.0
 12
114.3539038014369
 22
95.544209784067476
 32
0.0
 13
114.3539038014369
 23
95.544209784067476
 33
0.0
210
0.0
220
0.0
230
1.0
  0
SOLID
  5
751
  8
DRG
  6
CONTINUOUS
 62
     7
 10
113.37002820867269
 20
97.149741917747846
 30
0.0
 11
88.141578804200734
 21
97.149724729553569
 31
0.0
 12
114.3539038014369
 22
95.544209784067476
 32
0.0
 13
114.3539038014369
 23
95.544209784067476
 33
0.0
  0
SOLID
  5
752
  8
DRG
  6
CONTINUOUS
 62
     7
 10
57.358388371638569
 20
97.14974191774786
 30
0.0
 11
32.129938967166559
 21
97.149724729553569
 31
0.0
 12
58.342263964402783
 22
95.544209784067505
 32
0.0
 13
58.342263964402783
 23
95.544209784067505
 33
0.0
210
0.0
220
0.0
230
1.0
  0
SOLID
  5
753
  8
DRG
  6
CONTINUOUS
 62
     7
 10
130.05101171535759
 20
97.915857504065855
 30
0.0
 11
138.05101171535759
 21
93.569427875032716
 31
0.0
 12
139.4206293992797
 22
93.56942787503273
 32
0.0
 13
139.4206293992797
 23
93.56942787503273
 33
0.0
210
0.0
220
0.0
230
1.0
  0
SOLID
  5
754
  8
DRG
  6
CONTINUOUS
 62
     7
 10
130.05101171535759
 20
97.915857504065855
 30
0.0
 11
136.49028913922859
 21
93.415710118258545
 31
0.0
 12
138.05101171535759
 22
93.569427875032716
 32
0.0
 13
138.05101171535759
 23
93.569427875032716
 33
0.0
  0
SOLID
  5
755
  8
DRG
  6
CONTINUOUS
 62
     7
 10
130.05101171535759
 20
97.915857504065855
 30
0.0
 11
134.9895442564368
 21
92.960464135123019
 31
0.0
 12
136.49028913922859
 22
93.415710118258545
 32
0.0
 13
136.49028913922859
 23
93.415710118258545
 33
0.0
210
0.0
220
0.0
230
1.0
  0
SOLID
  5
756
  8
DRG
  6
CONTINUOUS
 62
     7
 10
130.05101171535759
 20
97.915857504065855
 30
0.0
 11
133.60644985120081
 21
92.221184773453075
 31
0.0
 12
134.9895442564368
 22
92.960464135123019
 32
0.0
 13
134.9895442564368
 23
92.960464135123019
 33
0.0
210
0.0
220
0.0
230
1.0
  0
SOLID
  5
757
  8
DRG
  6
CONTINUOUS
 62
     7
 10
130.05101171535759
 20
97.915857504065855
 30
0.0
 11
132.39415746586519
 21
91.226282124525085
 31
0.0
 12
133.60644985120081
 22
92.221184773453075
 32
0.0
 13
133.60644985120081
 23
92.221184773453075
 33
0.0
210
0.0
220
0.0
230
1.0
  0
SOLID
  5
758
  8
DRG
  6
CONTINUOUS
 62
     7
 10
130.05101171535759
 20
97.915857504065855
 30
0.0
 11
131.3992548169372
 21
90.01398973918954
 31
0.0
 12
132.39415746586519
 22
91.226282124525085
 32
0.0
 13
132.39415746586519
 23
91.226282124525085
 33
0.0
210
0.0
220
0.0
230
1.0
  0
SOLID
  5
759
  8
DRG
  6
CONTINUOUS
 62
     7
 10
130.05101171535759
 20
97.915857504065855
 30
0.0
 11
130.6599754552673
 21
88.630895333953447
 31
0.0
 12
131.3992548169372
 22
90.01398973918954
 32
0.0
 13
131.3992548169372
 23
90.01398973918954
 33
0.0
210
0.0
220
0.0
230
1.0
  0
SOLID
  5
75A
  8
DRG
  6
CONTINUOUS
 62
     7
 10
130.05101171535759
 20
97.915857504065855
 30
0.0
 11
119.0096173095521
 21
62.115696081838678
 31
0.0
 12
130.6599754552673
 22
88.630895333953447
 32
0.0
 13
130.6599754552673
 23
88.630895333953447
 33
0.0
210
0.0
220
0.0
230
1.0
  0
SOLID
  5
75B
  8
DRG
  6
CONTINUOUS
 62
     7
 10
18.821661727211438
 20
97.915857504065912
 30
0.0
 11
26.821661727211438
 21
93.569427875032716
 31
0.0
 12
28.191279411133561
 22
93.56942787503273
 32
0.0
 13
28.191279411133561
 23
93.56942787503273
 33
0.0
  0
SOLID
  5
75C
  8
DRG
  6
CONTINUOUS
 62
     7
 10
18.821661727211438
 20
97.915857504065912
 30
0.0
 11
25.260939151082422
 21
93.415710118258545
 31
0.0
 12
26.821661727211438
 22
93.569427875032716
 32
0.0
 13
26.821661727211438
 23
93.569427875032716
 33
0.0
210
0.0
220
0.0
230
1.0
  0
SOLID
  5
75D
  8
DRG
  6
CONTINUOUS
 62
     7
 10
18.821661727211438
 20
97.915857504065912
 30
0.0
 11
23.760194268290729
 21
92.960464135123004
 31
0.0
 12
25.260939151082422
 22
93.415710118258545
 32
0.0
 13
25.260939151082422
 23
93.415710118258545
 33
0.0
210
0.0
220
0.0
230
1.0
  0
SOLID
  5
75E
  8
DRG
  6
CONTINUOUS
 62
     7
 10
18.821661727211438
 20
97.915857504065912
 30
0.0
 11
22.377099863054632
 21
92.221184773453075
 31
0.0
 12
23.760194268290729
 22
92.960464135123004
 32
0.0
 13
23.760194268290729
 23
92.960464135123004
 33
0.0
  0
SOLID
  5
75F
  8
DRG
  6
CONTINUOUS
 62
     7
 10
18.821661727211438
 20
97.915857504065912
 30
0.0
 11
21.164807477719069
 21
91.226282124525085
 31
0.0
 12
22.377099863054632
 22
92.221184773453075
 32
0.0
 13
22.377099863054632
 23
92.221184773453075
 33
0.0
210
0.0
220
0.0
230
1.0
  0
SOLID
  5
760
  8
DRG
  6
CONTINUOUS
 62
     7
 10
18.821661727211438
 20
97.915857504065912
 30
0.0
 11
20.169904828791079
 21
90.013989739189526
 31
0.0
 12
21.164807477719069
 22
91.226282124525085
 32
0.0
 13
21.164807477719069
 23
91.226282124525085
 33
0.0
210
0.0
220
0.0
230
1.0
  0
SOLID
  5
761
  8
DRG
  6
CONTINUOUS
 62
     7
 10
18.821661727211438
 20
97.915857504065912
 30
0.0
 11
19.43062546712115
 21
88.630895333953447
 31
0.0
 12
20.169904828791079
 22
90.013989739189526
 32
0.0
 13
20.169904828791079
 23
90.013989739189526
 33
0.0
210
0.0
220
0.0
230
1.0
  0
SOLID
  5
762
  8
DRG
  6
CONTINUOUS
 62
     7
 10
18.821661727211438
 20
97.915857504065912
 30
0.0
 11
7.7802673214059723
 21
62.115696081838671
 31
0.0
 12
19.43062546712115
 22
88.630895333953447
 32
0.0
 13
19.43062546712115
 23
88.630895333953447
 33
0.0
210
0.0
220
0.0
230
1.0
  0
SOLID
  5
763
  8
DRG
  6
CONTINUOUS
 62
     7
 10
89.364501362461553
 20
98.581583076282442
 30
0.0
 11
88.141578804200734
 21
97.149724729553569
 31
0.0
 12
113.37002820867269
 22
97.149741917747846
 32
0.0
 13
113.37002820867269
 23
97.149741917747846
 33
0.0
210
0.0
220
0.0
230
1.0
  0
SOLID
  5
764
  8
DRG
  6
CONTINUOUS
 62
     7
 10
33.352861525427372
 20
98.581583076282442
 30
0.0
 11
32.129938967166559
 21
97.149724729553569
 31
0.0
 12
57.358388371638569
 22
97.14974191774786
 32
0.0
 13
57.358388371638569
 23
97.14974191774786
 33
0.0
210
0.0
220
0.0
230
1.0
  0
SOLID
  5
765
  8
DRG
  6
CONTINUOUS
 62
     7
 10
112.14710561917811
 20
98.581595595475122
 30
0.0
 11
89.364501362461553
 21
98.581583076282442
 31
0.0
 12
113.37002820867269
 22
97.149741917747846
 32
0.0
 13
113.37002820867269
 23
97.149741917747846
 33
0.0
  0
SOLID
  5
766
  8
DRG
  6
CONTINUOUS
 62
     7
 10
56.135465782143967
 20
98.581595595475136
 30
0.0
 11
33.352861525427372
 21
98.581583076282442
 31
0.0
 12
57.358388371638569
 22
97.14974191774786
 32
0.0
 13
57.358388371638569
 23
97.14974191774786
 33
0.0
  0
SOLID
  5
767
  8
DRG
  6
CONTINUOUS
 62
     7
 10
131.22850538356451
 20
99.255984787272112
 30
0.0
 11
130.05101171535759
 21
97.915857504065855
 31
0.0
 12
139.4206293992797
 22
93.56942787503273
 32
0.0
 13
139.4206293992797
 23
93.56942787503273
 33
0.0
210
0.0
220
0.0
230
1.0
  0
SOLID
  5
768
  8
DRG
  6
CONTINUOUS
 62
     7
 10
19.999155395418381
 20
99.255984787272155
 30
0.0
 11
18.821661727211438
 21
97.915857504065912
 31
0.0
 12
28.191279411133561
 22
93.56942787503273
 32
0.0
 13
28.191279411133561
 23
93.56942787503273
 33
0.0
210
0.0
220
0.0
230
1.0
  0
SOLID
  5
769
  8
DRG
  6
CONTINUOUS
 62
     7
 10
34.784719872156259
 20
99.804505634543204
 30
0.0
 11
33.352861525427372
 21
98.581583076282442
 31
0.0
 12
56.135465782143967
 22
98.581595595475136
 32
0.0
 13
56.135465782143967
 23
98.581595595475136
 33
0.0
210
0.0
220
0.0
230
1.0
  0
SOLID
  5
76A
  8
DRG
  6
CONTINUOUS
 62
     7
 10
90.79635970919044
 20
99.804505634543204
 30
0.0
 11
89.364501362461553
 21
98.581583076282442
 31
0.0
 12
112.14710561917811
 22
98.581595595475122
 32
0.0
 13
112.14710561917811
 23
98.581595595475122
 33
0.0
210
0.0
220
0.0
230
1.0
  0
SOLID
  5
76B
  8
DRG
  6
CONTINUOUS
 62
     7
 10
110.715248332852
 20
99.804513959844542
 30
0.0
 11
90.79635970919044
 21
99.804505634543204
 31
0.0
 12
112.14710561917811
 22
98.581595595475122
 32
0.0
 13
112.14710561917811
 23
98.581595595475122
 33
0.0
210
0.0
220
0.0
230
1.0
  0
SOLID
  5
76C
  8
DRG
  6
CONTINUOUS
 62
     7
 10
54.70360849581779
 20
99.804513959844542
 30
0.0
 11
34.784719872156259
 21
99.804505634543204
 31
0.0
 12
56.135465782143967
 22
98.581595595475136
 32
0.0
 13
56.135465782143967
 23
98.581595595475136
 33
0.0
210
0.0
220
0.0
230
1.0
  0
SOLID
  5
76D
  8
DRG
  6
CONTINUOUS
 62
     7
 10
132.62046538706059
 20
100.3717266133807
 30
0.0
 11
131.22850538356451
 21
99.255984787272112
 31
0.0
 12
139.4206293992797
 22
93.56942787503273
 32
0.0
 13
139.4206293992797
 23
93.56942787503273
 33
0.0
210
0.0
220
0.0
230
1.0
  0
SOLID
  5
76E
  8
DRG
  6
CONTINUOUS
 62
     7
 10
21.391115398914501
 20
100.3717266133808
 30
0.0
 11
19.999155395418381
 21
99.255984787272155
 31
0.0
 12
28.191279411133561
 22
93.56942787503273
 32
0.0
 13
28.191279411133561
 23
93.56942787503273
 33
0.0
210
0.0
220
0.0
230
1.0
  0
SOLID
  5
76F
  8
DRG
  6
CONTINUOUS
 62
     7
 10
36.39025690279135
 20
100.7883799923042
 30
0.0
 11
34.784719872156259
 21
99.804505634543204
 31
0.0
 12
54.70360849581779
 22
99.804513959844542
 32
0.0
 13
54.70360849581779
 23
99.804513959844542
 33
0.0
210
0.0
220
0.0
230
1.0
  0
SOLID
  5
770
  8
DRG
  6
CONTINUOUS
 62
     7
 10
92.401896739825546
 20
100.7883799923042
 30
0.0
 11
90.79635970919044
 21
99.804505634543204
 31
0.0
 12
110.715248332852
 22
99.804513959844542
 32
0.0
 13
110.715248332852
 23
99.804513959844542
 33
0.0
210
0.0
220
0.0
230
1.0
  0
SOLID
  5
771
  8
DRG
  6
CONTINUOUS
 62
     7
 10
109.10971329595441
 20
100.78838481499351
 30
0.0
 11
92.401896739825546
 21
100.7883799923042
 31
0.0
 12
110.715248332852
 22
99.804513959844542
 32
0.0
 13
110.715248332852
 23
99.804513959844542
 33
0.0
210
0.0
220
0.0
230
1.0
  0
SOLID
  5
772
  8
DRG
  6
CONTINUOUS
 62
     7
 10
53.098073458920183
 20
100.78838481499351
 30
0.0
 11
36.39025690279135
 21
100.7883799923042
 31
0.0
 12
54.70360849581779
 22
99.804513959844542
 32
0.0
 13
54.70360849581779
 23
99.804513959844542
 33
0.0
210
0.0
220
0.0
230
1.0
  0
SOLID
  5
773
  8
DRG
  6
CONTINUOUS
 62
     7
 10
134.18475166795781
 20
101.22930512597181
 30
0.0
 11
132.62046538706059
 21
100.3717266133807
 31
0.0
 12
139.4206293992797
 22
93.56942787503273
 32
0.0
 13
139.4206293992797
 23
93.56942787503273
 33
0.0
  0
SOLID
  5
774
  8
DRG
  6
CONTINUOUS
 62
     7
 10
22.955401679811722
 20
101.2293051259719
 30
0.0
 11
21.391115398914501
 21
100.3717266133808
 31
0.0
 12
28.191279411133561
 22
93.56942787503273
 32
0.0
 13
28.191279411133561
 23
93.56942787503273
 33
0.0
210
0.0
220
0.0
230
1.0
  0
SOLID
  5
775
  8
DRG
  6
CONTINUOUS
 62
     7
 10
38.129938967166531
 20
101.5089798975856
 30
0.0
 11
36.39025690279135
 21
100.7883799923042
 31
0.0
 12
53.098073458920183
 22
100.78838481499351
 32
0.0
 13
53.098073458920183
 23
100.78838481499351
 33
0.0
210
0.0
220
0.0
230
1.0
  0
SOLID
  5
776
  8
DRG
  6
CONTINUOUS
 62
     7
 10
94.141578804200719
 20
101.5089798975856
 30
0.0
 11
92.401896739825546
 21
100.7883799923042
 31
0.0
 12
109.10971329595441
 22
100.78838481499351
 32
0.0
 13
109.10971329595441
 23
100.78838481499351
 33
0.0
210
0.0
220
0.0
230
1.0
  0
SOLID
  5
777
  8
DRG
  6
CONTINUOUS
 62
     7
 10
51.3583941242996
 20
101.5089820860203
 30
0.0
 11
38.129938967166531
 21
101.5089798975856
 31
0.0
 12
53.098073458920183
 22
100.78838481499351
 32
0.0
 13
53.098073458920183
 23
100.78838481499351
 33
0.0
  0
SOLID
  5
778
  8
DRG
  6
CONTINUOUS
 62
     7
 10
107.3700339613337
 20
101.5089820860203
 30
0.0
 11
94.141578804200719
 21
101.5089798975856
 31
0.0
 12
109.10971329595441
 22
100.78838481499351
 32
0.0
 13
109.10971329595441
 23
100.78838481499351
 33
0.0
210
0.0
220
0.0
230
1.0
  0
SOLID
  5
779
  8
DRG
  6
CONTINUOUS
 62
     7
 10
135.87400717988629
 20
101.802758078951
 30
0.0
 11
134.18475166795781
 21
101.22930512597181
 31
0.0
 12
139.4206293992797
 22
93.56942787503273
 32
0.0
 13
139.4206293992797
 23
93.56942787503273
 33
0.0
210
0.0
220
0.0
230
1.0
  0
SOLID
  5
77A
  8
DRG
  6
CONTINUOUS
 62
     7
 10
24.644657191740151
 20
101.8027580789511
 30
0.0
 11
22.955401679811722
 21
101.2293051259719
 31
0.0
 12
28.191279411133561
 22
93.56942787503273
 32
0.0
 13
28.191279411133561
 23
93.56942787503273
 33
0.0
  0
SOLID
  5
77B
  8
DRG
  6
CONTINUOUS
 62
     7
 10
95.97256915621729
 20
101.9485617891854
 30
0.0
 11
94.141578804200719
 21
101.5089798975856
 31
0.0
 12
107.3700339613337
 22
101.5089820860203
 32
0.0
 13
107.3700339613337
 23
101.5089820860203
 33
0.0
210
0.0
220
0.0
230
1.0
  0
SOLID
  5
77C
  8
DRG
  6
CONTINUOUS
 62
     7
 10
39.960929319183101
 20
101.9485617891854
 30
0.0
 11
38.129938967166531
 21
101.5089798975856
 31
0.0
 12
51.3583941242996
 22
101.5089820860203
 32
0.0
 13
51.3583941242996
 23
101.5089820860203
 33
0.0
210
0.0
220
0.0
230
1.0
  0
SOLID
  5
77D
  8
DRG
  6
CONTINUOUS
 62
     7
 10
49.527407010229453
 20
101.94856234311381
 30
0.0
 11
39.960929319183101
 21
101.9485617891854
 31
0.0
 12
51.3583941242996
 22
101.5089820860203
 32
0.0
 13
51.3583941242996
 23
101.5089820860203
 33
0.0
210
0.0
220
0.0
230
1.0
  0
SOLID
  5
77E
  8
DRG
  6
CONTINUOUS
 62
     7
 10
105.53904684726361
 20
101.94856234311381
 30
0.0
 11
95.97256915621729
 21
101.9485617891854
 31
0.0
 12
107.3700339613337
 22
101.5089820860203
 32
0.0
 13
107.3700339613337
 23
101.5089820860203
 33
0.0
210
0.0
220
0.0
230
1.0
  0
SOLID
  5
77F
  8
DRG
  6
CONTINUOUS
 62
     7
 10
77.482556033578931
 20
101.9948050433795
 30
0.0
 11
62.478989637268569
 21
94.593352860836134
 31
0.0
 12
67.331191210151687
 22
94.593352860836134
 32
0.0
 13
67.331191210151687
 23
94.593352860836134
 33
0.0
210
0.0
220
0.0
230
1.0
  0
SOLID
  5
780
  8
DRG
  6
CONTINUOUS
 62
     7
 10
77.482556033578931
 20
101.9948050433795
 30
0.0
 11
67.331191210151687
 21
94.593352860836134
 31
0.0
 12
84.553623006881026
 22
94.593352860836134
 32
0.0
 13
84.553623006881026
 23
94.593352860836134
 33
0.0
210
0.0
220
0.0
230
1.0
  0
SOLID
  5
781
  8
DRG
  6
CONTINUOUS
 62
     7
 10
62.478989637268562
 20
101.9948050433795
 30
0.0
 11
62.478989637268569
 21
94.593352860836134
 31
0.0
 12
77.482556033578931
 22
101.9948050433795
 32
0.0
 13
77.482556033578931
 23
101.9948050433795
 33
0.0
  0
SOLID
  5
782
  8
DRG
  6
CONTINUOUS
 62
     7
 10
84.553623006881026
 20
101.9948050433795
 30
0.0
 11
77.482556033578931
 21
101.9948050433795
 31
0.0
 12
84.553623006881026
 22
94.593352860836134
 32
0.0
 13
84.553623006881026
 23
94.593352860836134
 33
0.0
210
0.0
220
0.0
230
1.0
  0
SOLID
  5
783
  8
DRG
  6
CONTINUOUS
 62
     7
 10
67.331191210151701
 20
101.9948050433795
 30
0.0
 11
62.478989637268562
 21
101.9948050433795
 31
0.0
 12
77.482556033578931
 22
101.9948050433795
 32
0.0
 13
77.482556033578931
 23
101.9948050433795
 33
0.0
210
0.0
220
0.0
230
1.0
  0
SOLID
  5
784
  8
DRG
  6
CONTINUOUS
 62
     7
 10
139.4206293992797
 20
102.0369718403325
 30
0.0
 11
135.87400717988629
 21
101.802758078951
 31
0.0
 12
139.4206293992797
 22
93.56942787503273
 32
0.0
 13
139.4206293992797
 23
93.56942787503273
 33
0.0
210
0.0
220
0.0
230
1.0
  0
SOLID
  5
785
  8
DRG
  6
CONTINUOUS
 62
     7
 10
7.7802673214059723
 20
102.0369718403326
 30
0.0
 11
7.7802673214059723
 21
62.115696081838671
 31
0.0
 12
18.821661727211438
 22
97.915857504065912
 32
0.0
 13
18.821661727211438
 23
97.915857504065912
 33
0.0
210
0.0
220
0.0
230
1.0
  0
SOLID
  5
786
  8
DRG
  6
CONTINUOUS
 62
     7
 10
18.821661727211438
 20
102.0369718403326
 30
0.0
 11
7.7802673214059723
 21
102.0369718403326
 31
0.0
 12
18.821661727211438
 22
97.915857504065912
 32
0.0
 13
18.821661727211438
 23
97.915857504065912
 33
0.0
  0
SOLID
  5
787
  8
DRG
  6
CONTINUOUS
 62
     7
 10
142.11987082690661
 20
62.115696081838678
 30
0.0
 11
153.2899770207527
 21
102.0369718403326
 31
0.0
 12
142.11987082690661
 22
102.0369718403326
 32
0.0
 13
142.11987082690661
 23
102.0369718403326
 33
0.0
  0
SOLID
  5
788
  8
DRG
  6
CONTINUOUS
 62
     7
 10
153.2899770207527
 20
102.0369718403326
 30
0.0
 11
142.11987082690661
 21
62.115696081838678
 31
0.0
 12
153.2899770207527
 22
62.115696081838678
 32
0.0
 13
153.2899770207527
 23
62.115696081838678
 33
0.0
210
0.0
220
0.0
230
1.0
  0
SOLID
  5
789
  8
DRG
  6
CONTINUOUS
 62
     7
 10
130.05101171535759
 20
102.0369718403326
 30
0.0
 11
119.0096173095521
 21
62.115696081838678
 31
0.0
 12
130.05101171535759
 22
97.915857504065855
 32
0.0
 13
130.05101171535759
 23
97.915857504065855
 33
0.0
210
0.0
220
0.0
230
1.0
  0
SOLID
  5
78A
  8
DRG
  6
CONTINUOUS
 62
     7
 10
165.4162645291251
 20
86.855763084496886
 30
0.0
 11
171.38205787173379
 21
102.0369718403326
 31
0.0
 12
160.9346181585602
 22
102.0369718403326
 32
0.0
 13
160.9346181585602
 23
102.0369718403326
 33
0.0
210
0.0
220
0.0
230
1.0
  0
SOLID
  5
78B
  8
DRG
  6
CONTINUOUS
 62
     7
 10
160.9346181585602
 20
102.0369718403326
 30
0.0
 11
153.2899770207527
 21
82.583583780839575
 31
0.0
 12
165.4162645291251
 22
86.855763084496886
 32
0.0
 13
165.4162645291251
 23
86.855763084496886
 33
0.0
  0
SOLID
  5
78C
  8
DRG
  6
CONTINUOUS
 62
     7
 10
119.0096173095521
 20
102.0369718403326
 30
0.0
 11
119.0096173095521
 21
62.115696081838678
 31
0.0
 12
130.05101171535759
 22
102.0369718403326
 32
0.0
 13
130.05101171535759
 23
102.0369718403326
 33
0.0
210
0.0
220
0.0
230
1.0
  0
SOLID
  5
78D
  8
DRG
  6
CONTINUOUS
 62
     7
 10
28.191279411133561
 20
102.0369718403326
 30
0.0
 11
24.644657191740151
 21
101.8027580789511
 31
0.0
 12
28.191279411133561
 22
93.56942787503273
 32
0.0
 13
28.191279411133561
 23
93.56942787503273
 33
0.0
  0
SOLID
  5
78E
  8
DRG
  6
CONTINUOUS
 62
     7
 10
137.6370915704783
 20
102.0747248149906
 30
0.0
 11
135.87400717988629
 21
101.802758078951
 31
0.0
 12
139.4206293992797
 22
102.0369718403325
 32
0.0
 13
139.4206293992797
 23
102.0369718403325
 33
0.0
210
0.0
220
0.0
230
1.0
  0
SOLID
  5
78F
  8
DRG
  6
CONTINUOUS
 62
     7
 10
26.40774158233215
 20
102.0747248149907
 30
0.0
 11
24.644657191740151
 21
101.8027580789511
 31
0.0
 12
28.191279411133561
 22
102.0369718403326
 32
0.0
 13
28.191279411133561
 23
102.0369718403326
 33
0.0
210
0.0
220
0.0
230
1.0
  0
SOLID
  5
790
  8
DRG
  6
CONTINUOUS
 62
     7
 10
49.527407010229453
 20
101.94856234311381
 30
0.0
 11
47.650196927116667
 21
102.0963017020437
 31
0.0
 12
41.838142899665847
 22
102.0963017020437
 32
0.0
 13
41.838142899665847
 23
102.0963017020437
 33
0.0
210
0.0
220
0.0
230
1.0
  0
SOLID
  5
791
  8
DRG
  6
CONTINUOUS
 62
     7
 10
41.838142899665847
 20
102.0963017020437
 30
0.0
 11
39.960929319183101
 21
101.9485617891854
 31
0.0
 12
49.527407010229453
 22
101.94856234311381
 32
0.0
 13
49.527407010229453
 23
101.94856234311381
 33
0.0
210
0.0
220
0.0
230
1.0
  0
SOLID
  5
792
  8
DRG
  6
CONTINUOUS
 62
     7
 10
105.53904684726361
 20
101.94856234311381
 30
0.0
 11
103.66183676415081
 21
102.0963017020437
 31
0.0
 12
97.849782736700035
 22
102.0963017020437
 32
0.0
 13
97.849782736700035
 23
102.0963017020437
 33
0.0
210
0.0
220
0.0
230
1.0
  0
SOLID
  5
793
  8
DRG
  6
CONTINUOUS
 62
     7
 10
97.849782736700035
 20
102.0963017020437
 30
0.0
 11
95.97256915621729
 21
101.9485617891854
 31
0.0
 12
105.53904684726361
 22
101.94856234311381
 32
0.0
 13
105.53904684726361
 23
101.94856234311381
 33
0.0
210
0.0
220
0.0
230
1.0
  0
SOLID
  5
794
  8
DRG
  6
CONTINUOUS
 62
     7
 10
77.482556033578931
 20
107.1280725498991
 30
0.0
 11
67.331191210151701
 21
101.9948050433795
 31
0.0
 12
77.482556033578931
 22
101.9948050433795
 32
0.0
 13
77.482556033578931
 23
101.9948050433795
 33
0.0
  0
SOLID
  5
795
  8
DRG
  6
CONTINUOUS
 62
     7
 10
67.331191210151701
 20
107.1280725498991
 30
0.0
 11
67.331191210151701
 21
101.9948050433795
 31
0.0
 12
77.482556033578931
 22
107.1280725498991
 32
0.0
 13
77.482556033578931
 23
107.1280725498991
 33
0.0
210
0.0
220
0.0
230
1.0
  0
ENDBLK
  5
797
  8
0
  0
ENDSEC
  0
SECTION
  2
ENTITIES
  0
TEXT
  5
47
  8
BORT
 10
197.84202729604809
 20
57.13160517764058
 30
0.0
 40
6.0
  1
EXEECO LTD   C   1996
  0
TEXT
  5
48
  8
BORT
 10
583.45638722086494
 20
95.863156254609166
 30
0.0
 40
5.0
  1
DRAWN:-
  0
TEXT
  5
49
  8
BORT
 10
77.833333333333329
 20
133.36315625460909
 30
0.0
 40
5.0
  1
ALTERATIONS
 72
     4
 11
102.0
 21
135.86315625460909
 31
0.0
  0
TEXT
  5
4A
  8
BORT
 10
73.071428571428555
 20
147.36315625460909
 30
0.0
 40
5.0
  1
ORIGINAL ISSUE
 72
     4
 11
102.0
 21
149.86315625460909
 31
0.0
  0
TEXT
  5
4B
  8
BORT
 10
14.11904761904762
 20
133.36315625460909
 30
0.0
 40
5.0
  1
ISSUE
 72
     4
 11
24.0
 21
135.86315625460909
 31
0.0
  0
TEXT
  5
4C
  8
BORT
 10
22.095238095238091
 20
147.36315625460909
 30
0.0
 40
5.0
  1
A
 72
     4
 11
24.0
 21
149.86315625460909
 31
0.0
  0
TEXT
  5
4D
  8
BORT
 10
613.66666666666663
 20
53.86315625460918
 30
0.0
 40
14.0
  1
PUB\IS7CD
 72
     4
 11
670.0
 21
59.863156254609173
 31
0.0
  0
TEXT
  5
4E
  8
BORT
 10
583.16740467642956
 20
80.187572573202317
 30
0.0
 40
5.0
  1
CHECKED:-
  0
TEXT
  5
4F
  8
BORT
 10
725.78627429561266
 20
95.863156254609166
 30
0.0
 40
5.0
  1
SCALE
  0
TEXT
  5
50
  8
BORT
 10
470.0
 20
52.0
 30
0.0
 40
5.0
  1

 72
     4
 11
470.0
 21
52.0
 31
0.0
  0
CIRCLE
  5
51
  8
BORT
 10
272.15469896790501
 20
60.054442794938467
 30
0.0
 40
5.6547997464713049
  0
TEXT
  5
52
  8
BORT
 10
379.51870841725901
 20
62.050591627516347
 30
0.0
 40
10.0
  1
OUTLINE DETAILS OF IS7
 72
     4
 11
472.85204175059238
 21
67.050591627516354
 31
0.0
  0
TEXT
  5
53
  8
BORT
 10
639.8227916173704
 20
96.36315625460918
 30
0.0
 40
5.0
  1
S.W.   10.9.96
 72
     4
 11
667.20374399832281
 21
98.86315625460918
 31
0.0
  0
TEXT
  5
54
  8
BORT
 10
730.99184548397261
 20
79.863156254609166
 30
0.0
 40
5.0
  1
1:1
  0
LINE
  5
55
  8
BORT
 39
1.8
 10
166.0
 20
128.86315625460909
 30
0.0
 11
10.0
 21
128.86315625460909
 31
0.0
  0
LINE
  5
56
  8
BORT
 39
1.8
 10
166.0
 20
128.86315625460909
 30
0.0
 11
10.0
 21
128.86315625460909
 31
0.0
  0
LINE
  5
57
  8
BORT
 39
1.8
 10
10.0
 20
44.863156254609173
 30
0.0
 11
10.0
 21
224.6323860734596
 31
0.0
  0
LINE
  5
58
  8
BORT
 39
1.8
 10
760.0
 20
106.86315625460909
 30
0.0
 11
760.0
 21
44.863156254609173
 31
0.0
  0
LINE
  5
59
  8
BORT
 39
1.8
 10
760.0
 20
44.863156254609173
 30
0.0
 11
10.0
 21
44.863156254609173
 31
0.0
  0
LINE
  5
5A
  8
BORT
 39
1.8
 10
760.0
 20
74.863156254609166
 30
0.0
 11
166.0
 21
74.863156254609166
 31
0.0
  0
TEXT
  5
5B
  8
BORT
 10
387.85204175059238
 20
49.33436130331107
 30
0.0
 40
10.0
  1
ISO & USA STANDARD
 72
     4
 11
472.85204175059238
 21
54.33436130331107
 31
0.0
  0
LINE
  5
5C
  8
DRG
 62
     1
 10
214.90249638480179
 20
792.90174091241795
 30
0.0
 11
214.90249638480179
 21
692.68359205201625
 31
0.0
  0
LINE
  5
5D
  8
DRG
 10
200.8774963848019
 20
727.90174091241738
 30
0.0
 11
95.377496384801915
 21
727.90174091241738
 31
0.0
  0
LINE
  5
5E
  8
DRG
 10
200.8774963848019
 20
757.90174091241727
 30
0.0
 11
95.377496384801915
 21
757.90174091241727
 31
0.0
  0
LINE
  5
5F
  8
DRG2
 10
95.377496384801915
 20
757.90174091241727
 30
0.0
 11
95.377496384801915
 21
727.90174091241738
 31
0.0
  0
LINE
  5
60
  8
DRG
 10
93.877496384801915
 20
756.40174091241738
 30
0.0
 11
93.877496384801915
 21
729.40174091241727
 31
0.0
  0
LINE
  5
61
  8
DRG
 10
93.877496384801915
 20
729.40174091241727
 30
0.0
 11
95.377496384801915
 21
727.90174091241738
 31
0.0
  0
LINE
  5
62
  8
DRG
 10
95.377496384801915
 20
757.90174091241727
 30
0.0
 11
93.877496384801915
 21
756.40174091241738
 31
0.0
  0
LINE
  5
63
  8
DRG
 62
     1
 10
206.8774963848019
 20
792.90174091241829
 30
0.0
 11
206.8774963848019
 21
692.68359205201625
 31
0.0
  0
LINE
  5
64
  8
DRG
 62
     1
 10
206.8774963848019
 20
692.68359205201625
 30
0.0
 11
214.90249638480179
 21
692.68359205201625
 31
0.0
  0
LINE
  5
65
  8
DRG
 62
     1
 10
312.92749638480211
 20
792.90174091241693
 30
0.0
 11
312.92749638480211
 21
692.68359205201625
 31
0.0
  0
LINE
  5
66
  8
DRG
 10
304.90249638480202
 20
692.68359205201625
 30
0.0
 11
312.92749638480211
 21
692.68359205201625
 31
0.0
  0
LINE
  5
67
  8
DIM
 10
99.877496384801944
 20
857.73914443341096
 30
0.0
 11
208.90249638480179
 21
857.73914443341096
 31
0.0
  0
SOLID
  5
68
  8
DIM
 10
99.877496384801944
 20
858.73914443341096
 30
0.0
 11
99.877496384801944
 21
856.73914443341096
 31
0.0
 12
93.877496384801915
 22
857.73914443341096
 32
0.0
 13
93.877496384801915
 23
857.73914443341096
 33
0.0
  0
SOLID
  5
69
  8
DIM
 10
208.90249638480179
 20
858.73914443341096
 30
0.0
 11
208.90249638480179
 21
856.73914443341096
 31
0.0
 12
214.90249638480179
 22
857.73914443341096
 32
0.0
 13
214.90249638480179
 23
857.73914443341096
 33
0.0
  0
TEXT
  5
6A
  8
DIM
 10
149.50904400384951
 20
860.23914443341096
 30
0.0
 40
5.0
  1
121
 72
     1
 11
154.38999638480189
 21
862.73914443341096
 31
0.0
 73
     2
  0
LINE
  5
6B
  8
DIM
 10
214.90249638480179
 20
797.90174091241829
 30
0.0
 11
214.90249638480179
 21
859.73914443341096
 31
0.0
  0
LINE
  5
6C
  8
DIM
 10
93.877496384801915
 20
760.49803751324168
 30
0.0
 11
93.877496384801915
 21
859.73914443341096
 31
0.0
  0
LINE
  5
6D
  8
DIM
 10
214.90249638480179
 20
857.73914443341096
 30
0.0
 11
329.7024963848018
 21
857.73914443341096
 31
0.0
  0
SOLID
  5
6E
  8
DIM
 10
220.90249638480179
 20
858.73914443341096
 30
0.0
 11
220.90249638480179
 21
856.73914443341096
 31
0.0
 12
214.90249638480179
 22
857.73914443341096
 32
0.0
 13
214.90249638480179
 23
857.73914443341096
 33
0.0
  0
SOLID
  5
6F
  8
DIM
 10
323.7024963848018
 20
858.73914443341096
 30
0.0
 11
323.7024963848018
 21
856.73914443341096
 31
0.0
 12
329.7024963848018
 22
857.73914443341096
 32
0.0
 13
329.7024963848018
 23
857.73914443341096
 33
0.0
  0
LINE
  5
70
  8
DIM
 10
206.8774963848019
 20
797.90174091241829
 30
0.0
 11
206.8774963848019
 21
834.73914443341096
 31
0.0
  0
LINE
  5
71
  8
DIM
 10
220.90249638480179
 20
832.73914443341096
 30
0.0
 11
226.90249638480171
 21
832.73914443341096
 31
0.0
  0
LINE
  5
72
  8
DIM
 10
200.8774963848019
 20
832.73914443341096
 30
0.0
 11
179.2139893937568
 21
832.73914443341096
 31
0.0
  0
LINE
  5
73
  8
DIM
 10
179.2139893937568
 20
832.73914443341096
 30
0.0
 11
174.38065606042329
 21
832.73914443341096
 31
0.0
  0
SOLID
  5
74
  8
DIM
 10
220.90249638480179
 20
833.73914443341096
 30
0.0
 11
220.90249638480179
 21
831.73914443341096
 31
0.0
 12
214.90249638480179
 22
832.73914443341096
 32
0.0
 13
214.90249638480179
 23
832.73914443341096
 33
0.0
  0
SOLID
  5
75
  8
DIM
 10
200.8774963848019
 20
833.73914443341096
 30
0.0
 11
200.8774963848019
 21
831.73914443341096
 31
0.0
 12
206.8774963848019
 22
832.73914443341096
 32
0.0
 13
206.8774963848019
 23
832.73914443341096
 33
0.0
  0
TEXT
  5
76
  8
DIM
 10
185.08409915432341
 20
835.23914443341096
 30
0.0
 40
5.0
  1
8
 72
     1
 11
186.75076582099001
 21
837.73914443341096
 31
0.0
 73
     2
  0
LINE
  5
77
  8
DRG
 10
138.8774963848019
 20
760.90174091241738
 30
0.0
 11
98.877496384801944
 21
760.90174091241738
 31
0.0
  0
LINE
  5
78
  8
DRG
 10
138.8774963848019
 20
757.90174091241727
 30
0.0
 11
138.8774963848019
 21
760.90174091241738
 31
0.0
  0
LINE
  5
79
  8
DRG
 10
98.877496384801944
 20
757.90174091241727
 30
0.0
 11
98.877496384801944
 21
760.90174091241738
 31
0.0
  0
LINE
  5
7A
  8
DIM
 10
98.877496384802043
 20
765.90174091241738
 30
0.0
 11
98.877496384802043
 21
834.73914443341096
 31
0.0
  0
SOLID
  5
7B
  8
DIM
 10
104.877496384802
 20
833.73914443341096
 30
0.0
 11
104.877496384802
 21
831.73914443341096
 31
0.0
 12
98.877496384802043
 22
832.73914443341096
 32
0.0
 13
98.877496384802043
 23
832.73914443341096
 33
0.0
  0
LINE
  5
7C
  8
DIM
 10
87.877496384801915
 20
832.73914443341096
 30
0.0
 11
65.724506880028571
 21
832.73914443341096
 31
0.0
  0
LINE
  5
7D
  8
DIM
 10
65.724506880028571
 20
832.73914443341096
 30
0.0
 11
60.891173546695313
 21
832.73914443341096
 31
0.0
  0
SOLID
  5
7E
  8
DIM
 10
87.877496384801915
 20
833.73914443341096
 30
0.0
 11
87.877496384801915
 21
831.73914443341096
 31
0.0
 12
93.877496384801915
 22
832.73914443341096
 32
0.0
 13
93.877496384801915
 23
832.73914443341096
 33
0.0
  0
TEXT
  5
7F
  8
DIM
 10
71.659833216544214
 20
835.23914443341096
 30
0.0
 40
5.0
  1
5
 72
     1
 11
73.326499883210886
 21
837.73914443341096
 31
0.0
 73
     2
  0
TEXT
  5
80
  8
DIM
 10
461.79850370435889
 20
815.30660830676879
 30
0.0
 40
5.0
  1
4 OFF M10 SCREWS (EACH SIDE)
  0
TEXT
  5
81
  8
DIM
 10
461.79850370435889
 20
806.73517973534013
 30
0.0
 40
5.0
  1
ON %%c105 (%%c4.13") P.C.
  0
SOLID
  5
82
  8
DIM
 10
633.55562797512755
 20
790.79215761674504
 30
0.0
 11
632.1827980777125
 21
789.33773743235406
 31
0.0
 12
637.23247357959258
 22
785.94645783230453
 32
0.0
 13
637.23247357959258
 23
785.94645783230453
 33
0.0
  0
LINE
  5
83
  8
DIM
 10
632.86921302641986
 20
790.06494752454955
 30
0.0
 11
608.19784902292372
 21
813.35229355941885
 31
0.0
  0
LINE
  5
84
  8
DIM
 10
593.49605310092034
 20
813.35229355941885
 30
0.0
 11
608.19784902292372
 21
813.35229355941885
 31
0.0
  0
LINE
  5
85
  8
DIM
 10
209.90249638480191
 20
363.0573984569711
 30
0.0
 11
209.90249638480191
 21
224.01285964492371
 31
0.0
  0
LINE
  5
86
  8
DIM
 10
215.90249638480191
 20
226.01285964492371
 30
0.0
 11
329.70249638480198
 21
226.01285964492371
 31
0.0
  0
SOLID
  5
87
  8
DIM
 10
215.90249638480191
 20
227.01285964492371
 30
0.0
 11
215.90249638480191
 21
225.01285964492371
 31
0.0
 12
209.90249638480191
 22
226.01285964492371
 32
0.0
 13
209.90249638480191
 23
226.01285964492371
 33
0.0
  0
SOLID
  5
88
  8
DIM
 10
323.70249638480237
 20
227.01285964492379
 30
0.0
 11
323.70249638480237
 21
225.01285964492379
 31
0.0
 12
329.70249638480237
 22
226.01285964492371
 32
0.0
 13
329.70249638480237
 23
226.01285964492371
 33
0.0
  0
TEXT
  5
89
  8
DIM
 10
266.96530856651299
 20
228.51285964492371
 30
0.0
 40
5.0
  1
120
 72
     4
 11
272.91768951889401
 21
231.01285964492371
 31
0.0
  0
LINE
  5
8A
  8
DIM
 10
340.52249638480191
 20
226.01285964492371
 30
0.0
 11
352.58785019185132
 21
226.01285964492371
 31
0.0
  0
LINE
  5
8B
  8
DIM
 10
352.58785019185132
 20
226.01285964492371
 30
0.0
 11
367.53009914229528
 21
226.01285964492371
 31
0.0
  0
SOLID
  5
8C
  8
DIM
 10
340.52249638480191
 20
227.01285964492379
 30
0.0
 11
340.52249638480191
 21
225.01285964492379
 31
0.0
 12
334.52249638480191
 22
226.01285964492371
 32
0.0
 13
334.52249638480191
 23
226.01285964492371
 33
0.0
  0
TEXT
  5
8D
  8
DIM
 10
353.0136055454069
 20
228.51285964492371
 30
0.0
 40
5.0
  1
5
 72
     4
 11
354.68027221207359
 21
231.01285964492379
 31
0.0
  0
LINE
  5
8E
  8
DIM
 10
339.1216832089188
 20
374.50174091241678
 30
0.0
 11
373.93779079926151
 21
374.50174091241678
 31
0.0
  0
LINE
  5
8F
  8
DIM
 10
339.12168320891902
 20
501.50174091241689
 30
0.0
 11
373.93779079926168
 21
501.50174091241689
 31
0.0
  0
LINE
  5
90
  8
DIM
 10
371.93779079926151
 20
380.50174091241678
 30
0.0
 11
371.93779079926168
 21
495.50174091241689
 31
0.0
  0
SOLID
  5
91
  8
DIM
 10
370.93779079926151
 20
380.50174091241678
 30
0.0
 11
372.93779079926151
 21
380.50174091241678
 31
0.0
 12
371.93779079926151
 22
374.50174091241678
 32
0.0
 13
371.93779079926151
 23
374.50174091241678
 33
0.0
  0
SOLID
  5
92
  8
DIM
 10
370.93779079926168
 20
495.50174091241689
 30
0.0
 11
372.93779079926168
 21
495.50174091241689
 31
0.0
 12
371.93779079926168
 22
501.50174091241689
 32
0.0
 13
371.93779079926168
 23
501.50174091241689
 33
0.0
  0
TEXT
  5
93
  8
DIM
 10
369.43779079926168
 20
408.59697900765531
 30
0.0
 40
5.0
  1
SEE TABLE FOR
 50
90.0
 72
     4
 11
366.93779079926168
 21
438.00174091241729
 31
0.0
  0
TEXT
  5
94
  8
DIM
 10
379.48212453178542
 20
419.76897776710871
 30
0.0
 40
5.0
  1
SPIGOT DIA.
 50
90.0
 72
     4
 11
376.98212453178542
 21
441.43564443377539
 31
0.0
  0
TEXT
  5
95
  8
DIM
 10
369.34615817479801
 20
264.3618903111032
 30
0.0
 40
5.0
  1

  0
TEXT
  5
96
  8
DIM
 10
436.83372777256892
 20
324.30466910347627
 30
0.0
 40
5.0
  1
SEE TABLE FOR
  0
TEXT
  5
97
  8
DIM
 10
436.83372777256892
 20
315.73324053204777
 30
0.0
 40
5.0
  1
HOLE DETAILS
  0
LINE
  5
98
  8
DIM
 10
500.78969365737322
 20
322.65592216649702
 30
0.0
 11
528.071757252873
 21
322.65592216649702
 31
0.0
  0
SOLID
  5
99
  8
DIM
 10
110.82329554959441
 20
766.34524283994858
 30
0.0
 11
108.9111079604146
 21
766.93136451996577
 31
0.0
 12
108.1088367149528
 22
760.90174091241738
 32
0.0
 13
108.1088367149528
 23
760.90174091241738
 33
0.0
  0
LINE
  5
9A
  8
DIM
 10
108.1088367149528
 20
760.90174091241738
 30
0.0
 11
119.562609531665
 21
798.26900265363361
 31
0.0
  0
LINE
  5
9B
  8
DIM
 10
108.5857144390846
 20
832.73914443341096
 30
0.0
 11
104.877496384802
 21
832.73914443341096
 31
0.0
  0
LINE
  5
9C
  8
DIM
 10
90.377496384801915
 20
757.90174091241727
 30
0.0
 11
60.753599865023951
 21
757.90174091241727
 31
0.0
  0
LINE
  5
9D
  8
DIM
 10
90.377496384801915
 20
727.90174091241738
 30
0.0
 11
60.753599865023951
 21
727.90174091241738
 31
0.0
  0
LINE
  5
9E
  8
DIM
 10
62.753599865023943
 20
757.90174091241727
 30
0.0
 11
62.753599865023943
 21
655.13831483423303
 31
0.0
  0
SOLID
  5
9F
  8
DIM
 10
61.753599865023943
 20
751.90174091241738
 30
0.0
 11
63.753599865023943
 21
751.90174091241738
 31
0.0
 12
62.753599865023943
 22
757.90174091241727
 32
0.0
 13
62.753599865023943
 23
757.90174091241727
 33
0.0
  0
SOLID
  5
A0
  8
DIM
 10
61.753599865023943
 20
733.90174091241727
 30
0.0
 11
63.753599865023943
 21
733.90174091241727
 31
0.0
 12
62.753599865023943
 22
727.90174091241738
 32
0.0
 13
62.753599865023943
 23
727.90174091241738
 33
0.0
  0
TEXT
  5
A1
  8
DIM
 10
58.748893636639757
 20
663.62505427595568
 30
0.0
 40
5.0
  1
%%c30.00 -0.05
 50
90.0
 72
     4
 11
56.248893636639757
 21
689.57743522833675
 31
0.0
  0
TEXT
  5
A2
  8
DIM
 10
70.429422937663077
 20
655.88695903786061
 30
0.0
 40
5.0
  1
(%%c1.181" -0.002")
 50
90.0
 72
     4
 11
68.286565794805924
 21
689.57743522833675
 31
0.0
  0
LINE
  5
A3
  8
DIM
 10
204.90249638480199
 20
488.25174091241718
 30
0.0
 11
110.3089056213617
 21
488.25174091241718
 31
0.0
  0
LINE
  5
A4
  8
DIM
 10
204.90249638480199
 20
387.75174091241718
 30
0.0
 11
173.0120037088794
 21
387.75174091241718
 31
0.0
  0
TEXT
  5
A5
  8
DIM
 10
107.5786543180422
 20
411.57316948384579
 30
0.0
 40
5.0
  1
SCREWED 3.5"
 50
90.0
 72
     4
 11
104.6024638418517
 21
438.00174091241729
 31
0.0
  0
LINE
  5
A6
  8
DIM
 10
112.3089056213617
 20
393.75174091241718
 30
0.0
 11
112.3089056213617
 21
482.25174091241729
 31
0.0
  0
SOLID
  5
A7
  8
DIM
 10
111.3089056213617
 20
393.75174091241718
 30
0.0
 11
113.3089056213617
 21
393.75174091241718
 31
0.0
 12
112.3089056213617
 22
387.75174091241718
 32
0.0
 13
112.3089056213617
 23
387.75174091241718
 33
0.0
  0
SOLID
  5
A8
  8
DIM
 10
111.3089056213617
 20
482.25174091241729
 30
0.0
 11
113.3089056213617
 21
482.25174091241729
 31
0.0
 12
112.3089056213617
 22
488.25174091241718
 32
0.0
 13
112.3089056213617
 23
488.25174091241718
 33
0.0
  0
LINE
  5
A9
  8
CRS
 10
311.15651579600723
 20
705.77863490012453
 30
0.0
 11
324.93679708476913
 21
705.77863490012453
 31
0.0
  0
LINE
  5
AA
  8
CRS
 10
208.6484769735965
 20
780.02484692471194
 30
0.0
 11
194.86819568483469
 21
780.02484692471194
 31
0.0
  0
LINE
  5
AB
  8
CRS
 10
208.6484769735965
 20
705.77863490012453
 30
0.0
 11
194.86819568483469
 21
705.77863490012453
 31
0.0
  0
LINE
  5
AC
  8
DRG2
 10
312.92749638480211
 20
713.77863490012442
 30
0.0
 11
321.42749638480211
 21
713.77863490012442
 31
0.0
  0
LINE
  5
AD
  8
DRG2
 10
321.42749638480211
 20
713.77863490012442
 30
0.0
 11
321.42749638480211
 21
697.77863490012453
 31
0.0
  0
LINE
  5
AE
  8
DRG2
 10
321.42749638480211
 20
697.77863490012453
 30
0.0
 11
312.92749638480211
 21
697.77863490012453
 31
0.0
  0
LINE
  5
AF
  8
CRS
 10
311.15651579600723
 20
780.02484692471194
 30
0.0
 11
324.93679708476913
 21
780.02484692471194
 31
0.0
  0
LINE
  5
B0
  8
DRG2
 10
321.42749638480211
 20
697.77863490012453
 30
0.0
 11
322.92749638480211
 21
699.27863490012453
 31
0.0
  0
LINE
  5
B1
  8
DRG2
 10
322.92749638480211
 20
699.27863490012453
 30
0.0
 11
322.92749638480211
 21
712.27863490012442
 31
0.0
  0
LINE
  5
B2
  8
DRG2
 10
322.92749638480211
 20
712.27863490012442
 30
0.0
 11
321.42749638480211
 21
713.77863490012442
 31
0.0
  0
LINE
  5
B3
  8
DIM
 10
312.92749638480211
 20
797.90174091241829
 30
0.0
 11
312.92749638480211
 21
834.73914443341096
 31
0.0
  0
TEXT
  5
B4
  8
DIM
 10
288.73984918985502
 20
835.23914443341096
 30
0.0
 40
5.0
  1
17
 72
     4
 11
292.31127776128352
 21
837.73914443341096
 31
0.0
  0
LINE
  5
B5
  8
DIM
 10
283.79553630659382
 20
832.73914443341096
 30
0.0
 11
278.96220297326028
 21
832.73914443341096
 31
0.0
  0
LINE
  5
B6
  8
DIM
 10
306.92749638480211
 20
832.73914443341096
 30
0.0
 11
283.79553630659382
 21
832.73914443341096
 31
0.0
  0
SOLID
  5
B7
  8
DIM
 10
306.92749638480211
 20
833.73914443341096
 30
0.0
 11
306.92749638480211
 21
831.73914443341096
 31
0.0
 12
312.92749638480211
 22
832.73914443341096
 32
0.0
 13
312.92749638480211
 23
832.73914443341096
 33
0.0
  0
LINE
  5
B8
  8
DIM
 10
335.7024963848018
 20
832.73914443341096
 30
0.0
 11
341.7024963848018
 21
832.73914443341096
 31
0.0
  0
SOLID
  5
B9
  8
DIM
 10
335.7024963848018
 20
833.73914443341096
 30
0.0
 11
335.7024963848018
 21
831.73914443341096
 31
0.0
 12
329.7024963848018
 22
832.73914443341096
 32
0.0
 13
329.7024963848018
 23
832.73914443341096
 33
0.0
  0
LINE
  5
BA
  8
DIM
 10
239.2524963848017
 20
453.01017408015389
 30
0.0
 11
313.2524963848017
 21
453.01017408015389
 31
0.0
  0
LINE
  5
BB
  8
HID
 10
287.50249638480187
 20
482.8717409124169
 30
0.0
 11
255.0024963848019
 21
482.8717409124169
 31
0.0
  0
LINE
  5
BC
  8
HID
 10
287.5024963848017
 20
393.13174091241689
 30
0.0
 11
255.0024963848017
 21
393.13174091241689
 31
0.0
  0
LINE
  5
BD
  8
HID
 10
233.2524963848017
 20
482.12174091241678
 30
0.0
 11
233.2524963848017
 21
393.88174091241689
 31
0.0
  0
SOLID
  5
BE
  8
DIM
 10
239.2524963848017
 20
454.01017408015389
 30
0.0
 11
239.2524963848017
 21
452.01017408015389
 31
0.0
 12
233.2524963848017
 22
453.01017408015389
 32
0.0
 13
233.2524963848017
 23
453.01017408015389
 33
0.0
  0
TEXT
  5
BF
  8
DIM
 10
272.0858575616769
 20
455.51017408015389
 30
0.0
 40
5.0
  1
86
 72
     4
 11
276.01442899024829
 21
458.01017408015389
 31
0.0
  0
LINE
  5
C0
  8
HID
 10
319.2524963848017
 20
482.20174091241682
 30
0.0
 11
319.2524963848017
 21
412.00174091241661
 31
0.0
  0
LINE
  5
C1
  8
HID
 10
319.2524963848017
 20
412.00174091241661
 30
0.0
 11
319.2524963848017
 21
393.80174091241679
 31
0.0
  0
SOLID
  5
C2
  8
DIM
 10
313.2524963848017
 20
454.01017408015389
 30
0.0
 11
313.2524963848017
 21
452.01017408015389
 31
0.0
 12
319.2524963848017
 22
453.01017408015389
 32
0.0
 13
319.2524963848017
 23
453.01017408015389
 33
0.0
  0
LINE
  5
C3
  8
HID
 10
303.45249638480192
 20
482.8717409124169
 30
0.0
 11
303.45249638480192
 21
497.50174091241689
 31
0.0
  0
LINE
  5
C4
  8
HID
 10
287.50249638480187
 20
497.50174091241701
 30
0.0
 11
287.50249638480187
 21
482.8717409124169
 31
0.0
  0
LINE
  5
C5
  8
HID
 10
287.50249638480187
 20
378.50174091241649
 30
0.0
 11
288.00249638480187
 21
378.00174091241661
 31
0.0
  0
LINE
  5
C6
  8
HID
 10
287.5024963848017
 20
378.50174091241661
 30
0.0
 11
287.5024963848017
 21
393.13174091241689
 31
0.0
  0
LINE
  5
C7
  8
HID
 10
303.45249638480192
 20
378.50174091241649
 30
0.0
 11
302.95249638480192
 21
378.00174091241661
 31
0.0
  0
LINE
  5
C8
  8
HID
 10
303.45249638480192
 20
393.13174091241689
 30
0.0
 11
303.45249638480192
 21
378.50174091241661
 31
0.0
  0
LINE
  5
C9
  8
DIM
 10
167.6984243088512
 20
481.57174091241677
 30
0.0
 11
167.6984243088512
 21
368.16308633473528
 31
0.0
  0
SOLID
  5
CA
  8
DIM
 10
166.6984243088512
 20
400.43174091241679
 30
0.0
 11
168.6984243088512
 21
400.43174091241679
 31
0.0
 12
167.6984243088512
 22
394.43174091241679
 32
0.0
 13
167.6984243088512
 23
394.43174091241679
 33
0.0
  0
SOLID
  5
CB
  8
DIM
 10
166.6984243088512
 20
475.57174091241677
 30
0.0
 11
168.6984243088512
 21
475.57174091241677
 31
0.0
 12
167.6984243088512
 22
481.57174091241677
 32
0.0
 13
167.6984243088512
 23
481.57174091241677
 33
0.0
  0
TEXT
  5
CC
  8
DIM
 10
170.16321860082249
 20
257.4435541998983
 30
0.0
 40
5.0
  1
MAX. PERMISSIBLE O/D OF
 50
90.0
  0
TEXT
  5
CD
  8
DIM
 10
178.7346471722511
 20
257.4435541998983
 30
0.0
 40
5.0
  1
VALVE SPINDLE LOCKNUT
 50
90.0
  0
TEXT
  5
CE
  8
DIM
 10
161.59179002939399
 20
257.4435541998983
 30
0.0
 40
5.0
  1
%%c87 (%%c3.43") ROOT OF SPLINE
 50
90.0
  0
LINE
  5
CF
  8
DIM
 10
239.2524963848017
 20
253.71653282807861
 30
0.0
 11
329.70249638480198
 21
253.71653282807861
 31
0.0
  0
SOLID
  5
D0
  8
DIM
 10
239.2524963848017
 20
254.71653282807861
 30
0.0
 11
239.2524963848017
 21
252.71653282807861
 31
0.0
 12
233.2524963848017
 22
253.71653282807861
 32
0.0
 13
233.2524963848017
 23
253.71653282807861
 33
0.0
  0
TEXT
  5
D1
  8
DIM
 10
280.78120286023102
 20
256.21653282807858
 30
0.0
 40
5.0
  1
96
 72
     4
 11
284.70977428880241
 21
258.71653282807858
 31
0.0
  0
SOLID
  5
D2
  8
DIM
 10
323.70249638480192
 20
254.71653282807861
 30
0.0
 11
323.70249638480192
 21
252.71653282807861
 31
0.0
 12
329.70249638480198
 22
253.71653282807861
 32
0.0
 13
329.70249638480198
 23
253.71653282807861
 33
0.0
  0
SOLID
  5
D3
  8
DIM
 10
607.59224633205224
 20
372.39184059414868
 30
0.0
 11
608.63465130217457
 21
370.6849744956325
 31
0.0
 12
613.23404711266176
 22
374.66562245525859
 32
0.0
 13
613.23404711266176
 23
374.66562245525859
 33
0.0
  0
LINE
  5
D4
  8
DIM
 10
608.11344881711341
 20
371.5384075448905
 30
0.0
 11
528.071757252873
 21
322.65592216649702
 31
0.0
  0
LINE
  5
D5
  8
DRG
 10
209.90249638480199
 20
508.00174091241729
 30
0.0
 11
209.90249638480191
 21
368.00174091241729
 31
0.0
  0
LINE
  5
D6
  8
DRG
 10
304.90249638480191
 20
587.52674091241727
 30
0.0
 11
304.90249638480191
 21
489.6388297009803
 31
0.0
  0
LINE
  5
D7
  8
DRG
 10
233.90249638480199
 20
362.00174091241718
 30
0.0
 11
233.90249638480179
 21
292.00174091241718
 31
0.0
  0
LINE
  5
D8
  8
DRG
 10
243.90249638480191
 20
282.00174091241718
 30
0.0
 11
268.90249638480191
 21
282.00174091241718
 31
0.0
  0
ARC
  5
D9
  8
DRG
 10
243.90249638480191
 20
292.00174091241718
 30
0.0
 40
10.0
 50
179.99999999999989
 51
270.0
  0
LINE
  5
DA
  8
DRG
 10
304.90249638480191
 20
288.47674091241731
 30
0.0
 11
304.90249638480191
 21
273.00174091241718
 31
0.0
  0
ARC
  5
DB
  8
DRG
 10
280.52144642342307
 20
279.00174091241729
 30
0.0
 40
6.0
 50
194.47751218593129
 51
270.0
  0
LINE
  5
DC
  8
DRG
 10
280.52144642342307
 20
273.00174091241729
 30
0.0
 11
314.90249638480202
 21
273.00174091241729
 31
0.0
  0
LINE
  5
DD
  8
CRS
 10
316.53566651407408
 20
282.00174091241701
 30
0.0
 11
282.95885429261489
 21
282.00174091241701
 31
0.0
  0
ARC
  5
DE
  8
DRG
 10
268.90249638480191
 20
276.00174091241729
 30
0.0
 40
6.0
 50
14.47751218593158
 51
90.0
  0
LINE
  5
DF
  8
CRS
 10
340.02405323442508
 20
438.00174091241729
 30
0.0
 11
194.90910239272819
 21
438.00174091241729
 31
0.0
  0
LINE
  5
E0
  8
HID
 10
209.90249638480199
 20
387.75174091241718
 30
0.0
 11
224.90249638480191
 21
387.75174091241718
 31
0.0
  0
LINE
  5
E1
  8
HID
 10
224.90249638480191
 20
389.25174091241718
 30
0.0
 11
209.90249638480191
 21
389.25174091241718
 31
0.0
  0
LINE
  5
E2
  8
DRG
 10
304.90249638480191
 20
792.90174091241715
 30
0.0
 11
304.90249638480191
 21
692.90174091241715
 31
0.0
  0
LINE
  5
E3
  8
DRG
 10
214.90249638480179
 20
788.40174091241715
 30
0.0
 11
214.90249638480179
 21
697.40174091241727
 31
0.0
  0
LINE
  5
E4
  8
DRG
 10
219.90249638480191
 20
617.43174091241735
 30
0.0
 11
219.90249638480191
 21
514.00174091241729
 31
0.0
  0
LINE
  5
E5
  8
DRG
 10
294.90249638480208
 20
637.43174091241735
 30
0.0
 11
294.90249638480191
 21
601.08333503147298
 31
0.0
  0
LINE
  5
E6
  8
HID
 10
209.90249638480199
 20
488.25174091241718
 30
0.0
 11
224.90249638480191
 21
488.25174091241718
 31
0.0
  0
LINE
  5
E7
  8
HID
 10
224.90249638480191
 20
486.75174091241729
 30
0.0
 11
209.90249638480191
 21
486.75174091241729
 31
0.0
  0
LINE
  5
E8
  8
DRG
 10
314.90249638480179
 20
603.00174091241718
 30
0.0
 11
294.90249638480191
 21
603.00174091241718
 31
0.0
  0
LINE
  5
E9
  8
DRG
 10
304.90249638480191
 20
603.00174091241718
 30
0.0
 11
304.90249638480191
 21
587.52674091241727
 31
0.0
  0
LINE
  5
EA
  8
DRG
 10
219.90249638480191
 20
686.90174091241715
 30
0.0
 11
219.90249638480191
 21
624.43174091241735
 31
0.0
  0
LINE
  5
EB
  8
DRG
 10
219.90249638480191
 20
624.43174091241735
 30
0.0
 11
219.90249638480191
 21
617.43174091241735
 31
0.0
  0
ARC
  5
EC
  8
DRG
 10
213.90249638480191
 20
686.90174091241715
 30
0.0
 40
6.0
 50
0.0
 51
80.405931773139471
  0
LINE
  5
ED
  8
DRG
 10
214.90249638480179
 20
697.40174091241727
 30
0.0
 11
214.90249638480179
 21
692.81782069551673
 31
0.0
  0
LINE
  5
EE
  8
DRG
 10
294.90249638480191
 20
686.90174091241715
 30
0.0
 11
294.90249638480191
 21
637.43174091241713
 31
0.0
  0
ARC
  5
EF
  8
DRG
 10
300.90249638480191
 20
686.90174091241715
 30
0.0
 40
6.0
 50
90.0
 51
180.0
  0
LINE
  5
F0
  8
DRG
 10
300.90249638480191
 20
692.90174091241715
 30
0.0
 11
304.90249638480191
 21
692.90174091241727
 31
0.0
  0
LINE
  5
F1
  8
CRS
 10
324.30378202579709
 20
742.90174091241727
 30
0.0
 11
90.788041397232746
 21
742.90174091241727
 31
0.0
  0
LINE
  5
F2
  8
DRG
 10
243.90249638480191
 20
818.90174091241738
 30
0.0
 11
275.90249638480191
 21
818.90174091241738
 31
0.0
  0
LINE
  5
F3
  8
DRG
 10
233.90249638480179
 20
808.90174091241738
 30
0.0
 11
233.90249638480179
 21
798.90174091241749
 31
0.0
  0
ARC
  5
F4
  8
DRG
 10
227.90249638480191
 20
798.90174091241749
 30
0.0
 40
6.0
 50
270.0
 51
0.0
  0
LINE
  5
F5
  8
DRG
 10
214.90249638480179
 20
792.90174091241761
 30
0.0
 11
227.90249638480191
 21
792.90174091241761
 31
0.0
  0
LINE
  5
F6
  8
DRG
 10
214.90249638480179
 20
792.90174091241727
 30
0.0
 11
214.90249638480179
 21
788.40174091241715
 31
0.0
  0
ARC
  5
F7
  8
DRG
 10
243.90249638480191
 20
808.90174091241738
 30
0.0
 40
10.0
 50
90.0
 51
180.0
  0
LINE
  5
F8
  8
DRG
 10
285.90249638480179
 20
808.90174091241738
 30
0.0
 11
285.9024963848081
 21
531.15667515639655
 31
0.0
  0
LINE
  5
F9
  8
DRG
 10
291.90249638480208
 20
792.90174091241727
 30
0.0
 11
312.92749638480211
 21
792.90174091241693
 31
0.0
  0
ARC
  5
FA
  8
DRG
 10
291.90249638480208
 20
798.90174091241738
 30
0.0
 40
6.0
 50
180.0
 51
270.0
  0
ARC
  5
FB
  8
DRG
 10
275.90249638480191
 20
808.90174091241738
 30
0.0
 40
10.0
 50
0.0
 51
90.0
  0
ARC
  5
FC
  8
DRG
 10
679.73466169379458
 20
438.00174091241729
 30
0.0
 40
165.0
 50
90.000000000000071
 51
269.99999999999977
  0
ARC
  5
FD
  8
DRG
 10
679.73466169379435
 20
742.90174091241727
 30
0.0
 40
76.0
 50
90.0
 51
165.45539600777491
  0
LINE
  5
FE
  8
DRG
 10
543.54670985516873
 20
531.15667515639666
 30
0.0
 11
606.17027704646671
 21
761.98789588035277
 31
0.0
  0
ARC
  5
FF
  8
DRG
 10
679.73466169379435
 20
742.90174091241727
 30
0.0
 40
42.5
 50
90.0
 51
270.0
  0
LINE
  5
100
  8
DRG
 10
629.73466169379435
 20
782.90174091241727
 30
0.0
 11
629.73466169379412
 21
702.90174091241715
 31
0.0
  0
ARC
  5
101
  8
DRG
 10
653.73466169379435
 20
607.01357481762034
 30
0.0
 40
6.0
 50
278.74555933997118
 51
0.0
  0
LINE
  5
102
  8
DRG
 10
679.73466169379435
 20
692.90174091241772
 30
0.0
 11
639.73466169379412
 21
692.90174091241795
 31
0.0
  0
LINE
  5
103
  8
DRG
 10
659.73466169379435
 20
686.90174091241738
 30
0.0
 11
659.73466169379435
 21
607.01357481762034
 31
0.0
  0
ARC
  5
104
  8
DRG
 10
679.73466169379458
 20
620.93174091241735
 30
0.0
 40
15.0
 50
90.000000000000867
 51
269.99999999999909
  0
ARC
  5
105
  8
DRG
 10
639.73466169379412
 20
702.90174091241715
 30
0.0
 40
10.0
 50
180.0
 51
270.0
  0
ARC
  5
106
  8
DRG
 10
653.73466169379435
 20
686.90174091241738
 30
0.0
 40
6.0
 50
0.0
 51
90.0
  0
LINE
  5
107
  8
DRG
 10
679.73466169379435
 20
792.90174091241727
 30
0.0
 11
639.73466169379435
 21
792.90174091241727
 31
0.0
  0
ARC
  5
108
  8
DRG
 10
639.73466169379435
 20
782.90174091241727
 30
0.0
 40
10.0
 50
90.0
 51
180.0
  0
LINE
  5
109
  8
CRS
 10
679.73466169379435
 20
652.08704097460145
 30
0.0
 11
679.73466169379435
 21
604.08976888341124
 31
0.0
  0
LINE
  5
10A
  8
CRS
 10
679.73466169379435
 20
844.00045341289183
 30
0.0
 11
679.73466169379435
 21
673.36464794781
 31
0.0
  0
LINE
  5
10B
  8
DRG
 10
213.90249638480191
 20
508.00174091241729
 30
0.0
 11
209.90249638480199
 21
508.00174091241729
 31
0.0
  0
LINE
  5
10C
  8
DRG
 10
227.90249638480199
 20
368.00174091241718
 30
0.0
 11
209.90249638480191
 21
368.00174091241729
 31
0.0
  0
ARC
  5
10D
  8
DRG
 10
213.90249638480191
 20
514.00174091241729
 30
0.0
 40
6.0
 50
270.0
 51
0.0
  0
ARC
  5
10E
  8
DRG
 10
227.90249638480199
 20
362.00174091241718
 30
0.0
 40
6.0
 50
0.0
 51
89.999999999999815
  0
LINE
  5
10F
  8
DRG
 10
233.90249638480179
 20
798.90174091241749
 30
0.0
 11
233.90249638480179
 21
486.37858230787339
 31
0.0
  0
LINE
  5
110
  8
DRG
 10
274.90249638480191
 20
531.15667515639655
 30
0.0
 11
274.90249638480191
 21
488.85677612296871
 31
0.0
  0
LINE
  5
111
  8
DRG2
 10
312.92749638480211
 20
788.02484692471194
 30
0.0
 11
321.42749638480211
 21
788.02484692471194
 31
0.0
  0
LINE
  5
112
  8
DRG2
 10
321.42749638480211
 20
788.02484692471194
 30
0.0
 11
321.42749638480211
 21
772.02484692471194
 31
0.0
  0
LINE
  5
113
  8
DRG2
 10
321.42749638480211
 20
772.02484692471194
 30
0.0
 11
312.92749638480211
 21
772.02484692471194
 31
0.0
  0
LINE
  5
114
  8
DRG2
 10
321.42749638480211
 20
772.02484692471194
 30
0.0
 11
322.92749638480211
 21
773.52484692471194
 31
0.0
  0
LINE
  5
115
  8
DRG2
 10
322.92749638480211
 20
773.52484692471194
 30
0.0
 11
322.92749638480211
 21
786.52484692471194
 31
0.0
  0
LINE
  5
116
  8
DRG2
 10
322.92749638480211
 20
786.52484692471194
 30
0.0
 11
321.42749638480211
 21
788.02484692471194
 31
0.0
  0
LINE
  5
117
  8
DRG
 62
     1
 10
206.8774963848019
 20
793.1198897728184
 30
0.0
 11
214.90249638480179
 21
793.1198897728184
 31
0.0
  0
TEXT
  5
118
  8
DIM
 10
267.14099892129451
 20
860.23914443341096
 30
0.0
 40
5.0
  1
115
 72
     4
 11
272.61718939748499
 21
862.73914443341096
 31
0.0
  0
LINE
  5
119
  8
DRG
 10
314.90249638480179
 20
603.00174091241718
 30
0.0
 11
314.90249638480179
 21
486.99813072070373
 31
0.0
  0
LINE
  5
11A
  8
CRS
 10
621.36299690684484
 20
508.36655115754729
 30
0.0
 11
621.36299690684484
 21
484.38026024118642
 31
0.0
  0
LINE
  5
11B
  8
CRS
 10
609.36985144866435
 20
496.3734056993668
 30
0.0
 11
633.35614236502533
 21
496.3734056993668
 31
0.0
  0
LINE
  5
11C
  8
CRS
 10
513.83003312195365
 20
438.00174091241729
 30
0.0
 11
495.0449462807685
 21
438.00174091241729
 31
0.0
  0
LINE
  5
11D
  8
CRS
 10
679.73466169379435
 20
270.3271880538199
 30
0.0
 11
679.73466169379435
 21
261.37711172361543
 31
0.0
  0
LINE
  5
11E
  8
CRS
 10
679.73466169379435
 20
583.67176274990447
 30
0.0
 11
679.73466169379435
 21
293.37054981756432
 31
0.0
  0
LINE
  5
11F
  8
DRG
 10
329.70249638480198
 20
513.84174091241744
 30
0.0
 11
329.70249638480198
 21
362.16174091241709
 31
0.0
  0
LINE
  5
120
  8
DRG
 10
304.90249638480191
 20
383.02822006634091
 30
0.0
 11
304.90249638480191
 21
288.47674091241731
 31
0.0
  0
ARC
  5
121
  8
DRG2
 10
679.73466169379435
 20
594.00174091241752
 30
0.0
 40
8.0
 50
90.0
 51
270.0
  0
ARC
  5
122
  8
DRG2
 10
679.73466169379435
 20
594.00174091241752
 30
0.0
 40
7.0
 50
90.0
 51
270.0
  0
CIRCLE
  5
123
  8
DRG2
 10
569.42600382869296
 20
548.31039877751857
 30
0.0
 40
7.0
  0
CIRCLE
  5
124
  8
DRG2
 10
569.42600382869296
 20
548.31039877751857
 30
0.0
 40
8.0
  0
CIRCLE
  5
125
  8
DRG2
 10
569.42600382869296
 20
327.69308304731589
 30
0.0
 40
8.0
  0
CIRCLE
  5
126
  8
DRG2
 10
569.42600382869296
 20
327.69308304731589
 30
0.0
 40
7.0
  0
ARC
  5
127
  8
DRG2
 10
679.73466169379435
 20
282.00174091241712
 30
0.0
 40
7.0
 50
90.0
 51
270.0
  0
ARC
  5
128
  8
DRG2
 10
679.73466169379435
 20
282.00174091241712
 30
0.0
 40
8.0
 50
90.0
 51
270.0
  0
CIRCLE
  5
129
  8
DRG2
 10
523.73466169379412
 20
438.00174091241712
 30
0.0
 40
7.0
  0
CIRCLE
  5
12A
  8
DRG2
 10
523.73466169379412
 20
438.00174091241712
 30
0.0
 40
8.0
  0
CIRCLE
  5
12B
  8
DRG2
 10
642.61155568150048
 20
780.02484692471103
 30
0.0
 40
7.0
  0
CIRCLE
  5
12C
  8
DRG2
 10
642.61155568150048
 20
780.02484692471103
 30
0.0
 40
8.0
  0
CIRCLE
  5
12D
  8
DRG2
 10
642.61155568150048
 20
705.77863490012362
 30
0.0
 40
8.0
  0
CIRCLE
  5
12E
  8
DRG2
 10
642.61155568150048
 20
705.77863490012362
 30
0.0
 40
7.0
  0
LINE
  5
12F
  8
DRG2
 10
324.90249638480179
 20
587.50174091241752
 30
0.0
 11
324.90249638480179
 21
600.50174091241752
 31
0.0
  0
LINE
  5
130
  8
DRG2
 10
323.40249638480179
 20
602.00174091241752
 30
0.0
 11
323.40249638480179
 21
586.00174091241752
 31
0.0
  0
LINE
  5
131
  8
CRS
 10
313.13151579600691
 20
594.00174091241752
 30
0.0
 11
326.91179708476881
 21
594.00174091241752
 31
0.0
  0
LINE
  5
132
  8
DRG2
 10
323.40249638480179
 20
586.00174091241752
 30
0.0
 11
324.90249638480179
 21
587.50174091241752
 31
0.0
  0
LINE
  5
133
  8
DRG2
 10
323.40249638480179
 20
586.00174091241752
 30
0.0
 11
314.90249638480179
 21
586.00174091241752
 31
0.0
  0
LINE
  5
134
  8
DRG2
 10
324.90249638480179
 20
600.50174091241752
 30
0.0
 11
323.40249638480179
 21
602.00174091241752
 31
0.0
  0
LINE
  5
135
  8
DRG2
 10
314.90249638480179
 20
602.00174091241752
 30
0.0
 11
323.40249638480179
 21
602.00174091241752
 31
0.0
  0
LINE
  5
136
  8
DRG2
 10
324.90249638480179
 20
541.81039877751869
 30
0.0
 11
324.90249638480179
 21
554.81039877751869
 31
0.0
  0
LINE
  5
137
  8
DRG2
 10
323.40249638480179
 20
556.31039877751857
 30
0.0
 11
323.40249638480179
 21
540.31039877751857
 31
0.0
  0
LINE
  5
138
  8
CRS
 10
313.13151579600691
 20
548.31039877751857
 30
0.0
 11
326.91179708476881
 21
548.31039877751857
 31
0.0
  0
LINE
  5
139
  8
DRG2
 10
323.40249638480179
 20
540.31039877751857
 30
0.0
 11
324.90249638480179
 21
541.81039877751869
 31
0.0
  0
LINE
  5
13A
  8
DRG2
 10
323.40249638480179
 20
540.31039877751857
 30
0.0
 11
314.90249638480179
 21
540.31039877751857
 31
0.0
  0
LINE
  5
13B
  8
DRG2
 10
324.90249638480179
 20
554.81039877751869
 30
0.0
 11
323.40249638480179
 21
556.31039877751857
 31
0.0
  0
LINE
  5
13C
  8
DRG2
 10
314.90249638480179
 20
556.31039877751857
 30
0.0
 11
323.40249638480179
 21
556.31039877751857
 31
0.0
  0
LINE
  5
13D
  8
DRG2
 10
323.40249638480179
 20
319.69308304731589
 30
0.0
 11
323.40249638480179
 21
335.69308304731578
 31
0.0
  0
LINE
  5
13E
  8
DRG2
 10
324.90249638480179
 20
334.19308304731589
 30
0.0
 11
324.90249638480179
 21
321.19308304731578
 31
0.0
  0
LINE
  5
13F
  8
DRG2
 10
323.40249638480179
 20
335.69308304731578
 30
0.0
 11
314.90249638480179
 21
335.69308304731578
 31
0.0
  0
LINE
  5
140
  8
DRG2
 10
323.40249638480179
 20
335.69308304731578
 30
0.0
 11
324.90249638480179
 21
334.19308304731589
 31
0.0
  0
LINE
  5
141
  8
DRG2
 10
323.40249638480179
 20
274.00174091241701
 30
0.0
 11
323.40249638480179
 21
290.00174091241701
 31
0.0
  0
LINE
  5
142
  8
DRG2
 10
324.90249638480179
 20
288.50174091241701
 30
0.0
 11
324.90249638480179
 21
275.50174091241701
 31
0.0
  0
LINE
  5
143
  8
DRG2
 10
314.90249638480179
 20
319.69308304731589
 30
0.0
 11
323.40249638480179
 21
319.69308304731589
 31
0.0
  0
LINE
  5
144
  8
CRS
 10
313.13151579600691
 20
327.69308304731578
 30
0.0
 11
326.91179708476881
 21
327.69308304731578
 31
0.0
  0
LINE
  5
145
  8
DRG2
 10
324.90249638480179
 20
321.19308304731578
 30
0.0
 11
323.40249638480179
 21
319.69308304731589
 31
0.0
  0
LINE
  5
146
  8
DRG2
 10
323.40249638480179
 20
290.00174091241701
 30
0.0
 11
314.90249638480179
 21
290.00174091241701
 31
0.0
  0
LINE
  5
147
  8
CRS
 10
313.13151579600691
 20
282.00174091241701
 30
0.0
 11
326.91179708476881
 21
282.00174091241701
 31
0.0
  0
LINE
  5
148
  8
DRG2
 10
323.40249638480179
 20
290.00174091241701
 30
0.0
 11
324.90249638480179
 21
288.50174091241701
 31
0.0
  0
LINE
  5
149
  8
DRG2
 10
314.90249638480179
 20
274.00174091241701
 30
0.0
 11
323.40249638480179
 21
274.00174091241701
 31
0.0
  0
LINE
  5
14A
  8
DRG2
 10
324.90249638480179
 20
275.50174091241701
 30
0.0
 11
323.40249638480179
 21
274.00174091241701
 31
0.0
  0
SOLID
  5
14B
  8
DIM
 10
335.70249638480192
 20
633.15886303883985
 30
0.0
 11
335.70249638480192
 21
631.15886303883985
 31
0.0
 12
329.70249638480198
 22
632.15886303883985
 32
0.0
 13
329.70249638480198
 23
632.15886303883985
 33
0.0
  0
SOLID
  5
14C
  8
DIM
 10
318.90249638480179
 20
633.15886303883985
 30
0.0
 11
318.90249638480179
 21
631.15886303883985
 31
0.0
 12
324.90249638480179
 22
632.15886303883985
 32
0.0
 13
324.90249638480179
 23
632.15886303883985
 33
0.0
  0
LINE
  5
14D
  8
DIM
 10
335.70249638480192
 20
632.15886303883985
 30
0.0
 11
361.16297023448379
 21
632.15886303883985
 31
0.0
  0
TEXT
  5
14E
  8
DIM
 10
348.5007111790934
 20
634.65886303883985
 30
0.0
 40
5.0
  1
5
 72
     4
 11
350.16737784576009
 21
637.15886303883985
 31
0.0
  0
LINE
  5
14F
  8
DIM
 10
324.90249638480179
 20
604.22072890192248
 30
0.0
 11
324.90249638480179
 21
634.32528851899042
 31
0.0
  0
LINE
  5
150
  8
CRS
 10
301.37156545522498
 20
620.93174091241735
 30
0.0
 11
211.69870136727619
 21
620.93174091241735
 31
0.0
  0
LINE
  5
151
  8
DIM
 10
306.52749638480168
 20
632.15886303883985
 30
0.0
 11
318.52749638480179
 21
632.15886303883985
 31
0.0
  0
TEXT
  5
152
  8
DIM
 10
926.66041200501797
 20
500.91130027764132
 30
0.0
 40
5.0
  1
 
  0
TEXT
  5
153
  8
DIM
 10
374.46468125485723
 20
644.99320163601715
 30
0.0
 40
5.0
  1
8 OFF M10 BASEPLATE SECURING
  0
TEXT
  5
154
  8
DIM
 10
374.46468125485723
 20
627.85034449316004
 30
0.0
 40
5.0
  1
CENTRES ON %%C312 (%%c12.28") P.C.
  0
TEXT
  5
155
  8
DIM
 10
374.46468125485723
 20
636.42177306458859
 30
0.0
 40
5.0
  1
SCREWS EQUALLY SPACED ON
  0
LINE
  5
156
  8
DIM
 10
560.40029598949172
 20
558.79775616499251
 30
0.0
 11
512.99310131930793
 21
639.01133036144438
 31
0.0
  0
LINE
  5
157
  8
DIM
 10
512.99310131930793
 20
639.01133036144438
 30
0.0
 11
502.46736973140622
 21
639.01133036144449
 31
0.0
  0
SOLID
  5
158
  8
DIM
 10
561.26118366742287
 20
559.30655121802045
 30
0.0
 11
559.53940831156035
 21
558.28896111196445
 31
0.0
 12
563.45306630766015
 22
553.63243009740393
 32
0.0
 13
563.45306630766015
 23
553.63243009740393
 33
0.0
  0
LINE
  5
159
  8
DIM
 10
732.43485881610945
 20
748.90174091241738
 30
0.0
 11
732.43485881610945
 21
812.90174091241727
 31
0.0
  0
TEXT
  5
15A
  8
DIM
 10
729.93485881610945
 20
776.62413504712151
 30
0.0
 40
5.0
  1
76
 50
90.0
 72
     4
 11
727.43485881610945
 21
780.55270647569296
 31
0.0
  0
LINE
  5
15B
  8
DIM
 10
700.30912134849132
 20
742.90174091241727
 30
0.0
 11
734.43485881610945
 21
742.90174091241727
 31
0.0
  0
LINE
  5
15C
  8
DIM
 10
732.43485881610945
 20
444.00174091241718
 30
0.0
 11
732.43485881610945
 21
736.90174091241738
 31
0.0
  0
SOLID
  5
15D
  8
DIM
 10
731.43485881610945
 20
748.90174091241738
 30
0.0
 11
733.43485881610945
 21
748.90174091241738
 31
0.0
 12
732.43485881610945
 22
742.90174091241727
 32
0.0
 13
732.43485881610945
 23
742.90174091241727
 33
0.0
  0
SOLID
  5
15E
  8
DIM
 10
731.43485881610945
 20
736.90174091241738
 30
0.0
 11
733.43485881610945
 21
736.90174091241738
 31
0.0
 12
732.43485881610945
 22
742.90174091241727
 32
0.0
 13
732.43485881610945
 23
742.90174091241727
 33
0.0
  0
LINE
  5
15F
  8
DIM
 10
684.74034170826462
 20
818.90174091241738
 30
0.0
 11
734.43485881610945
 21
818.90174091241738
 31
0.0
  0
SOLID
  5
160
  8
DIM
 10
731.43485881610945
 20
812.90174091241727
 30
0.0
 11
733.43485881610945
 21
812.90174091241727
 31
0.0
 12
732.43485881610945
 22
818.90174091241738
 32
0.0
 13
732.43485881610945
 23
818.90174091241738
 33
0.0
  0
LINE
  5
161
  8
DIM
 10
701.95311306256065
 20
438.00174091241729
 30
0.0
 11
734.43485881610945
 21
438.00174091241729
 31
0.0
  0
SOLID
  5
162
  8
DIM
 10
731.43485881610945
 20
444.00174091241718
 30
0.0
 11
733.43485881610945
 21
444.00174091241718
 31
0.0
 12
732.43485881610945
 22
438.00174091241729
 32
0.0
 13
732.43485881610945
 23
438.00174091241729
 33
0.0
  0
TEXT
  5
163
  8
DIM
 10
729.93485881610945
 20
583.78653471831501
 30
0.0
 40
5.0
  1
305
 50
90.0
 72
     4
 11
727.43485881610945
 21
590.21510614688646
 31
0.0
  0
LINE
  5
164
  8
CRS
 10
695.63205175842631
 20
620.93174091241735
 30
0.0
 11
654.05716617716234
 21
620.93174091241735
 31
0.0
  0
LINE
  5
165
  8
CRS
 10
697.49181042215423
 20
438.00174091241729
 30
0.0
 11
538.07079668425365
 21
438.00174091241729
 31
0.0
  0
LINE
  5
166
  8
CRS
 10
696.10561895302999
 20
742.90174091241727
 30
0.0
 11
592.47990658868184
 21
742.90174091241727
 31
0.0
  0
LINE
  5
167
  8
DIM
 10
646.97831286406631
 20
452.09766355494082
 30
0.0
 11
571.08736878709522
 21
484.75554256757982
 31
0.0
  0
SOLID
  5
168
  8
DIM
 10
593.78527062954731
 20
476.07669561607099
 30
0.0
 11
592.99470904731811
 21
474.23957493829738
 31
0.0
 12
587.87862780511171
 22
477.52982002387142
 32
0.0
 13
587.87862780511171
 23
477.52982002387142
 33
0.0
  0
SOLID
  5
169
  8
DIM
 10
696.54183009123813
 20
429.68051203179738
 30
0.0
 11
697.33239167346733
 21
431.51763270957088
 31
0.0
 12
702.44847291567362
 22
428.22738762399689
 32
0.0
 13
702.44847291567362
 23
428.22738762399689
 33
0.0
  0
LINE
  5
16A
  8
DIM
 10
702.44847291567362
 20
428.22738762399689
 30
0.0
 11
646.97831286406631
 21
452.09766355494082
 31
0.0
  0
SOLID
  5
16B
  8
DIM
 10
691.03046805791723
 20
432.05219677848459
 30
0.0
 11
691.82102964014643
 21
433.8893174562582
 31
0.0
 12
696.93711088235273
 22
430.59907237068421
 32
0.0
 13
696.93711088235273
 23
430.59907237068421
 33
0.0
  0
LINE
  5
16C
  8
DIM
 10
514.73466169379446
 20
406.5588937922513
 30
0.0
 11
514.73466169379446
 21
330.82620672330961
 31
0.0
  0
LINE
  5
16D
  8
DIM
 10
520.73466169379435
 20
253.71653282807861
 30
0.0
 11
705.98920417725094
 21
253.71653282807861
 31
0.0
  0
SOLID
  5
16E
  8
DIM
 10
520.73466169379401
 20
254.71653282807861
 30
0.0
 11
520.73466169379401
 21
252.71653282807861
 31
0.0
 12
514.73466169379412
 22
253.71653282807861
 32
0.0
 13
514.73466169379412
 23
253.71653282807861
 33
0.0
  0
TEXT
  5
16F
  8
DIM
 10
603.76547767717375
 20
256.21653282807858
 30
0.0
 40
5.0
  1
%%C330
 72
     4
 11
612.4559538676499
 21
258.71653282807858
 31
0.0
  0
SOLID
  5
170
  8
DIM
 10
705.98920417725094
 20
254.71653282807861
 30
0.0
 11
705.98920417725094
 21
252.71653282807861
 31
0.0
 12
711.98920417725094
 22
253.71653282807861
 32
0.0
 13
711.98920417725094
 23
253.71653282807861
 33
0.0
  0
LINE
  5
171
  8
DIM
 10
514.73466169379446
 20
316.4435310615122
 30
0.0
 11
514.73466169379435
 21
251.71653282807861
 31
0.0
  0
SOLID
  5
172
  8
DIM
 10
699.98920417725094
 20
254.71653282807861
 30
0.0
 11
699.98920417725094
 21
252.71653282807861
 31
0.0
 12
705.98920417725094
 22
253.71653282807861
 32
0.0
 13
705.98920417725094
 23
253.71653282807861
 33
0.0
  0
LINE
  5
173
  8
DRG2
 10
198.3774963848019
 20
713.77863490012442
 30
0.0
 11
196.8774963848019
 21
712.27863490012442
 31
0.0
  0
LINE
  5
174
  8
DRG2
 10
196.8774963848019
 20
712.27863490012442
 30
0.0
 11
196.8774963848019
 21
699.27863490012453
 31
0.0
  0
LINE
  5
175
  8
DRG2
 10
196.8774963848019
 20
699.27863490012453
 30
0.0
 11
198.3774963848019
 21
697.77863490012453
 31
0.0
  0
LINE
  5
176
  8
DRG2
 10
206.8774963848019
 20
697.77863490012453
 30
0.0
 11
198.3774963848019
 21
697.77863490012453
 31
0.0
  0
LINE
  5
177
  8
DRG2
 10
198.3774963848019
 20
697.77863490012453
 30
0.0
 11
198.3774963848019
 21
713.77863490012442
 31
0.0
  0
LINE
  5
178
  8
DRG2
 10
198.3774963848019
 20
713.77863490012442
 30
0.0
 11
206.8774963848019
 21
713.77863490012442
 31
0.0
  0
LINE
  5
179
  8
BORT
 39
1.8
 10
166.0
 20
156.86315625460909
 30
0.0
 11
10.0
 21
156.86315625460909
 31
0.0
  0
LINE
  5
17A
  8
BORT
 39
1.8
 10
166.0
 20
142.86315625460909
 30
0.0
 11
10.0
 21
142.86315625460909
 31
0.0
  0
LINE
  5
17B
  8
BORT
 39
1.8
 10
38.0
 20
128.86315625460909
 30
0.0
 11
38.0
 21
156.86315625460909
 31
0.0
  0
LINE
  5
17C
  8
BORT
 39
1.8
 10
166.0
 20
128.86315625460909
 30
0.0
 11
166.0
 21
44.863156254609173
 31
0.0
  0
LINE
  5
17D
  8
BORT
 39
1.8
 10
166.0
 20
156.86315625460909
 30
0.0
 11
166.0
 21
128.86315625460909
 31
0.0
  0
LINE
  5
17E
  8
BORT
 39
1.8
 10
360.0
 20
74.863156254609166
 30
0.0
 11
360.0
 21
44.863156254609173
 31
0.0
  0
LINE
  5
17F
  8
DRG2
 10
206.8774963848019
 20
772.02484692471194
 30
0.0
 11
198.3774963848019
 21
772.02484692471194
 31
0.0
  0
LINE
  5
180
  8
DRG2
 10
198.3774963848019
 20
772.02484692471194
 30
0.0
 11
198.3774963848019
 21
788.02484692471194
 31
0.0
  0
LINE
  5
181
  8
DRG2
 10
198.3774963848019
 20
788.02484692471194
 30
0.0
 11
206.8774963848019
 21
788.02484692471194
 31
0.0
  0
LINE
  5
182
  8
DRG2
 10
198.3774963848019
 20
788.02484692471194
 30
0.0
 11
196.8774963848019
 21
786.52484692471194
 31
0.0
  0
LINE
  5
183
  8
DRG2
 10
196.8774963848019
 20
786.52484692471194
 30
0.0
 11
196.8774963848019
 21
773.52484692471194
 31
0.0
  0
LINE
  5
184
  8
DRG2
 10
196.8774963848019
 20
773.52484692471194
 30
0.0
 11
198.3774963848019
 21
772.02484692471194
 31
0.0
  0
LINE
  5
185
  8
CRS
 10
642.61155568150048
 20
715.13450593314337
 30
0.0
 11
642.61155568150048
 21
705.77863490012362
 31
0.0
  0
LINE
  5
186
  8
CRS
 10
642.61155568150048
 20
705.77863490012362
 30
0.0
 11
642.61155568150048
 21
696.42276386710375
 31
0.0
  0
LINE
  5
187
  8
CRS
 10
679.73466169379458
 20
282.00174091241712
 30
0.0
 11
670.37879066077437
 21
282.00174091241712
 31
0.0
  0
LINE
  5
188
  8
DRG2
 10
677.42526061703575
 20
278.00174091241712
 30
0.0
 11
675.11585954027726
 21
282.00174091241712
 31
0.0
  0
LINE
  5
189
  8
DRG2
 10
675.11585954027726
 20
282.00174091241712
 30
0.0
 11
677.42526061703575
 21
286.00174091241712
 31
0.0
  0
LINE
  5
18A
  8
DRG2
 10
677.42526061703575
 20
286.00174091241712
 30
0.0
 11
679.73466169379435
 21
286.00174091241712
 31
0.0
  0
LINE
  5
18B
  8
DRG2
 10
679.73466169379435
 20
278.00174091241712
 30
0.0
 11
677.42526061703575
 21
278.00174091241712
 31
0.0
  0
LINE
  5
18C
  8
CRS
 10
689.09053272681422
 20
594.00174091241752
 30
0.0
 11
679.73466169379458
 21
594.00174091241752
 31
0.0
  0
LINE
  5
18D
  8
CRS
 10
679.73466169379458
 20
594.00174091241752
 30
0.0
 11
670.37879066077437
 21
594.00174091241752
 31
0.0
  0
LINE
  5
18E
  8
BORT
 39
1.8
 10
580.0
 20
106.86315625460909
 30
0.0
 11
760.0
 21
106.86315625460909
 31
0.0
  0
LINE
  5
18F
  8
BORT
 39
1.8
 10
760.0
 20
90.863156254609166
 30
0.0
 11
580.0
 21
90.863156254609166
 31
0.0
  0
LINE
  5
190
  8
BORT
 39
1.8
 10
580.0
 20
106.86315625460909
 30
0.0
 11
580.0
 21
74.863156254609166
 31
0.0
  0
LINE
  5
191
  8
BORT
 39
1.8
 10
580.0
 20
74.863156254609166
 30
0.0
 11
580.0
 21
44.863156254609173
 31
0.0
  0
LINE
  5
192
  8
CRS
 10
578.78187486171271
 20
327.69308304731589
 30
0.0
 11
569.42600382869307
 21
327.69308304731589
 31
0.0
  0
LINE
  5
193
  8
CRS
 10
569.42600382869307
 20
327.69308304731589
 30
0.0
 11
560.07013279567309
 21
327.69308304731589
 31
0.0
  0
LINE
  5
194
  8
DRG2
 10
567.11660275193435
 20
323.69308304731589
 30
0.0
 11
564.80720167517586
 21
327.69308304731589
 31
0.0
  0
LINE
  5
195
  8
DRG2
 10
564.80720167517586
 20
327.69308304731589
 30
0.0
 11
567.11660275193435
 21
331.69308304731589
 31
0.0
  0
LINE
  5
196
  8
DRG2
 10
567.11660275193435
 20
331.69308304731589
 30
0.0
 11
571.73540490545145
 21
331.69308304731589
 31
0.0
  0
LINE
  5
197
  8
DRG2
 10
571.73540490545145
 20
331.69308304731589
 30
0.0
 11
574.04480598220994
 21
327.69308304731589
 31
0.0
  0
LINE
  5
198
  8
DRG2
 10
574.04480598220994
 20
327.69308304731589
 30
0.0
 11
571.73540490545145
 21
323.69308304731589
 31
0.0
  0
LINE
  5
199
  8
DRG2
 10
571.73540490545145
 20
323.69308304731589
 30
0.0
 11
567.11660275193435
 21
323.69308304731589
 31
0.0
  0
LINE
  5
19A
  8
CRS
 10
569.42600382869296
 20
318.33721201429597
 30
0.0
 11
569.42600382869296
 21
327.69308304731589
 31
0.0
  0
LINE
  5
19B
  8
CRS
 10
569.42600382869296
 20
327.69308304731589
 30
0.0
 11
569.42600382869296
 21
337.04895408033582
 31
0.0
  0
LINE
  5
19C
  8
CRS
 10
679.73466169379435
 20
272.6458698793972
 30
0.0
 11
679.73466169379435
 21
282.00174091241712
 31
0.0
  0
LINE
  5
19D
  8
CRS
 10
679.73466169379435
 20
282.00174091241712
 30
0.0
 11
679.73466169379435
 21
291.35761194543699
 31
0.0
  0
LINE
  5
19E
  8
CRS
 10
523.73466169379412
 20
428.64586987939731
 30
0.0
 11
523.73466169379412
 21
438.00174091241712
 31
0.0
  0
LINE
  5
19F
  8
CRS
 10
523.73466169379412
 20
438.00174091241712
 30
0.0
 11
523.73466169379412
 21
447.35761194543699
 31
0.0
  0
LINE
  5
1A0
  8
DRG2
 10
521.42526061703541
 20
434.00174091241712
 30
0.0
 11
519.11585954027714
 21
438.00174091241712
 31
0.0
  0
LINE
  5
1A1
  8
DRG2
 10
519.11585954027714
 20
438.00174091241712
 30
0.0
 11
521.42526061703541
 21
442.00174091241712
 31
0.0
  0
LINE
  5
1A2
  8
DRG2
 10
521.42526061703541
 20
442.00174091241712
 30
0.0
 11
526.04406277055273
 21
442.00174091241712
 31
0.0
  0
LINE
  5
1A3
  8
DRG2
 10
526.04406277055273
 20
442.00174091241712
 30
0.0
 11
528.3534638473111
 21
438.00174091241712
 31
0.0
  0
LINE
  5
1A4
  8
DRG2
 10
528.3534638473111
 20
438.00174091241712
 30
0.0
 11
526.04406277055273
 21
434.00174091241712
 31
0.0
  0
LINE
  5
1A5
  8
DRG2
 10
526.04406277055273
 20
434.00174091241712
 30
0.0
 11
521.42526061703541
 21
434.00174091241712
 31
0.0
  0
LINE
  5
1A6
  8
CRS
 10
533.09053272681399
 20
438.00174091241712
 30
0.0
 11
523.73466169379435
 21
438.00174091241712
 31
0.0
  0
LINE
  5
1A7
  8
CRS
 10
523.73466169379435
 20
438.00174091241712
 30
0.0
 11
514.37879066077414
 21
438.00174091241712
 31
0.0
  0
LINE
  5
1A8
  8
CRS
 10
530.77296892441632
 20
438.00174091241729
 30
0.0
 11
523.73466169379412
 21
438.00174091241729
 31
0.0
  0
LINE
  5
1A9
  8
CRS
 10
523.73466169379412
 20
438.00174091241729
 30
0.0
 11
516.2980152755274
 21
438.00174091241729
 31
0.0
  0
LINE
  5
1AA
  8
CRS
 10
578.78187486171271
 20
548.31039877751857
 30
0.0
 11
569.42600382869307
 21
548.31039877751857
 31
0.0
  0
LINE
  5
1AB
  8
CRS
 10
569.42600382869307
 20
548.31039877751857
 30
0.0
 11
560.07013279567309
 21
548.31039877751857
 31
0.0
  0
LINE
  5
1AC
  8
DRG2
 10
567.11660275193435
 20
552.31039877751857
 30
0.0
 11
564.80720167517586
 21
548.31039877751857
 31
0.0
  0
LINE
  5
1AD
  8
DRG2
 10
564.80720167517586
 20
548.31039877751857
 30
0.0
 11
567.11660275193435
 21
544.31039877751857
 31
0.0
  0
LINE
  5
1AE
  8
DRG2
 10
567.11660275193435
 20
544.31039877751857
 30
0.0
 11
571.73540490545145
 21
544.31039877751857
 31
0.0
  0
LINE
  5
1AF
  8
DRG2
 10
571.73540490545145
 20
544.31039877751857
 30
0.0
 11
574.04480598220994
 21
548.31039877751857
 31
0.0
  0
LINE
  5
1B0
  8
DRG2
 10
574.04480598220994
 20
548.31039877751857
 30
0.0
 11
571.73540490545145
 21
552.31039877751857
 31
0.0
  0
LINE
  5
1B1
  8
DRG2
 10
571.73540490545145
 20
552.31039877751857
 30
0.0
 11
567.11660275193435
 21
552.31039877751857
 31
0.0
  0
LINE
  5
1B2
  8
CRS
 10
569.42600382869296
 20
557.66626981053855
 30
0.0
 11
569.42600382869296
 21
548.31039877751857
 31
0.0
  0
LINE
  5
1B3
  8
CRS
 10
569.42600382869296
 20
548.31039877751857
 30
0.0
 11
569.42600382869296
 21
538.95452774449871
 31
0.0
  0
LINE
  5
1B4
  8
DRG2
 10
677.42526061703575
 20
598.00174091241752
 30
0.0
 11
675.11585954027726
 21
594.00174091241752
 31
0.0
  0
LINE
  5
1B5
  8
DRG2
 10
675.11585954027726
 20
594.00174091241752
 30
0.0
 11
677.42526061703575
 21
590.00174091241752
 31
0.0
  0
LINE
  5
1B6
  8
DRG2
 10
677.42526061703575
 20
590.00174091241752
 30
0.0
 11
679.73466169379435
 21
590.00174091241752
 31
0.0
  0
LINE
  5
1B7
  8
CRS
 10
679.73466169379435
 20
603.35761194543727
 30
0.0
 11
679.73466169379435
 21
594.00174091241752
 31
0.0
  0
LINE
  5
1B8
  8
CRS
 10
679.73466169379435
 20
594.00174091241752
 30
0.0
 11
679.73466169379435
 21
584.64586987939765
 31
0.0
  0
LINE
  5
1B9
  8
DRG2
 10
679.73466169379435
 20
598.00174091241752
 30
0.0
 11
677.42526061703575
 21
598.00174091241752
 31
0.0
  0
LINE
  5
1BA
  8
CRS
 10
651.96742671452034
 20
705.77863490012362
 30
0.0
 11
642.61155568150059
 21
705.77863490012362
 31
0.0
  0
LINE
  5
1BB
  8
CRS
 10
642.61155568150059
 20
705.77863490012362
 30
0.0
 11
633.25568464848061
 21
705.77863490012362
 31
0.0
  0
LINE
  5
1BC
  8
DRG2
 10
640.30215460474176
 20
709.77863490012362
 30
0.0
 11
637.9927535279835
 21
705.77863490012362
 31
0.0
  0
LINE
  5
1BD
  8
DRG2
 10
637.9927535279835
 20
705.77863490012362
 30
0.0
 11
640.30215460474176
 21
701.77863490012351
 31
0.0
  0
LINE
  5
1BE
  8
DRG2
 10
640.30215460474176
 20
701.77863490012351
 30
0.0
 11
644.92095675825908
 21
701.77863490012351
 31
0.0
  0
LINE
  5
1BF
  8
DRG2
 10
644.92095675825908
 20
701.77863490012351
 30
0.0
 11
647.23035783501746
 21
705.77863490012362
 31
0.0
  0
LINE
  5
1C0
  8
DRG2
 10
647.23035783501746
 20
705.77863490012362
 30
0.0
 11
644.92095675825908
 21
709.77863490012362
 31
0.0
  0
LINE
  5
1C1
  8
DRG2
 10
644.92095675825908
 20
709.77863490012362
 30
0.0
 11
640.30215460474176
 21
709.77863490012362
 31
0.0
  0
LINE
  5
1C2
  8
BORT
 39
1.8
 10
716.0
 20
106.86315625460909
 30
0.0
 11
716.0
 21
74.863156254609166
 31
0.0
  0
LINE
  5
1C3
  8
CRS
 10
651.96742671452034
 20
780.02484692471103
 30
0.0
 11
642.61155568150059
 21
780.02484692471103
 31
0.0
  0
LINE
  5
1C4
  8
CRS
 10
642.61155568150059
 20
780.02484692471103
 30
0.0
 11
633.25568464848061
 21
780.02484692471103
 31
0.0
  0
LINE
  5
1C5
  8
CRS
 10
642.61155568150048
 20
770.66897589169105
 30
0.0
 11
642.61155568150048
 21
780.02484692471103
 31
0.0
  0
LINE
  5
1C6
  8
CRS
 10
642.61155568150048
 20
780.02484692471103
 30
0.0
 11
642.61155568150048
 21
789.38071795773089
 31
0.0
  0
LINE
  5
1C7
  8
DRG2
 10
640.30215460474176
 20
776.02484692471103
 30
0.0
 11
637.9927535279835
 21
780.02484692471103
 31
0.0
  0
LINE
  5
1C8
  8
DRG2
 10
637.9927535279835
 20
780.02484692471103
 30
0.0
 11
640.30215460474176
 21
784.02484692471103
 31
0.0
  0
LINE
  5
1C9
  8
DRG2
 10
640.30215460474176
 20
784.02484692471103
 30
0.0
 11
644.92095675825908
 21
784.02484692471103
 31
0.0
  0
LINE
  5
1CA
  8
DRG2
 10
644.92095675825908
 20
784.02484692471103
 30
0.0
 11
647.23035783501746
 21
780.02484692471103
 31
0.0
  0
LINE
  5
1CB
  8
DRG2
 10
647.23035783501746
 20
780.02484692471103
 30
0.0
 11
644.92095675825908
 21
776.02484692471103
 31
0.0
  0
LINE
  5
1CC
  8
DRG2
 10
644.92095675825908
 20
776.02484692471103
 30
0.0
 11
640.30215460474176
 21
776.02484692471103
 31
0.0
  0
LINE
  5
1CD
  8
DIM
 10
312.92749638480211
 20
687.90174091241647
 30
0.0
 11
312.92749638480211
 21
661.47666462559039
 31
0.0
  0
LINE
  5
1CE
  8
DIM
 10
306.92749638480211
 20
663.47666462559027
 30
0.0
 11
300.92749638480211
 21
663.47666462559027
 31
0.0
  0
SOLID
  5
1CF
  8
DIM
 10
306.92749638480211
 20
662.47666462559039
 30
0.0
 11
306.92749638480211
 21
664.47666462559027
 31
0.0
 12
312.92749638480211
 22
663.47666462559027
 32
0.0
 13
312.92749638480211
 23
663.47666462559027
 33
0.0
  0
LINE
  5
1D0
  8
DIM
 10
328.92749638480188
 20
663.47666462559027
 30
0.0
 11
359.07173517008528
 21
663.47666462559027
 31
0.0
  0
SOLID
  5
1D1
  8
DIM
 10
328.92749638480188
 20
662.47666462559039
 30
0.0
 11
328.92749638480188
 21
664.47666462559027
 31
0.0
 12
322.927496384802
 22
663.47666462559027
 32
0.0
 13
322.927496384802
 23
663.47666462559027
 33
0.0
  0
LINE
  5
1D2
  8
DIM
 10
322.92749638480211
 20
661.47666462559039
 30
0.0
 11
322.92749638480211
 21
696.9046646592127
 31
0.0
  0
LINE
  5
1D3
  8
DIM
 10
329.70249638480198
 20
668.07959757902313
 30
0.0
 11
329.7024963848018
 21
859.73914443341096
 31
0.0
  0
TEXT
  5
1D4
  8
DIM
 10
343.13734238613921
 20
665.97666462559039
 30
0.0
 40
5.0
  1
10
 72
     4
 11
346.70877095756782
 21
668.47666462559027
 31
0.0
  0
ARC
  5
1D5
  8
DRG
 10
679.73466169379435
 20
438.00174091241729
 30
0.0
 40
77.5
 50
90.0
 51
116.6862760639104
  0
ARC
  5
1D6
  8
DRG
 10
621.39466169379432
 20
496.34174091241732
 30
0.0
 40
17.5
 50
46.172930305021843
 51
223.82706969497801
  0
ARC
  5
1D7
  8
DRG
 10
621.39466169379432
 20
379.6617409124172
 30
0.0
 40
17.5
 50
136.17293030502191
 51
313.82706969497809
  0
ARC
  5
1D8
  8
DRG
 10
679.73466169379435
 20
438.00174091241729
 30
0.0
 40
77.5
 50
153.3137239360895
 51
206.6862760639105
  0
ARC
  5
1D9
  8
DRG
 10
679.73466169379435
 20
438.00174091241729
 30
0.0
 40
77.5
 50
243.3137239360895
 51
270.0
  0
ARC
  5
1DA
  8
DRG
 10
640.43797433539771
 20
516.18115228559418
 30
0.0
 40
10.0
 50
226.17293030502191
 51
296.6862760639105
  0
ARC
  5
1DB
  8
DRG
 10
601.55525032061735
 20
477.2984282708137
 30
0.0
 40
10.0
 50
333.31372393608939
 51
43.827069694978277
  0
ARC
  5
1DC
  8
DRG
 10
601.55525032061735
 20
398.70505355402071
 30
0.0
 40
10.0
 50
316.17293030502168
 51
26.686276063910562
  0
ARC
  5
1DD
  8
DRG
 10
640.43797433539771
 20
359.82232953924017
 30
0.0
 40
10.0
 50
63.313723936089509
 51
133.82706969497809
  0
LINE
  5
1DE
  8
DRG
 10
329.70249638480198
 20
513.84174091241744
 30
0.0
 11
320.90249638480179
 21
513.84174091241744
 31
0.0
  0
ARC
  5
1DF
  8
DRG
 10
320.90249638480179
 20
519.84174091241744
 30
0.0
 40
6.0
 50
180.0
 51
270.00000000000011
  0
ARC
  5
1E0
  8
DRG
 10
320.90249638480179
 20
356.16174091241709
 30
0.0
 40
6.0
 50
89.999999999999915
 51
180.0
  0
LINE
  5
1E1
  8
DRG
 10
329.70249638480198
 20
362.16174091241709
 30
0.0
 11
320.90249638480179
 21
362.16174091241709
 31
0.0
  0
LINE
  5
1E2
  8
DRG
 10
334.52249638480191
 20
500.50174091241678
 30
0.0
 11
334.52249638480203
 21
375.50174091241678
 31
0.0
  0
LINE
  5
1E3
  8
DRG
 10
333.52249638480191
 20
501.50174091241678
 30
0.0
 11
329.70249638480198
 21
501.50174091241678
 31
0.0
  0
LINE
  5
1E4
  8
DRG
 10
333.52249638480203
 20
374.50174091241678
 30
0.0
 11
329.70249638480198
 21
374.50174091241678
 31
0.0
  0
LINE
  5
1E5
  8
DRG
 10
333.52249638480191
 20
501.50174091241678
 30
0.0
 11
334.52249638480191
 21
500.50174091241678
 31
0.0
  0
LINE
  5
1E6
  8
DRG
 10
334.52249638480203
 20
375.50174091241678
 30
0.0
 11
333.52249638480203
 21
374.50174091241678
 31
0.0
  0
LINE
  5
1E7
  8
CRS
 10
344.12926699393012
 20
438.00174091241678
 30
0.0
 11
199.01431615223331
 21
438.00174091241678
 31
0.0
  0
LINE
  5
1E8
  8
HID
 10
302.95249638480192
 20
378.00174091241661
 30
0.0
 11
288.00249638480187
 21
378.00174091241661
 31
0.0
  0
LINE
  5
1E9
  8
HID
 10
302.95249638480192
 20
498.00174091241712
 30
0.0
 11
288.00249638480187
 21
498.00174091241712
 31
0.0
  0
LINE
  5
1EA
  8
HID
 10
287.50249638480187
 20
497.50174091241712
 30
0.0
 11
288.00249638480187
 21
498.00174091241712
 31
0.0
  0
LINE
  5
1EB
  8
HID
 10
303.45249638480192
 20
497.50174091241712
 30
0.0
 11
302.95249638480192
 21
498.00174091241712
 31
0.0
  0
LINE
  5
1EC
  8
HID
 10
318.5024963848017
 20
482.95174091241688
 30
0.0
 11
310.20249638480192
 21
482.95174091241671
 31
0.0
  0
LINE
  5
1ED
  8
HID
 10
318.5024963848017
 20
393.05174091241679
 30
0.0
 11
310.20249638480192
 21
393.05174091241679
 31
0.0
  0
LINE
  5
1EE
  8
HID
 10
310.20249638480192
 20
482.8717409124169
 30
0.0
 11
303.45249638480192
 21
482.8717409124169
 31
0.0
  0
LINE
  5
1EF
  8
HID
 10
310.20249638480192
 20
393.13174091241689
 30
0.0
 11
303.45249638480192
 21
393.13174091241689
 31
0.0
  0
ARC
  5
1F0
  8
HID
 10
318.5024963848017
 20
482.20174091241682
 30
0.0
 40
0.75
 50
0.0000000000000891
 51
90.000000000000355
  0
ARC
  5
1F1
  8
HID
 10
318.5024963848017
 20
393.80174091241679
 30
0.0
 40
0.75
 50
270.0
 51
0.0
  0
LINE
  5
1F2
  8
HID
 10
255.0024963848019
 20
482.95174091241688
 30
0.0
 11
255.0024963848019
 21
482.8717409124169
 31
0.0
  0
LINE
  5
1F3
  8
HID
 10
255.0024963848017
 20
393.05174091241679
 30
0.0
 11
255.0024963848017
 21
393.13174091241689
 31
0.0
  0
LINE
  5
1F4
  8
HID
 10
250.2524963848019
 20
482.95174091241682
 30
0.0
 11
250.2524963848019
 21
481.44174091241678
 31
0.0
  0
LINE
  5
1F5
  8
HID
 10
250.2524963848017
 20
393.05174091241679
 30
0.0
 11
250.2524963848017
 21
394.56174091241678
 31
0.0
  0
LINE
  5
1F6
  8
HID
 10
255.0024963848019
 20
482.95174091241688
 30
0.0
 11
250.2524963848019
 21
482.95174091241682
 31
0.0
  0
LINE
  5
1F7
  8
HID
 10
255.0024963848019
 20
393.05174091241679
 30
0.0
 11
250.2524963848017
 21
393.05174091241679
 31
0.0
  0
LINE
  5
1F8
  8
HID
 10
246.2524963848019
 20
482.87174091241678
 30
0.0
 11
246.2524963848019
 21
481.44174091241678
 31
0.0
  0
LINE
  5
1F9
  8
HID
 10
246.2524963848017
 20
393.13174091241689
 30
0.0
 11
246.2524963848017
 21
394.56174091241678
 31
0.0
  0
LINE
  5
1FA
  8
HID
 10
250.2524963848019
 20
481.44174091241678
 30
0.0
 11
246.2524963848019
 21
481.44174091241678
 31
0.0
  0
LINE
  5
1FB
  8
HID
 10
250.2524963848017
 20
394.56174091241678
 30
0.0
 11
246.2524963848017
 21
394.56174091241678
 31
0.0
  0
LINE
  5
1FC
  8
HID
 10
246.2524963848019
 20
482.87174091241678
 30
0.0
 11
234.0024963848017
 21
482.87174091241673
 31
0.0
  0
LINE
  5
1FD
  8
HID
 10
246.2524963848017
 20
393.13174091241689
 30
0.0
 11
234.0024963848017
 21
393.13174091241689
 31
0.0
  0
LINE
  5
1FE
  8
HID
 10
246.2524963848019
 20
481.57174091241677
 30
0.0
 11
233.2524963848019
 21
481.57174091241677
 31
0.0
  0
LINE
  5
1FF
  8
HID
 10
246.2524963848017
 20
394.43174091241679
 30
0.0
 11
233.2524963848019
 21
394.43174091241679
 31
0.0
  0
LINE
  5
200
  8
HID
 10
234.0024963848017
 20
482.87174091241673
 30
0.0
 11
233.2524963848017
 21
482.12174091241678
 31
0.0
  0
LINE
  5
201
  8
HID
 10
233.2524963848017
 20
393.88174091241689
 30
0.0
 11
234.0024963848017
 21
393.13174091241689
 31
0.0
  0
LINE
  5
202
  8
DRG
 10
274.90249638480191
 20
387.87030534615809
 30
0.0
 11
274.90249638480191
 21
276.89760202358411
 31
0.0
  0
LINE
  5
203
  8
DRG
 10
314.90249638480179
 20
387.25075571470239
 30
0.0
 11
314.90249638480202
 21
273.00174091241729
 31
0.0
  0
ARC
  5
204
  8
DRG
 10
679.73466169379435
 20
438.00174091241729
 30
0.0
 40
69.980000000000004
 50
90.0
 51
270.0
  0
ARC
  5
205
  8
DRG
 10
679.73466169379435
 20
438.00174091241729
 30
0.0
 40
45.090000000000003
 50
90.0
 51
270.0
  0
ARC
  5
206
  8
DIM
 10
679.73466169379435
 20
438.00174091241718
 30
0.0
 40
100.0
 50
142.34210860999389
 51
162.3708099489931
  0
LINE
  5
207
  8
DIM
 10
228.66712165911369
 20
481.57174091241677
 30
0.0
 11
165.6984243088512
 21
481.57174091241677
 31
0.0
  0
LINE
  5
208
  8
DIM
 10
228.30820417278261
 20
394.43174091241679
 30
0.0
 11
165.6984243088512
 21
394.43174091241679
 31
0.0
  0
LINE
  5
209
  8
DIM
 10
329.70249638480198
 20
357.27321562135091
 30
0.0
 11
329.70249638480198
 21
224.01285964492371
 31
0.0
  0
LINE
  5
20A
  8
DIM
 10
334.52249638480191
 20
371.7955476064497
 30
0.0
 11
334.52249638480191
 21
224.01285964492371
 31
0.0
  0
LINE
  5
20B
  8
DIM
 10
233.2524963848017
 20
391.92192948839232
 30
0.0
 11
233.2524963848017
 21
377.01519485839208
 31
0.0
  0
LINE
  5
20C
  8
DIM
 10
329.70249638480198
 20
517.2556803299583
 30
0.0
 11
329.70249638480198
 21
658.26798070389225
 31
0.0
  0
LINE
  5
20D
  8
DIM
 10
227.13554790208161
 20
382.88534327085858
 30
0.0
 11
227.13554790208161
 21
274.79923885821341
 31
0.0
  0
LINE
  5
20E
  8
DIM
 10
233.2524963848017
 20
278.14307253002801
 30
0.0
 11
233.2524963848017
 21
251.972705945185
 31
0.0
  0
LINE
  5
20F
  8
DIM
 10
237.25689178787391
 20
384.59746778171808
 30
0.0
 11
223.79960580709991
 21
375.79224769435018
 31
0.0
  0
LINE
  5
210
  8
DIM
 10
237.25689178787391
 20
271.85571126929921
 30
0.0
 11
223.79960580709991
 21
280.66093135666722
 31
0.0
  0
LINE
  5
211
  8
DRG
 62
     1
 10
318.92749638480211
 20
772.02484692471194
 30
0.0
 11
318.92749638480211
 21
713.77863490012442
 31
0.0
  0
LINE
  5
212
  8
DRG
 62
     1
 10
200.8774963848019
 20
772.02484692471194
 30
0.0
 11
200.8774963848019
 21
713.77863490012464
 31
0.0
  0
LINE
  5
213
  8
DIM
 10
161.6204403313435
 20
387.75174091241718
 30
0.0
 11
110.3089056213617
 21
387.75174091241718
 31
0.0
  0
LINE
  5
214
  8
CRS
 10
682.70626539773355
 20
282.00174091241712
 30
0.0
 11
679.73466169379458
 21
282.00174091241712
 31
0.0
  0
LINE
  5
215
  8
DRG2
 10
219.90249638480171
 20
623.55674091241735
 30
0.0
 11
216.09392636730959
 21
623.55710226924691
 31
0.0
  0
LINE
  5
216
  8
DRG2
 10
216.09220312261351
 20
615.68174091241735
 30
0.0
 11
219.90249638480199
 21
615.68174091241735
 31
0.0
  0
LINE
  5
217
  8
DRG2
 10
219.90249638480199
 20
626.18174091241735
 30
0.0
 11
216.09220312261351
 21
626.18174091241735
 31
0.0
  0
LINE
  5
218
  8
DRG2
 10
215.7024963848018
 20
624.87074091241732
 30
0.0
 11
215.7024963848018
 21
616.99274091241739
 31
0.0
  0
LINE
  5
219
  8
DRG2
 10
216.09381617236511
 20
618.30674091241735
 30
0.0
 11
219.90249638480199
 21
618.30674091241735
 31
0.0
  0
ARC
  5
21A
  8
DRG2
 10
218.1024963848019
 20
616.99274091241739
 30
0.0
 40
2.3999999999999999
 50
146.80432899645251
 51
213.11012571114091
  0
LINE
  5
21B
  8
DRG2
 10
215.7024963848018
 20
616.99274091241739
 30
0.0
 11
215.7024963848018
 21
624.87074091241732
 31
0.0
  0
ARC
  5
21C
  8
DRG2
 10
218.1024963848019
 20
624.87074091241732
 30
0.0
 40
2.3999999999999999
 50
146.889874288859
 51
213.1956710035474
  0
ARC
  5
21D
  8
DRG2
 10
224.7024963848018
 20
620.93174091241735
 30
0.0
 40
9.0
 50
163.03983164449119
 51
196.9601683555087
  0
LINE
  5
21E
  8
DRG2
 10
166.0
 20
74.863156254609166
 30
0.0
 11
536.0
 21
74.863156254609166
 31
0.0
  0
LINE
  5
21F
  8
DRG2
 10
166.0
 20
90.863156254609166
 30
0.0
 11
536.0
 21
90.863156254609166
 31
0.0
  0
LINE
  5
220
  8
DRG2
 10
166.0
 20
106.86315625460909
 30
0.0
 11
536.0
 21
106.86315625460909
 31
0.0
  0
LINE
  5
221
  8
DRG2
 10
166.0
 20
122.86315625460909
 30
0.0
 11
536.0
 21
122.86315625460909
 31
0.0
  0
TEXT
  5
222
  8
TXT
 10
170.76190476190479
 20
80.720299111752055
 30
0.0
 40
5.0
  1
FACTOR (MECH. ADVANTAGE)
 72
     4
 11
226.0
 21
82.86315625460918
 31
0.0
  0
TEXT
  5
223
  8
TXT
 10
197.3095238095238
 20
112.36315625460909
 30
0.0
 40
5.0
  1
NOMINAL RATIO
 72
     4
 11
226.0
 21
114.86315625460909
 31
0.0
  0
TEXT
  5
224
  8
TXT
 10
201.71428571428569
 20
96.36315625460918
 30
0.0
 40
5.0
  1
EXACT RATIO
 72
     4
 11
226.0
 21
98.86315625460918
 31
0.0
  0
LINE
  5
225
  8
DRG2
 10
166.0
 20
74.863156254609166
 30
0.0
 11
166.0
 21
122.86315625460909
 31
0.0
  0
TEXT
  5
226
  8
TXT
 10
306.23809523809518
 20
112.36315625460909
 30
0.0
 40
5.0
  1
2:1
 72
     4
 11
311.0
 21
114.86315625460909
 31
0.0
  0
LINE
  5
227
  8
DRG2
 10
286.0
 20
74.863156254609166
 30
0.0
 11
286.0
 21
122.86315625460909
 31
0.0
  0
TEXT
  5
228
  8
TXT
 10
303.85714285714278
 20
80.36315625460918
 30
0.0
 40
5.0
  1
1.80
 72
     4
 11
311.0
 21
82.86315625460918
 31
0.0
  0
TEXT
  5
229
  8
TXT
 10
300.28571428571422
 20
96.36315625460918
 30
0.0
 40
5.0
  1
2.00:1
 72
     4
 11
311.0
 21
98.86315625460918
 31
0.0
  0
TEXT
  5
22A
  8
TXT
 10
356.23809523809518
 20
112.36315625460909
 30
0.0
 40
5.0
  1
3:1
 72
     4
 11
361.0
 21
114.86315625460909
 31
0.0
  0
LINE
  5
22B
  8
DRG2
 10
386.0
 20
74.863156254609166
 30
0.0
 11
386.0
 21
122.86315625460909
 31
0.0
  0
LINE
  5
22C
  8
DRG2
 10
336.0
 20
74.863156254609166
 30
0.0
 11
336.0
 21
122.86315625460909
 31
0.0
  0
TEXT
  5
22D
  8
TXT
 10
353.38095238095229
 20
80.36315625460918
 30
0.0
 40
5.0
  1
2.70
 72
     4
 11
361.0
 21
82.86315625460918
 31
0.0
  0
TEXT
  5
22E
  8
TXT
 10
350.28571428571422
 20
96.36315625460918
 30
0.0
 40
5.0
  1
3.00:1
 72
     4
 11
361.0
 21
98.86315625460918
 31
0.0
  0
TEXT
  5
22F
  8
TXT
 10
406.23809523809518
 20
112.36315625460909
 30
0.0
 40
5.0
  1
4:1
 72
     4
 11
411.0
 21
114.86315625460909
 31
0.0
  0
LINE
  5
230
  8
DRG2
 10
436.0
 20
74.863156254609166
 30
0.0
 11
436.0
 21
122.86315625460909
 31
0.0
  0
TEXT
  5
231
  8
TXT
 10
400.28571428571422
 20
96.36315625460918
 30
0.0
 40
5.0
  1
4.00:1
 72
     4
 11
411.0
 21
98.86315625460918
 31
0.0
  0
TEXT
  5
232
  8
TXT
 10
403.38095238095241
 20
80.36315625460918
 30
0.0
 40
5.0
  1
3.60
 72
     4
 11
411.0
 21
82.86315625460918
 31
0.0
  0
TEXT
  5
233
  8
TXT
 10
456.23809523809518
 20
112.36315625460909
 30
0.0
 40
5.0
  1
6:1
 72
     4
 11
461.0
 21
114.86315625460909
 31
0.0
  0
LINE
  5
234
  8
DRG2
 10
486.0
 20
74.863156254609166
 30
0.0
 11
486.0
 21
122.86315625460909
 31
0.0
  0
TEXT
  5
235
  8
TXT
 10
453.38095238095241
 20
80.36315625460918
 30
0.0
 40
5.0
  1
5.40
 72
     4
 11
461.0
 21
82.86315625460918
 31
0.0
  0
TEXT
  5
236
  8
TXT
 10
450.28571428571422
 20
96.36315625460918
 30
0.0
 40
5.0
  1
6.00:1
 72
     4
 11
461.0
 21
98.86315625460918
 31
0.0
  0
TEXT
  5
237
  8
TXT
 10
506.23809523809518
 20
112.36315625460909
 30
0.0
 40
5.0
  1
8:1
 72
     4
 11
511.0
 21
114.86315625460909
 31
0.0
  0
LINE
  5
238
  8
DRG2
 10
536.0
 20
74.863156254609166
 30
0.0
 11
536.0
 21
122.86315625460909
 31
0.0
  0
TEXT
  5
239
  8
TXT
 10
503.38095238095241
 20
80.36315625460918
 30
0.0
 40
5.0
  1
7.20
 72
     4
 11
511.0
 21
82.86315625460918
 31
0.0
  0
TEXT
  5
23A
  8
TXT
 10
500.28571428571422
 20
96.36315625460918
 30
0.0
 40
5.0
  1
8.00:1
 72
     4
 11
511.0
 21
98.86315625460918
 31
0.0
  0
TEXT
  5
23B
  8
BORT
 10
1256.8198783366011
 20
68.608251667899367
 30
0.0
 40
5.0
  1

 72
     4
 11
1256.8198783366011
 21
68.608251667899367
 31
0.0
  0
TEXT
  5
23C
  8
DIM
 10
1713.4802903416189
 20
517.51955194554057
 30
0.0
 40
5.0
  1
 
  0
TEXT
  5
23D
  8
BORT
 10
2074.9561228030439
 20
97.388354960943246
 30
0.0
 40
5.0
  1

 72
     4
 11
2074.9561228030439
 21
97.388354960943246
 31
0.0
  0
TEXT
  5
23E
  8
BORT
 10
2855.897183092151
 20
112.21954618250069
 30
0.0
 40
5.0
  1

 72
     4
 11
2855.897183092151
 21
112.21954618250069
 31
0.0
  0
TEXT
  5
23F
  8
BORT
 10
3673.4309159166341
 20
127.0507374040581
 30
0.0
 40
5.0
  1

 72
     4
 11
3673.4309159166341
 21
127.0507374040581
 31
0.0
  0
LINE
  5
240
  8
DRG
 10
130.5325966514992
 20
880.00210823581119
 30
0.0
 11
130.5325966514992
 21
1055.002108235811
 31
0.0
  0
LINE
  5
241
  8
DRG
 10
115.5325966514992
 20
1055.002108235811
 30
0.0
 11
115.5325966514992
 21
880.00210823581119
 31
0.0
  0
LINE
  5
242
  8
DRG
 10
115.5325966514992
 20
880.00210823581119
 30
0.0
 11
130.5325966514992
 21
880.00210823581119
 31
0.0
  0
LINE
  5
243
  8
DRG
 10
173.2825966514992
 20
917.50210823581119
 30
0.0
 11
185.5325966514992
 21
917.50210823581119
 31
0.0
  0
LINE
  5
244
  8
CRS
 10
225.77115865138549
 20
967.50210823581119
 30
0.0
 11
55.717487789007009
 21
967.50210823581119
 31
0.0
  0
LINE
  5
245
  8
DRG
 10
173.2825966514992
 20
917.50210823581119
 30
0.0
 11
173.28259665150151
 21
1017.502108235811
 31
0.0
  0
LINE
  5
246
  8
DRG
 10
115.5325966514992
 20
952.50210823581131
 30
0.0
 11
66.032596651500171
 21
952.50210823581131
 31
0.0
  0
LINE
  5
247
  8
DRG
 10
115.5325966514992
 20
982.50210823581119
 30
0.0
 11
66.032596651500171
 21
982.50210823581119
 31
0.0
  0
LINE
  5
248
  8
DRG
 10
109.5325966515001
 20
985.80210823581137
 30
0.0
 11
69.532596651500171
 21
985.80210823581137
 31
0.0
  0
LINE
  5
249
  8
DRG
 10
64.532596651500171
 20
981.00210823581119
 30
0.0
 11
64.532596651500171
 21
954.00210823581119
 31
0.0
  0
LINE
  5
24A
  8
DRG2
 10
66.032596651500171
 20
982.50210823581119
 30
0.0
 11
66.032596651500171
 21
952.50210823581131
 31
0.0
  0
LINE
  5
24B
  8
DRG
 10
64.532596651500171
 20
954.00210823581119
 30
0.0
 11
66.032596651500171
 21
952.50210823581131
 31
0.0
  0
LINE
  5
24C
  8
DRG
 10
66.032596651500171
 20
982.50210823581119
 30
0.0
 11
64.532596651500171
 21
981.00210823581119
 31
0.0
  0
LINE
  5
24D
  8
DRG
 10
69.532596651500171
 20
985.80210823581137
 30
0.0
 11
69.532596651500171
 21
982.50210823581119
 31
0.0
  0
LINE
  5
24E
  8
HID
 10
120.5325966514992
 20
1012.502108235806
 30
0.0
 11
120.5325966514992
 21
922.50210823581142
 31
0.0
  0
LINE
  5
24F
  8
DRG
 10
136.5325966514992
 20
941.40606475174525
 30
0.0
 11
167.2825966514992
 21
941.40606475174525
 31
0.0
  0
LINE
  5
250
  8
HID
 10
120.5325966514992
 20
924.9021082358114
 30
0.0
 11
120.5325966514992
 21
920.87710823581131
 31
0.0
  0
LINE
  5
251
  8
HID
 10
119.5325966514992
 20
919.87710823581131
 30
0.0
 11
115.5325966514992
 21
919.87710823581131
 31
0.0
  0
ARC
  5
252
  8
HID
 10
119.5325966514992
 20
920.87710823581131
 30
0.0
 40
1.0
 50
270.0
 51
0.0
  0
ARC
  5
253
  8
DRG
 10
136.5325966514992
 20
935.40606475174491
 30
0.0
 40
6.0
 50
90.0
 51
180.0
  0
ARC
  5
254
  8
DRG
 10
167.2825966514992
 20
935.40606475174525
 30
0.0
 40
6.0
 50
0.0
 51
90.000000000000114
  0
LINE
  5
255
  8
DRG
 10
167.282596651501
 20
993.59815171987736
 30
0.0
 11
136.5325966514992
 21
993.59815171987702
 31
0.0
  0
LINE
  5
256
  8
DRG
 10
109.5325966515001
 20
985.80210823581137
 30
0.0
 11
109.5325966515001
 21
982.50210823581119
 31
0.0
  0
LINE
  5
257
  8
HID
 10
119.5325966514992
 20
1015.127108235811
 30
0.0
 11
115.5325966514992
 21
1015.127108235811
 31
0.0
  0
LINE
  5
258
  8
HID
 10
120.5325966514992
 20
1012.502108235811
 30
0.0
 11
120.5325966514992
 21
1014.127108235811
 31
0.0
  0
ARC
  5
259
  8
HID
 10
119.5325966514992
 20
1014.127108235811
 30
0.0
 40
1.0
 50
0.0
 51
90.0
  0
LINE
  5
25A
  8
DRG
 10
115.5325966514992
 20
1055.002108235811
 30
0.0
 11
130.5325966514992
 21
1055.002108235811
 31
0.0
  0
LINE
  5
25B
  8
HID
 10
115.5325966514992
 20
1025.1435169058111
 30
0.0
 11
130.5325966514992
 21
1025.1435169058111
 31
0.0
  0
LINE
  5
25C
  8
HID
 10
115.5325966514992
 20
1008.643516905811
 30
0.0
 11
130.5325966514992
 21
1008.643516905811
 31
0.0
  0
LINE
  5
25D
  8
CRS
 10
112.5140652814602
 20
1016.893516905811
 30
0.0
 11
134.3449804697766
 21
1016.893516905811
 31
0.0
  0
ARC
  5
25E
  8
DRG
 10
136.5325966514992
 20
999.59815171987691
 30
0.0
 40
6.0
 50
180.0
 51
270.0
  0
ARC
  5
25F
  8
DRG
 10
167.282596651501
 20
999.59815171987736
 30
0.0
 40
6.0
 50
270.00000000000011
 51
359.99999999999869
  0
LINE
  5
260
  8
DRG
 10
185.5325966514992
 20
917.28395937541029
 30
0.0
 11
185.5325966515008
 21
1017.502108235811
 31
0.0
  0
LINE
  5
261
  8
DRG
 10
173.2825966514992
 20
1017.502108235811
 30
0.0
 11
185.5325966514992
 21
1017.502108235811
 31
0.0
  0
LINE
  5
262
  8
CRS
 10
112.10140655572739
 20
918.11069956581127
 30
0.0
 11
133.33593969967379
 21
918.11069956581127
 31
0.0
  0
LINE
  5
263
  8
HID
 10
115.5325966514992
 20
909.86069956581139
 30
0.0
 11
130.5325966514992
 21
909.86069956581139
 31
0.0
  0
LINE
  5
264
  8
HID
 10
115.5325966514992
 20
926.36069956581127
 30
0.0
 11
130.5325966514992
 21
926.36069956581127
 31
0.0
  0
TEXT
  5
265
  8
DIM
 10
87.056406175309235
 20
1087.502108235811
 30
0.0
 40
5.0
  1
51
 72
     1
 11
90.032596651499716
 21
1090.002108235811
 31
0.0
 73
     2
  0
LINE
  5
266
  8
DIM
 10
70.532596651500171
 20
1085.002108235811
 30
0.0
 11
109.5325966514992
 21
1085.002108235811
 31
0.0
  0
SOLID
  5
267
  8
DIM
 10
70.532596651500171
 20
1086.002108235811
 30
0.0
 11
70.532596651500171
 21
1084.002108235811
 31
0.0
 12
64.532596651500171
 22
1085.002108235811
 32
0.0
 13
64.532596651500171
 23
1085.002108235811
 33
0.0
  0
SOLID
  5
268
  8
DIM
 10
109.5325966514992
 20
1086.002108235811
 30
0.0
 11
109.5325966514992
 21
1084.002108235811
 31
0.0
 12
115.5325966514992
 22
1085.002108235811
 32
0.0
 13
115.5325966514992
 23
1085.002108235811
 33
0.0
  0
LINE
  5
269
  8
DIM
 10
115.5325966514992
 20
1056.3730136327331
 30
0.0
 11
115.5325966514992
 21
1087.002108235811
 31
0.0
  0
LINE
  5
26A
  8
DIM
 10
34.532596651500171
 20
880.00210823581119
 30
0.0
 11
34.532596651500171
 21
1055.002108235811
 31
0.0
  0
SOLID
  5
26B
  8
DIM
 10
33.532596651500171
 20
886.00210823581119
 30
0.0
 11
35.532596651500171
 21
886.00210823581119
 31
0.0
 12
34.532596651500171
 22
880.00210823581119
 32
0.0
 13
34.532596651500171
 23
880.00210823581119
 33
0.0
  0
TEXT
  5
26C
  8
DIM
 10
32.032596651500157
 20
929.76401299771601
 30
0.0
 40
5.0
  1
FOR INPUT OPTIONS
 50
90.0
 72
     4
 11
29.532596651500171
 21
967.50210823581119
 31
0.0
  0
SOLID
  5
26D
  8
DIM
 10
33.532596651500171
 20
1049.002108235811
 30
0.0
 11
35.532596651500171
 21
1049.002108235811
 31
0.0
 12
34.532596651500171
 22
1055.002108235811
 32
0.0
 13
34.532596651500171
 23
1055.002108235811
 33
0.0
  0
TEXT
  5
26E
  8
DIM
 10
89.285180116336335
 20
1018.302108235811
 30
0.0
 40
5.0
  1
5
 72
     1
 11
90.95184678300302
 21
1020.802108235811
 31
0.0
 73
     2
  0
LINE
  5
26F
  8
DIM
 10
64.532596651500171
 20
1015.802108235811
 30
0.0
 11
53.450599970532039
 21
1015.802108235811
 31
0.0
  0
LINE
  5
270
  8
DIM
 10
75.532596651500171
 20
1015.802108235811
 30
0.0
 11
103.52440056902191
 21
1015.802108235811
 31
0.0
  0
SOLID
  5
271
  8
DIM
 10
75.532596651500171
 20
1016.802108235811
 30
0.0
 11
75.532596651500171
 21
1014.802108235811
 31
0.0
 12
69.532596651500171
 22
1015.802108235811
 32
0.0
 13
69.532596651500171
 23
1015.802108235811
 33
0.0
  0
LINE
  5
272
  8
DIM
 10
69.532596651500171
 20
990.09940154352364
 30
0.0
 11
69.532596651500171
 21
1017.802108235811
 31
0.0
  0
SOLID
  5
273
  8
DIM
 10
58.532596651500171
 20
1016.802108235811
 30
0.0
 11
58.532596651500171
 21
1014.802108235811
 31
0.0
 12
64.532596651500171
 22
1015.802108235811
 32
0.0
 13
64.532596651500171
 23
1015.802108235811
 33
0.0
  0
LINE
  5
274
  8
DIM
 10
115.5325966514992
 20
1057.002108235811
 30
0.0
 11
115.5325966514992
 21
1062.002108235811
 31
0.0
  0
LINE
  5
275
  8
DIM
 10
111.918720312221
 20
1055.002108235811
 30
0.0
 11
32.532596651500171
 21
1055.002108235811
 31
0.0
  0
TEXT
  5
276
  8
BORT
 10
4461.025190836036
 20
141.88192862561559
 30
0.0
 40
5.0
  1

 72
     4
 11
4461.025190836036
 21
141.88192862561559
 31
0.0
  0
ARC
  5
277
  8
DRG
 10
133.5325966514992
 20
974.50210823581119
 30
0.0
 40
3.0
 50
180.0
 51
270.0
  0
ARC
  5
278
  8
DRG
 10
133.5325966514992
 20
960.50210823581131
 30
0.0
 40
3.0
 50
90.0
 51
179.99999999999989
  0
LINE
  5
279
  8
DRG
 10
170.2825966515006
 20
971.50210823581131
 30
0.0
 11
133.5325966514992
 21
971.50210823581131
 31
0.0
  0
LINE
  5
27A
  8
DRG
 10
170.28259665150011
 20
963.50210823581131
 30
0.0
 11
133.5325966514992
 21
963.50210823581131
 31
0.0
  0
ARC
  5
27B
  8
DRG
 10
170.2825966515006
 20
974.50210823581119
 30
0.0
 40
3.0
 50
270.0
 51
359.99999999999869
  0
ARC
  5
27C
  8
DRG
 10
170.28259665150011
 20
960.50210823581131
 30
0.0
 40
3.0
 50
359.99999999999869
 51
90.0
  0
LINE
  5
27D
  8
DRG
 10
173.2825966514992
 20
917.50210823581119
 30
0.0
 11
132.0325966514992
 21
893.68640963173925
 31
0.0
  0
ARC
  5
27E
  8
DRG
 10
133.5325966514992
 20
891.08833342038588
 30
0.0
 40
3.0
 50
119.9999999999999
 51
180.0
  0
LINE
  5
27F
  8
DRG
 10
173.2825966514992
 20
1017.502108235811
 30
0.0
 11
132.0325966514992
 21
1041.3178068398829
 31
0.0
  0
ARC
  5
280
  8
DRG
 10
133.5325966514992
 20
1043.9158830512361
 30
0.0
 40
3.0
 50
180.0
 51
240.0
  0
TEXT
  5
281
  8
DIM
 10
42.032596651500157
 20
947.50210823581131
 30
0.0
 40
5.0
  1
SEE TABLE
 50
90.0
 72
     4
 11
39.532596651500171
 21
967.50210823581119
 31
0.0
  0
LINE
  5
282
  8
DIM
 10
111.6019593669884
 20
880.00210823581119
 30
0.0
 11
32.532596651500171
 21
880.00210823581119
 31
0.0
  0
TEXT
  5
283
  8
DIM
 10
77.889739508642563
 20
1077.8592510929541
 30
0.0
 40
5.0
  1
(2.01")
 72
     4
 11
90.032596651499716
 21
1080.002108235811
 31
0.0
  0
TEXT
  5
284
  8
DIM
 10
78.332799163955386
 20
1008.659251092954
 30
0.0
 40
5.0
  1
(0.20")
 72
     4
 11
90.95184678300302
 21
1010.802108235811
 31
0.0
  0
LINE
  5
285
  8
DIM
 10
64.532596651500171
 20
984.80852931149684
 30
0.0
 11
64.532596651500171
 21
1051.277130103116
 31
0.0
  0
TEXT
  5
286
  8
DIM
 10
74.823916635618815
 20
924.66810034643538
 30
0.0
 40
5.0
  1
(0.20")
 72
     4
 11
87.442964254666435
 21
926.8109574892926
 31
0.0
  0
LINE
  5
287
  8
DIM
 10
126.53259665149881
 20
931.81095748929249
 30
0.0
 11
132.0640060614391
 21
931.81095748929249
 31
0.0
  0
SOLID
  5
288
  8
DIM
 10
109.5325966514992
 20
932.81095748929249
 30
0.0
 11
109.5325966514992
 21
930.8109574892926
 31
0.0
 12
115.5325966514992
 22
931.81095748929249
 32
0.0
 13
115.5325966514992
 23
931.81095748929249
 33
0.0
  0
LINE
  5
289
  8
DIM
 10
109.5325966514992
 20
931.81095748929249
 30
0.0
 11
75.213396220092363
 21
931.81095748929249
 31
0.0
  0
SOLID
  5
28A
  8
DIM
 10
126.53259665149881
 20
932.81095748929249
 30
0.0
 11
126.53259665149881
 21
930.8109574892926
 31
0.0
 12
120.53259665149881
 22
931.81095748929249
 32
0.0
 13
120.53259665149881
 23
931.81095748929249
 33
0.0
  0
TEXT
  5
28B
  8
DIM
 10
85.776297587999764
 20
934.3109574892926
 30
0.0
 40
5.0
  1
5
 72
     1
 11
87.442964254666435
 21
936.8109574892926
 31
0.0
 73
     2
  0
LINE
  5
28C
  8
DIM
 10
185.532596651501
 20
1085.002108235811
 30
0.0
 11
115.5325966514992
 21
1085.002108235811
 31
0.0
  0
SOLID
  5
28D
  8
DIM
 10
121.5325966514992
 20
1086.002108235811
 30
0.0
 11
121.5325966514992
 21
1084.002108235811
 31
0.0
 12
115.5325966514992
 22
1085.002108235811
 32
0.0
 13
115.5325966514992
 23
1085.002108235811
 33
0.0
  0
LINE
  5
28E
  8
DIM
 10
185.532596651501
 20
1022.408472962051
 30
0.0
 11
185.532596651501
 21
1086.9422881179539
 31
0.0
  0
TEXT
  5
28F
  8
DIM
 10
137.91354903245249
 20
1076.429016282691
 30
0.0
 40
5.0
  1
(2.76")
 72
     4
 11
150.53259665150011
 21
1078.5718734255479
 31
0.0
  0
TEXT
  5
290
  8
DIM
 10
146.48497760388111
 20
1087.502108235811
 30
0.0
 40
5.0
  1
70
 72
     4
 11
150.53259665150011
 21
1090.002108235811
 31
0.0
  0
SOLID
  5
291
  8
DIM
 10
179.532596651501
 20
1086.0021082358121
 30
0.0
 11
179.532596651501
 21
1084.0021082358121
 31
0.0
 12
185.532596651501
 22
1085.0021082358121
 32
0.0
 13
185.532596651501
 23
1085.0021082358121
 33
0.0
  0
TEXT
  5
292
  8
BORT
 10
4480.0807172673412
 20
141.87072583874789
 30
0.0
 40
5.0
  1

 72
     4
 11
4480.0807172673412
 21
141.87072583874789
 31
0.0
  0
LINE
  5
293
  8
DRG
 10
204.53259665149989
 20
1023.502108235811
 30
0.0
 11
204.53259665149989
 21
891.55717580131875
 31
0.0
  0
ARC
  5
294
  8
DRG
 10
214.53259665149989
 20
1033.502108235811
 30
0.0
 40
10.0
 50
90.0
 51
180.0
  0
ARC
  5
295
  8
DRG
 10
198.53259665149989
 20
1023.502108235811
 30
0.0
 40
6.0
 50
270.0
 51
0.0
  0
LINE
  5
296
  8
DRG
 10
204.53259665149989
 20
1033.502108235811
 30
0.0
 11
204.53259665149989
 21
1023.502108235811
 31
0.0
  0
LINE
  5
297
  8
DRG
 10
185.53259665149989
 20
1017.502108235811
 30
0.0
 11
198.53259665149989
 21
1017.502108235811
 31
0.0
  0
LINE
  5
298
  8
DRG
 10
214.53259665149989
 20
1043.502108235811
 30
0.0
 11
230.3117940973838
 21
1043.502108235811
 31
0.0
  0
LINE
  5
299
  8
DRG
 10
190.53259665149989
 20
911.50210823581097
 30
0.0
 11
190.53259665149989
 21
891.55717580131875
 31
0.0
  0
ARC
  5
29A
  8
DRG
 10
184.53259665149989
 20
911.50210823581097
 30
0.0
 40
6.0
 50
0.0
 51
80.405931773139471
  0
ARC
  5
29B
  8
DRG
 10
679.73466169379435
 20
438.00174091241729
 30
0.0
 40
63.499999999999552
 50
90.0
 51
270.0
  0
ARC
  5
29C
  8
DRG2
 10
621.36299690684484
 20
496.3734056993668
 30
0.0
 40
9.5250000000000004
 50
65.459348698300147
 51
21.0451855029009
  0
CIRCLE
  5
29D
  8
DRG2
 10
621.36299690684484
 20
496.3734056993668
 30
0.0
 40
8.2867499999999996
  0
LINE
  5
29E
  8
CRS
 10
609.36985144866435
 20
379.63007612546772
 30
0.0
 11
633.35614236502533
 21
379.63007612546772
 31
0.0
  0
LINE
  5
29F
  8
CRS
 10
621.36299690684484
 20
367.63693066728729
 30
0.0
 11
621.36299690684484
 21
391.62322158364822
 31
0.0
  0
ARC
  5
2A0
  8
DRG2
 10
621.36299690684484
 20
379.63007612546772
 30
0.0
 40
9.5250000000000004
 50
65.459348698300147
 51
21.0451855029009
  0
CIRCLE
  5
2A1
  8
DRG2
 10
621.36299690684484
 20
379.63007612546772
 30
0.0
 40
8.2867499999999996
  0
TEXT
  5
2A2
  8
DIM
 10
369.34615817479801
 20
238.6476045968175
 30
0.0
 40
5.0
  1

  0
TEXT
  5
2A3
  8
DIM
 10
739.57771595896656
 20
767.93365885664525
 30
0.0
 40
5.0
  1
(2.99")
 50
90.0
 72
     4
 11
737.43485881610957
 21
780.55270647569296
 31
0.0
  0
TEXT
  5
2A4
  8
DIM
 10
739.57771595896656
 20
575.69129662307694
 30
0.0
 40
5.0
  1
(12.00")
 50
90.0
 72
     4
 11
737.43485881610957
 21
590.21510614688646
 31
0.0
  0
TEXT
  5
2A5
  8
DIM
 10
263.3953813712007
 20
445.86731693729678
 30
0.0
 40
5.0
  1
(3.39")
 72
     4
 11
276.01442899024829
 21
448.01017408015389
 31
0.0
  0
TEXT
  5
2A6
  8
DIM
 10
272.09072666975482
 20
246.5736756852215
 30
0.0
 40
5.0
  1
(3.80")
 72
     4
 11
284.70977428880241
 21
248.71653282807861
 31
0.0
  0
TEXT
  5
2A7
  8
DIM
 10
260.29864189984642
 20
218.87000250206671
 30
0.0
 40
5.0
  1
(4.72")
 72
     4
 11
272.91768951889401
 21
221.01285964492379
 31
0.0
  0
TEXT
  5
2A8
  8
DIM
 10
342.53741506921642
 20
218.8700025020666
 30
0.0
 40
5.0
  1
(0.19")
 72
     4
 11
354.68027221207359
 21
221.01285964492379
 31
0.0
  0
TEXT
  5
2A9
  8
DIM
 10
338.02452070290292
 20
625.01600589598274
 30
0.0
 40
5.0
  1
(0.19")
 72
     4
 11
350.16737784576009
 21
627.15886303883985
 31
0.0
  0
TEXT
  5
2AA
  8
DIM
 10
334.08972333852017
 20
656.33380748273305
 30
0.0
 40
5.0
  1
(0.39")
 72
     4
 11
346.70877095756782
 21
658.47666462559027
 31
0.0
  0
TEXT
  5
2AB
  8
DIM
 10
279.69223014223593
 20
825.59628729055385
 30
0.0
 40
5.0
  1
(0.66")
 72
     4
 11
292.31127776128352
 21
827.73914443341096
 31
0.0
  0
TEXT
  5
2AC
  8
DIM
 10
174.13171820194239
 20
825.59628729055385
 30
0.0
 40
5.0
  1
(0.32")
 72
     4
 11
186.75076582099001
 21
827.73914443341096
 31
0.0
  0
TEXT
  5
2AD
  8
DIM
 10
60.707452264163273
 20
825.59628729055385
 30
0.0
 40
5.0
  1
(0.20")
 72
     4
 11
73.326499883210886
 21
827.73914443341096
 31
0.0
  0
TEXT
  5
2AE
  8
DIM
 10
141.7709487657543
 20
850.59628729055385
 30
0.0
 40
5.0
  1
(4.76")
 72
     4
 11
154.38999638480189
 21
852.73914443341096
 31
0.0
  0
TEXT
  5
2AF
  8
DIM
 10
259.9981417784374
 20
850.59628729055385
 30
0.0
 40
5.0
  1
(4.52")
 72
     4
 11
272.61718939748499
 21
852.73914443341096
 31
0.0
  0
TEXT
  5
2B0
  8
DIM
 10
152.6579267741524
 20
804.34043122506205
 30
0.0
 40
5.0
  1
8x7x40
 72
     4
 11
165.51506963129529
 21
806.84043122506205
 31
0.0
  0
TEXT
  5
2B1
  8
DIM
 10
129.5626886789143
 20
796.1261455107765
 30
0.0
 40
5.0
  1
(0.31"x0.28"x1.57")
 72
     4
 11
165.51506963129529
 21
798.26900265363361
 31
0.0
  0
TEXT
  5
2B2
  8
DIM
 10
158.8484029646286
 20
787.19757408220494
 30
0.0
 40
5.0
  1
KEY
 72
     4
 11
165.51506963129529
 21
789.69757408220494
 31
0.0
  0
LINE
  5
2B3
  8
DIM
 10
127.33527827309599
 20
798.26900265363361
 30
0.0
 11
119.562609531665
 21
798.26900265363361
 31
0.0
  0
TEXT
  5
2B4
  8
DIM
 10
595.67023958193545
 20
246.57367568522139
 30
0.0
 40
5.0
  1
(%%c12.99")
 72
     4
 11
612.4559538676499
 21
248.7165328280785
 31
0.0
  0
LINE
  5
2B5
  8
DIM
 10
571.08736878709522
 20
484.75554256757982
 30
0.0
 11
537.64438122515753
 21
484.75554256758011
 31
0.0
  0
TEXT
  5
2B6
  8
DIM
 10
537.32406389327355
 20
476.44193792596121
 30
0.0
 40
5.0
  1
(%%c7.87")
 50
359.99999999999972
 72
     4
 11
552.20501627422595
 21
478.58479506881832
 31
0.0
  0
TEXT
  5
2B7
  8
DIM
 10
543.51454008374969
 20
488.42629006634212
 30
0.0
 40
5.0
  1
%%c200
 50
359.99999999999881
 72
     4
 11
552.20501627422595
 21
490.92629006634201
 31
0.0
  0
LINE
  5
2B8
  8
DRG
 10
233.90249638480179
 20
374.10535565695773
 30
0.0
 11
233.90249638480179
 21
362.00174091241718
 31
0.0
  0
TEXT
  5
2B9
  8
DIM
 10
122.5153474008717
 20
407.52555043622669
 30
0.0
 40
5.0
  1
B.S.P. OR N.P.T.
 50
90.0
 72
     4
 11
120.0153474008717
 21
438.00174091241729
 31
0.0
  0
LINE
  5
2BA
  8
DIM
 10
64.532596651500171
 20
1057.6095232155631
 30
0.0
 11
64.532596651500171
 21
1087.002108235811
 31
0.0
  0
TEXT
  5
2BB
  8
TXT
 10
389.04761904761898
 20
980.94354470469898
 30
0.0
 40
5.0
  1
%%c20.00 -0.05
 72
     4
 11
415.0
 21
983.44354470469898
 31
0.0
  0
TEXT
  5
2BC
  8
TXT
 10
389.04761904761898
 20
1007.443544704699
 30
0.0
 40
5.0
  1
%%c20.00 -0.05
 72
     4
 11
415.0
 21
1009.943544704698
 31
0.0
  0
TEXT
  5
2BD
  8
TXT
 10
389.04761904761898
 20
954.44354470469909
 30
0.0
 40
5.0
  1
%%c30.00 -0.05
 72
     4
 11
415.0
 21
956.94354470469909
 31
0.0
  0
TEXT
  5
2BE
  8
TXT
 10
379.88095238095229
 20
970.80068756184187
 30
0.0
 40
5.0
  1
(%%c0.787" -0.002")
 72
     4
 11
415.0
 21
972.94354470469909
 31
0.0
  0
TEXT
  5
2BF
  8
TXT
 10
379.88095238095229
 20
997.30068756184176
 30
0.0
 40
5.0
  1
(%%c0.787" -0.002")
 72
     4
 11
415.0
 21
999.44354470469898
 31
0.0
  0
TEXT
  5
2C0
  8
TXT
 10
381.30952380952368
 20
917.80068756184198
 30
0.0
 40
5.0
  1
(%%c1.181" -0.002")
 72
     4
 11
415.0
 21
919.94354470469921
 31
0.0
  0
TEXT
  5
2C1
  8
TXT
 10
381.30952380952368
 20
944.30068756184198
 30
0.0
 40
5.0
  1
(%%c1.181" -0.002")
 72
     4
 11
415.0
 21
946.44354470469932
 31
0.0
  0
TEXT
  5
2C2
  8
TXT
 10
389.04761904761898
 20
927.94354470469921
 30
0.0
 40
5.0
  1
%%c30.00 -0.05
 72
     4
 11
415.0
 21
930.44354470469921
 31
0.0
  0
LINE
  5
2C3
  8
DRG2
 10
240.0
 20
1060.443544704699
 30
0.0
 11
760.0
 21
1060.443544704699
 31
0.0
  0
LINE
  5
2C4
  8
DRG2
 10
240.0
 20
1044.443544704699
 30
0.0
 11
760.0
 21
1044.443544704699
 31
0.0
  0
LINE
  5
2C5
  8
DRG2
 10
240.0
 20
991.44354470469898
 30
0.0
 11
760.0
 21
991.44354470469943
 31
0.0
  0
LINE
  5
2C6
  8
DRG2
 10
240.0
 20
1017.943544704698
 30
0.0
 11
760.0
 21
1017.943544704699
 31
0.0
  0
LINE
  5
2C7
  8
DRG2
 10
240.0
 20
964.94354470469909
 30
0.0
 11
760.0
 21
964.94354470469955
 31
0.0
  0
LINE
  5
2C8
  8
DRG2
 10
240.0
 20
911.94354470469921
 30
0.0
 11
760.0
 21
911.94354470469943
 31
0.0
  0
LINE
  5
2C9
  8
DRG2
 10
240.0
 20
964.94354470469909
 30
0.0
 11
760.0
 21
964.94354470469955
 31
0.0
  0
LINE
  5
2CA
  8
DRG2
 10
240.0
 20
938.44354470469932
 30
0.0
 11
760.0
 21
938.44354470469943
 31
0.0
  0
TEXT
  5
2CB
  8
TXT
 10
408.6904761904762
 20
1023.443544704699
 30
0.0
 40
5.0
  1
DIA.
 72
     4
 11
415.0
 21
1025.9435447046981
 31
0.0
  0
TEXT
  5
2CC
  8
TXT
 10
403.5714285714285
 20
1033.9435447046981
 30
0.0
 40
5.0
  1
SHAFT
 72
     4
 11
415.0
 21
1036.443544704699
 31
0.0
  0
TEXT
  5
2CD
  8
TXT
 10
303.92857142857139
 20
954.8006875618421
 30
0.0
 40
5.0
  1
%%c175 (%%c6.89")
 72
     4
 11
330.0
 21
956.94354470469909
 31
0.0
  0
LINE
  5
2CE
  8
DRG2
 10
370.0
 20
911.94354470469943
 30
0.0
 11
370.0
 21
1044.443544704699
 31
0.0
  0
LINE
  5
2CF
  8
DRG2
 10
290.0
 20
911.94354470469921
 30
0.0
 11
290.0
 21
1044.443544704699
 31
0.0
  0
LINE
  5
2D0
  8
DRG2
 10
240.0
 20
911.94354470469921
 30
0.0
 11
240.0
 21
1060.443544704699
 31
0.0
  0
TEXT
  5
2D1
  8
TXT
 10
250.95238095238091
 20
949.19354470469921
 30
0.0
 40
5.0
  1
ISO F14
 72
     4
 11
265.0
 21
951.69354470469909
 31
0.0
  0
TEXT
  5
2D2
  8
TXT
 10
256.54761904761898
 20
922.69354470469921
 30
0.0
 40
5.0
  1
FA14
 72
     4
 11
265.0
 21
925.19354470469921
 31
0.0
  0
TEXT
  5
2D3
  8
TXT
 10
303.92857142857139
 20
928.30068756184198
 30
0.0
 40
5.0
  1
%%c175 (%%c6.89")
 72
     4
 11
330.0
 21
930.44354470469921
 31
0.0
  0
TEXT
  5
2D4
  8
TXT
 10
306.54761904761898
 20
944.30068756184198
 30
0.0
 40
5.0
  1
x 15 (0.59")
 72
     4
 11
330.0
 21
946.44354470469932
 31
0.0
  0
TEXT
  5
2D5
  8
TXT
 10
306.54761904761898
 20
917.80068756184198
 30
0.0
 40
5.0
  1
x 15 (0.59")
 72
     4
 11
330.0
 21
919.94354470469921
 31
0.0
  0
TEXT
  5
2D6
  8
TXT
 10
251.0714285714285
 20
1002.193544704699
 30
0.0
 40
5.0
  1
ISO F10
 72
     4
 11
265.0
 21
1004.693544704698
 31
0.0
  0
TEXT
  5
2D7
  8
TXT
 10
256.66666666666657
 20
975.69354470469909
 30
0.0
 40
5.0
  1
FA10
 72
     4
 11
265.0
 21
978.19354470469898
 31
0.0
  0
TEXT
  5
2D8
  8
TXT
 10
305.0
 20
1023.443544704699
 30
0.0
 40
5.0
  1
& THICKNESS
 72
     4
 11
330.0
 21
1025.9435447046981
 31
0.0
  0
TEXT
  5
2D9
  8
TXT
 10
303.92857142857139
 20
981.30068756184176
 30
0.0
 40
5.0
  1
%%c125 (%%c4.92")
 72
     4
 11
330.0
 21
983.44354470469898
 31
0.0
  0
TEXT
  5
2DA
  8
TXT
 10
303.92857142857139
 20
1007.800687561841
 30
0.0
 40
5.0
  1
%%c125 (%%c4.92")
 72
     4
 11
330.0
 21
1009.943544704698
 31
0.0
  0
TEXT
  5
2DB
  8
TXT
 10
302.02380952380952
 20
1034.300687561841
 30
0.0
 40
5.0
  1
FLANGE O/DIA.
 72
     4
 11
330.0
 21
1036.443544704699
 31
0.0
  0
TEXT
  5
2DC
  8
TXT
 10
306.54761904761898
 20
997.30068756184176
 30
0.0
 40
5.0
  1
x 10 (0.39")
 72
     4
 11
330.0
 21
999.44354470469898
 31
0.0
  0
TEXT
  5
2DD
  8
TXT
 10
306.54761904761898
 20
970.80068756184187
 30
0.0
 40
5.0
  1
x 10 (0.39")
 72
     4
 11
330.0
 21
972.94354470469909
 31
0.0
  0
TEXT
  5
2DE
  8
TXT
 10
678.57142857142856
 20
997.30068756184176
 30
0.0
 40
5.0
  1
(0.24"x0.24"x1.57")
 72
     4
 11
715.0
 21
999.44354470469898
 31
0.0
  0
TEXT
  5
2DF
  8
TXT
 10
678.57142857142856
 20
970.80068756184187
 30
0.0
 40
5.0
  1
(0.24"x0.24"x1.57")
 72
     4
 11
715.0
 21
972.94354470469909
 31
0.0
  0
TEXT
  5
2E0
  8
TXT
 10
679.04761904761904
 20
944.30068756184198
 30
0.0
 40
5.0
  1
(0.31"x0.28"x1.57")
 72
     4
 11
715.0
 21
946.44354470469932
 31
0.0
  0
TEXT
  5
2E1
  8
TXT
 10
679.04761904761904
 20
917.80068756184198
 30
0.0
 40
5.0
  1
(0.31"x0.28"x1.57")
 72
     4
 11
715.0
 21
919.94354470469921
 31
0.0
  0
TEXT
  5
2E2
  8
TXT
 10
563.92857142857179
 20
954.8006875618421
 30
0.0
 40
5.0
  1
4 HOLES %%c16.5 (%%c0.65")
 72
     4
 11
610.00000000000045
 21
956.94354470469909
 31
0.0
  0
TEXT
  5
2E3
  8
TXT
 10
477.14285714285711
 20
954.44354470469909
 30
0.0
 40
5.0
  1
%%c100.05 +0.05
 72
     4
 11
505.0
 21
956.94354470469909
 31
0.0
  0
LINE
  5
2E4
  8
DRG2
 10
670.00000000000045
 20
911.94354470469943
 30
0.0
 11
670.00000000000045
 21
1044.443544704699
 31
0.0
  0
LINE
  5
2E5
  8
DRG2
 10
460.0
 20
911.94354470469943
 30
0.0
 11
460.0
 21
1044.443544704699
 31
0.0
  0
LINE
  5
2E6
  8
DRG2
 10
550.00000000000045
 20
911.94354470469943
 30
0.0
 11
550.0
 21
1044.443544704699
 31
0.0
  0
TEXT
  5
2E7
  8
TXT
 10
467.2619047619047
 20
917.80068756184198
 30
0.0
 40
5.0
  1
(%%c3.751" +0.002") 
 72
     4
 11
505.0
 21
919.94354470469921
 31
0.0
  0
TEXT
  5
2E8
  8
TXT
 10
466.78571428571422
 20
944.30068756184198
 30
0.0
 40
5.0
  1
(%%c3.939" +0.002") 
 72
     4
 11
505.0
 21
946.44354470469932
 31
0.0
  0
TEXT
  5
2E9
  8
TXT
 10
479.04761904761898
 20
927.94354470469921
 30
0.0
 40
5.0
  1
%%c95.27 +0.05
 72
     4
 11
505.0
 21
930.44354470469921
 31
0.0
  0
TEXT
  5
2EA
  8
TXT
 10
563.80952380952419
 20
944.30068756184198
 30
0.0
 40
5.0
  1
ON %%c140.0 (%%c5.51") P.C.
 72
     4
 11
610.00000000000045
 21
946.44354470469932
 31
0.0
  0
TEXT
  5
2EB
  8
TXT
 10
563.80952380952419
 20
917.80068756184198
 30
0.0
 40
5.0
  1
ON %%c140.0 (%%c5.51") P.C.
 72
     4
 11
610.00000000000045
 21
919.94354470469921
 31
0.0
  0
TEXT
  5
2EC
  8
TXT
 10
563.92857142857179
 20
928.30068756184198
 30
0.0
 40
5.0
  1
4 HOLES %%c16.5 (%%c0.65")
 72
     4
 11
610.00000000000045
 21
930.44354470469921
 31
0.0
  0
TEXT
  5
2ED
  8
TXT
 10
456.3095238095238
 20
1049.9435447046981
 30
0.0
 40
5.0
  1
INPUT FLANGE DETAILS
 72
     4
 11
500.0
 21
1052.443544704699
 31
0.0
  0
TEXT
  5
2EE
  8
TXT
 10
467.2619047619047
 20
970.80068756184187
 30
0.0
 40
5.0
  1
(%%c2.313" +0.002") 
 72
     4
 11
505.0
 21
972.94354470469909
 31
0.0
  0
TEXT
  5
2EF
  8
TXT
 10
466.78571428571422
 20
997.30068756184176
 30
0.0
 40
5.0
  1
(%%c2.758" +0.002") 
 72
     4
 11
505.0
 21
999.44354470469898
 31
0.0
  0
TEXT
  5
2F0
  8
TXT
 10
479.04761904761898
 20
1007.443544704699
 30
0.0
 40
5.0
  1
%%c70.05 +0.05
 72
     4
 11
505.0
 21
1009.943544704698
 31
0.0
  0
TEXT
  5
2F1
  8
TXT
 10
479.04761904761898
 20
980.94354470469898
 30
0.0
 40
5.0
  1
%%c58.75 +0.05
 72
     4
 11
505.0
 21
983.44354470469898
 31
0.0
  0
TEXT
  5
2F2
  8
TXT
 10
491.42857142857139
 20
1033.9435447046981
 30
0.0
 40
5.0
  1
RECESS
 72
     4
 11
505.0
 21
1036.443544704699
 31
0.0
  0
TEXT
  5
2F3
  8
TXT
 10
498.6904761904762
 20
1023.443544704699
 30
0.0
 40
5.0
  1
DIA.
 72
     4
 11
505.0
 21
1025.9435447046981
 31
0.0
  0
TEXT
  5
2F4
  8
TXT
 10
584.04761904761938
 20
1033.9435447046981
 30
0.0
 40
5.0
  1
HOLE DETAILS
 72
     4
 11
610.00000000000045
 21
1036.443544704699
 31
0.0
  0
TEXT
  5
2F5
  8
TXT
 10
573.69047619047649
 20
1023.800687561841
 30
0.0
 40
5.0
  1
(45%%d OFF CENTRES)
 72
     4
 11
610.00000000000045
 21
1025.9435447046981
 31
0.0
  0
TEXT
  5
2F6
  8
TXT
 10
563.33333333333383
 20
970.80068756184187
 30
0.0
 40
5.0
  1
ON %%c102.0 (%%c4.02") P.C.
 72
     4
 11
610.00000000000045
 21
972.94354470469909
 31
0.0
  0
TEXT
  5
2F7
  8
TXT
 10
563.33333333333383
 20
997.30068756184176
 30
0.0
 40
5.0
  1
ON %%c102.0 (%%c4.02") P.C.
 72
     4
 11
610.00000000000045
 21
999.44354470469898
 31
0.0
  0
TEXT
  5
2F8
  8
TXT
 10
564.40476190476238
 20
981.30068756184176
 30
0.0
 40
5.0
  1
4 HOLES %%c10.5 (%%c0.41")
 72
     4
 11
610.00000000000045
 21
983.44354470469898
 31
0.0
  0
TEXT
  5
2F9
  8
TXT
 10
564.40476190476238
 20
1007.800687561841
 30
0.0
 40
5.0
  1
4 HOLES %%c10.5 (%%c0.41")
 72
     4
 11
610.00000000000045
 21
1009.943544704698
 31
0.0
  0
TEXT
  5
2FA
  8
TXT
 10
702.14285714285711
 20
954.44354470469909
 30
0.0
 40
5.0
  1
8x7x40
 72
     4
 11
715.0
 21
956.94354470469909
 31
0.0
  0
LINE
  5
2FB
  8
DRG2
 10
760.0
 20
911.94354470469943
 30
0.0
 11
760.0
 21
1060.443544704699
 31
0.0
  0
TEXT
  5
2FC
  8
TXT
 10
702.14285714285711
 20
927.94354470469921
 30
0.0
 40
5.0
  1
8x7x40
 72
     4
 11
715.0
 21
930.44354470469921
 31
0.0
  0
TEXT
  5
2FD
  8
TXT
 10
700.83333333333326
 20
1023.443544704699
 30
0.0
 40
5.0
  1
DETAILS
 72
     4
 11
715.0
 21
1025.9435447046981
 31
0.0
  0
TEXT
  5
2FE
  8
TXT
 10
702.14285714285711
 20
1007.443544704699
 30
0.0
 40
5.0
  1
6x6x40
 72
     4
 11
715.0
 21
1009.943544704698
 31
0.0
  0
TEXT
  5
2FF
  8
TXT
 10
702.14285714285711
 20
980.94354470469898
 30
0.0
 40
5.0
  1
6x6x40
 72
     4
 11
715.0
 21
983.44354470469898
 31
0.0
  0
TEXT
  5
300
  8
TXT
 10
708.33333333333326
 20
1033.9435447046981
 30
0.0
 40
5.0
  1
KEY
 72
     4
 11
715.0
 21
1036.443544704699
 31
0.0
  0
LINE
  5
301
  8
DRG2
 10
432.0837664662825
 20
143.28826148652379
 30
0.0
 11
732.08376646628199
 21
143.28826148652379
 31
0.0
  0
TEXT
  5
302
  8
TXT
 10
610.41709979961536
 20
149.1454043436666
 30
0.0
 40
5.0
  1
ON %%c165.0 (%%c6.50") P.C.
 72
     4
 11
657.08376646628199
 21
151.28826148652371
 31
0.0
  0
TEXT
  5
303
  8
TXT
 10
587.91709979961536
 20
159.6454043436666
 30
0.0
 40
5.0
  1
4 HOLES 3/4"UNCx25 (0.98") DEEP
 72
     4
 11
657.08376646628199
 21
161.78826148652371
 31
0.0
  0
TEXT
  5
304
  8
TXT
 10
610.41709979961536
 20
175.6454043436666
 30
0.0
 40
5.0
  1
ON %%c165.0 (%%c6.50") P.C.
 72
     4
 11
657.08376646628199
 21
177.78826148652371
 31
0.0
  0
TEXT
  5
305
  8
TXT
 10
597.20281408532958
 20
186.1454043436666
 30
0.0
 40
5.0
  1
4 HOLES M20x25 (0.98") DEEP
 72
     4
 11
657.08376646628199
 21
188.28826148652379
 31
0.0
  0
TEXT
  5
306
  8
TXT
 10
591.8456712281868
 20
202.1454043436666
 30
0.0
 40
5.0
  1
HOLE DETAILS (45%%d OFF CENTRES)
 72
     4
 11
657.08376646628199
 21
204.28826148652371
 31
0.0
  0
LINE
  5
307
  8
DRG2
 10
432.0837664662825
 20
228.28826148652379
 30
0.0
 11
732.08376646628199
 21
228.28826148652379
 31
0.0
  0
LINE
  5
308
  8
DRG2
 10
432.0837664662825
 20
169.78826148652371
 30
0.0
 11
732.08376646628199
 21
169.78826148652371
 31
0.0
  0
LINE
  5
309
  8
DRG2
 10
432.0837664662825
 20
196.28826148652379
 30
0.0
 11
732.08376646628199
 21
196.28826148652379
 31
0.0
  0
LINE
  5
30A
  8
DRG2
 10
432.0837664662825
 20
212.28826148652371
 30
0.0
 11
732.08376646628199
 21
212.28826148652371
 31
0.0
  0
TEXT
  5
30B
  8
TXT
 10
544.3456712281868
 20
217.78826148652379
 30
0.0
 40
5.0
  1
BASEPLATE DETAILS
 72
     4
 11
582.08376646628199
 21
220.28826148652379
 31
0.0
  0
TEXT
  5
30C
  8
TXT
 10
494.3456712281872
 20
149.1454043436666
 30
0.0
 40
5.0
  1
(%%c4.995" -0.010") 
 72
     4
 11
532.08376646628255
 21
151.28826148652371
 31
0.0
  0
TEXT
  5
30D
  8
TXT
 10
494.82186170437768
 20
175.6454043436666
 30
0.0
 40
5.0
  1
(%%c5.116" -0.002") 
 72
     4
 11
532.08376646628255
 21
177.78826148652371
 31
0.0
  0
TEXT
  5
30E
  8
TXT
 10
448.86948075199678
 20
154.03826148652371
 30
0.0
 40
5.0
  1
FA16
 72
     4
 11
457.0837664662825
 21
156.53826148652371
 31
0.0
  0
LINE
  5
30F
  8
DRG2
 10
432.0837664662825
 20
143.28826148652379
 30
0.0
 11
432.0837664662825
 21
228.28826148652379
 31
0.0
  0
LINE
  5
310
  8
DRG2
 10
482.0837664662825
 20
143.28826148652379
 30
0.0
 11
482.0837664662825
 21
212.28826148652371
 31
0.0
  0
TEXT
  5
311
  8
TXT
 10
443.2742426567587
 20
180.53826148652371
 30
0.0
 40
5.0
  1
ISO F16
 72
     4
 11
457.0837664662825
 21
183.03826148652379
 31
0.0
  0
TEXT
  5
312
  8
TXT
 10
504.22662360913961
 20
185.78826148652371
 30
0.0
 40
5.0
  1
%%c129.95 -0.05
 72
     4
 11
532.08376646628255
 21
188.28826148652379
 31
0.0
  0
TEXT
  5
313
  8
TXT
 10
504.22662360913961
 20
159.28826148652379
 30
0.0
 40
5.0
  1
%%c126.87 -0.25
 72
     4
 11
532.08376646628255
 21
161.78826148652371
 31
0.0
  0
TEXT
  5
314
  8
TXT
 10
510.41709979961581
 20
201.78826148652379
 30
0.0
 40
5.0
  1
SPIGOT DIA.
 72
     4
 11
532.08376646628255
 21
204.28826148652371
 31
0.0
  0
LINE
  5
315
  8
DRG2
 10
582.08376646628255
 20
143.28826148652391
 30
0.0
 11
582.08376646628255
 21
212.28826148652371
 31
0.0
  0
LINE
  5
316
  8
DRG2
 10
732.08376646628199
 20
143.28826148652399
 30
0.0
 11
732.08376646628199
 21
228.28826148652399
 31
0.0
  0
INSERT
  5
513
  8
0
  2
ROTORK_GEARS_LOGO
 10
13.07034824381611
 20
45.778283286084744
 30
0.0
 41
0.70000000000001
 42
0.70000000000001
 43
0.7000000000000001
  0
VIEWPORT
  5
3F
 67
     1
  8
0
 10
210.00000022409631
 20
152.0942409999999
 30
0.0
 40
420.00000044819268
 41
304.18848199999991
 68
     1
 69
     1
1001
ACAD
1000
MVIEW
1002
{
1070
    16
1010
0.0
1020
0.0
1030
0.0
1010
0.0
1020
0.0
1030
1.0
1040
0.0
1040
304.18848199999991
1040
210.00000022409631
1040
152.0942409999999
1040
50.0
1040
0.0
1040
0.0
1070
     0
1070
  2000
1070
     1
1070
     1
1070
     1
1070
     0
1070
     0
1070
     1
1040
0.0
1040
0.0
1040
0.0
1040
5.0
1040
5.0
1040
10.0
1040
10.0
1070
     0
1002
{
1002
}
1002
}
  0
ENDSEC
  0
EOF
