ISO-10303-21;
HEADER;
/* Generated by software containing ST-Developer
 * from STEP Tools, Inc. (www.steptools.com) 
 */
/* OPTION: strings as raw bytes, not using required /X/ escapes */

FILE_DESCRIPTION(
/* description */ ('Unknown'),
/* implementation_level */ '2;1');

FILE_NAME(
/* name */ 'PUB-IW66-N_SOLID_0-1',
/* time_stamp */ '2019-11-12T14:49:54+00:00',
/* author */ ('Unknown'),
/* organization */ ('Unknown'),
/* preprocessor_version */ 'ST-DEVELOPER v16.7',
/* originating_system */ 'DEX',
/* authorisation */ $);

FILE_SCHEMA (('AUTOMOTIVE_DESIGN {1 0 10303 214 3 1 1}'));
ENDSEC;

DATA;
#10=PROPERTY_DEFINITION_REPRESENTATION(#14,#12);
#11=PROPERTY_DEFINITION_REPRESENTATION(#15,#13);
#12=REPRESENTATION('',(#16),#108);
#13=REPRESENTATION('',(#17),#108);
#14=PROPERTY_DEFINITION('pmi validation property','',#113);
#15=PROPERTY_DEFINITION('pmi validation property','',#113);
#16=VALUE_REPRESENTATION_ITEM('number of annotations',COUNT_MEASURE(0.));
#17=VALUE_REPRESENTATION_ITEM('number of views',COUNT_MEASURE(0.));
#18=SHAPE_REPRESENTATION_RELATIONSHIP('','',#67,#19);
#19=ADVANCED_BREP_SHAPE_REPRESENTATION('',(#65),#108);
#20=CYLINDRICAL_SURFACE('',#72,5.);
#21=CYLINDRICAL_SURFACE('',#76,5.25);
#22=ORIENTED_EDGE('',*,*,#30,.F.);
#23=ORIENTED_EDGE('',*,*,#31,.F.);
#24=ORIENTED_EDGE('',*,*,#31,.T.);
#25=ORIENTED_EDGE('',*,*,#32,.T.);
#26=ORIENTED_EDGE('',*,*,#32,.F.);
#27=ORIENTED_EDGE('',*,*,#33,.F.);
#28=ORIENTED_EDGE('',*,*,#33,.T.);
#29=ORIENTED_EDGE('',*,*,#30,.T.);
#30=EDGE_CURVE('',#34,#34,#38,.T.);
#31=EDGE_CURVE('',#35,#35,#39,.T.);
#32=EDGE_CURVE('',#36,#36,#40,.F.);
#33=EDGE_CURVE('',#37,#37,#41,.T.);
#34=VERTEX_POINT('',#98);
#35=VERTEX_POINT('',#100);
#36=VERTEX_POINT('',#103);
#37=VERTEX_POINT('',#106);
#38=CIRCLE('',#70,5.25);
#39=CIRCLE('',#71,5.);
#40=CIRCLE('',#73,5.);
#41=CIRCLE('',#75,5.25);
#42=EDGE_LOOP('',(#22));
#43=EDGE_LOOP('',(#23));
#44=EDGE_LOOP('',(#24));
#45=EDGE_LOOP('',(#25));
#46=EDGE_LOOP('',(#26));
#47=EDGE_LOOP('',(#27));
#48=EDGE_LOOP('',(#28));
#49=EDGE_LOOP('',(#29));
#50=FACE_BOUND('',#42,.T.);
#51=FACE_BOUND('',#43,.T.);
#52=FACE_BOUND('',#44,.T.);
#53=FACE_BOUND('',#45,.T.);
#54=FACE_BOUND('',#46,.T.);
#55=FACE_BOUND('',#47,.T.);
#56=FACE_BOUND('',#48,.T.);
#57=FACE_BOUND('',#49,.T.);
#58=PLANE('',#69);
#59=PLANE('',#74);
#60=ADVANCED_FACE('',(#50,#51),#58,.T.);
#61=ADVANCED_FACE('',(#52,#53),#20,.T.);
#62=ADVANCED_FACE('',(#54,#55),#59,.F.);
#63=ADVANCED_FACE('',(#56,#57),#21,.F.);
#64=CLOSED_SHELL('',(#60,#61,#62,#63));
#65=MANIFOLD_SOLID_BREP('IW-00613-3-2',#64);
#66=SHAPE_DEFINITION_REPRESENTATION(#113,#67);
#67=SHAPE_REPRESENTATION('PUB-IW66-N_SOLID_0-1',(#68),#108);
#68=AXIS2_PLACEMENT_3D('',#95,#77,#78);
#69=AXIS2_PLACEMENT_3D('',#96,#79,#80);
#70=AXIS2_PLACEMENT_3D('',#97,#81,#82);
#71=AXIS2_PLACEMENT_3D('',#99,#83,#84);
#72=AXIS2_PLACEMENT_3D('',#101,#85,#86);
#73=AXIS2_PLACEMENT_3D('',#102,#87,#88);
#74=AXIS2_PLACEMENT_3D('',#104,#89,#90);
#75=AXIS2_PLACEMENT_3D('',#105,#91,#92);
#76=AXIS2_PLACEMENT_3D('',#107,#93,#94);
#77=DIRECTION('',(0.,0.,1.));
#78=DIRECTION('',(1.,0.,0.));
#79=DIRECTION('',(-1.,-3.29824283677005E-16,-7.98303674612866E-16));
#80=DIRECTION('',(-3.29824283677005E-16,1.,2.22261445359529E-16));
#81=DIRECTION('',(1.,0.,1.22464156065812E-16));
#82=DIRECTION('',(-1.4637067577343E-32,-1.,1.11022302462516E-16));
#83=DIRECTION('',(-1.,-3.29824283677005E-16,-7.98303674612866E-16));
#84=DIRECTION('',(-3.29824283677005E-16,1.,2.22261445359529E-16));
#85=DIRECTION('',(1.,3.29824283677005E-16,7.98303674612866E-16));
#86=DIRECTION('',(3.29824283677005E-16,-1.,-2.22261445359529E-16));
#87=DIRECTION('',(-1.,6.12303176911189E-17,0.));
#88=DIRECTION('',(-6.12303176911189E-17,-1.,0.));
#89=DIRECTION('',(-1.,6.12303176911189E-17,0.));
#90=DIRECTION('',(-6.12303176911189E-17,-1.,0.));
#91=DIRECTION('',(-1.,0.,-1.22464156065812E-16));
#92=DIRECTION('',(-1.4637067577343E-32,-1.,1.11022302462516E-16));
#93=DIRECTION('',(-1.,0.,-1.22464156065812E-16));
#94=DIRECTION('',(1.4637067577343E-32,1.,-1.11022302462516E-16));
#95=CARTESIAN_POINT('',(0.,0.,0.));
#96=CARTESIAN_POINT('',(137.14,177.8,68.));
#97=CARTESIAN_POINT('',(137.14,177.8,83.));
#98=CARTESIAN_POINT('',(137.14,172.55,83.));
#99=CARTESIAN_POINT('',(137.14,177.8,83.));
#100=CARTESIAN_POINT('',(137.14,182.8,83.));
#101=CARTESIAN_POINT('',(112.14,177.8,83.));
#102=CARTESIAN_POINT('',(127.,177.8,83.));
#103=CARTESIAN_POINT('',(127.,172.8,83.));
#104=CARTESIAN_POINT('',(127.,177.8,43.));
#105=CARTESIAN_POINT('',(127.,177.8,83.));
#106=CARTESIAN_POINT('',(127.,172.55,83.));
#107=CARTESIAN_POINT('',(327.686322403895,177.8,83.));
#108=(
GEOMETRIC_REPRESENTATION_CONTEXT(3)
GLOBAL_UNCERTAINTY_ASSIGNED_CONTEXT((#109))
GLOBAL_UNIT_ASSIGNED_CONTEXT((#112,#111,#110))
REPRESENTATION_CONTEXT('PUB-IW66-N_SOLID_0-1','TOP_LEVEL_ASSEMBLY_PART')
);
#109=UNCERTAINTY_MEASURE_WITH_UNIT(LENGTH_MEASURE(0.005),#112,
'DISTANCE_ACCURACY_VALUE','Maximum Tolerance applied to model');
#110=(
NAMED_UNIT(*)
SI_UNIT($,.STERADIAN.)
SOLID_ANGLE_UNIT()
);
#111=(
NAMED_UNIT(*)
PLANE_ANGLE_UNIT()
SI_UNIT($,.RADIAN.)
);
#112=(
LENGTH_UNIT()
NAMED_UNIT(*)
SI_UNIT(.MILLI.,.METRE.)
);
#113=PRODUCT_DEFINITION_SHAPE('','',#114);
#114=PRODUCT_DEFINITION('','',#116,#115);
#115=PRODUCT_DEFINITION_CONTEXT('',#122,'design');
#116=PRODUCT_DEFINITION_FORMATION_WITH_SPECIFIED_SOURCE('','',#118,
 .NOT_KNOWN.);
#117=PRODUCT_RELATED_PRODUCT_CATEGORY('','',(#118));
#118=PRODUCT('PUB-IW66-N_SOLID_0-1','PUB-IW66-N_SOLID_0-1',
'PUB-IW66-N_SOLID_0-1',(#120));
#119=PRODUCT_CATEGORY('','');
#120=PRODUCT_CONTEXT('',#122,'mechanical');
#121=APPLICATION_PROTOCOL_DEFINITION('international standard',
'automotive_design',2010,#122);
#122=APPLICATION_CONTEXT(
'core data for automotive mechanical design processes');
ENDSEC;
END-ISO-10303-21;
