ISO-10303-21;
HEADER;
/* Generated by software containing ST-Developer
 * from STEP Tools, Inc. (www.steptools.com) 
 */
/* OPTION: strings as raw bytes, not using required /X/ escapes */

FILE_DESCRIPTION(
/* description */ ('Unknown'),
/* implementation_level */ '2;1');

FILE_NAME(
/* name */ 'PUB-IW96-IR3_SOLID_0-1',
/* time_stamp */ '2019-11-12T16:49:10+00:00',
/* author */ ('Unknown'),
/* organization */ ('Unknown'),
/* preprocessor_version */ 'ST-DEVELOPER v16.7',
/* originating_system */ 'DEX',
/* authorisation */ $);

FILE_SCHEMA (('AUTOMOTIVE_DESIGN {1 0 10303 214 3 1 1}'));
ENDSEC;

DATA;
#10=PROPERTY_DEFINITION_REPRESENTATION(#14,#12);
#11=PROPERTY_DEFINITION_REPRESENTATION(#15,#13);
#12=REPRESENTATION('',(#16),#88);
#13=REPRESENTATION('',(#17),#88);
#14=PROPERTY_DEFINITION('pmi validation property','',#93);
#15=PROPERTY_DEFINITION('pmi validation property','',#93);
#16=VALUE_REPRESENTATION_ITEM('number of annotations',COUNT_MEASURE(0.));
#17=VALUE_REPRESENTATION_ITEM('number of views',COUNT_MEASURE(0.));
#18=SHAPE_REPRESENTATION_RELATIONSHIP('','',#56,#19);
#19=ADVANCED_BREP_SHAPE_REPRESENTATION('',(#54),#88);
#20=TOROIDAL_SURFACE('',#63,12.7928932188135,0.5);
#21=PLANE('',#61);
#22=ORIENTED_EDGE('',*,*,#28,.F.);
#23=ORIENTED_EDGE('',*,*,#29,.F.);
#24=ORIENTED_EDGE('',*,*,#29,.T.);
#25=ORIENTED_EDGE('',*,*,#30,.T.);
#26=ORIENTED_EDGE('',*,*,#30,.F.);
#27=ORIENTED_EDGE('',*,*,#28,.T.);
#28=EDGE_CURVE('',#31,#31,#34,.T.);
#29=EDGE_CURVE('',#32,#32,#35,.T.);
#30=EDGE_CURVE('',#33,#33,#36,.T.);
#31=VERTEX_POINT('',#81);
#32=VERTEX_POINT('',#83);
#33=VERTEX_POINT('',#86);
#34=CIRCLE('',#59,13.1464466094067);
#35=CIRCLE('',#60,14.);
#36=CIRCLE('',#62,12.7928932188135);
#37=EDGE_LOOP('',(#22));
#38=EDGE_LOOP('',(#23));
#39=EDGE_LOOP('',(#24));
#40=EDGE_LOOP('',(#25));
#41=EDGE_LOOP('',(#26));
#42=EDGE_LOOP('',(#27));
#43=FACE_BOUND('',#37,.T.);
#44=FACE_BOUND('',#38,.T.);
#45=FACE_BOUND('',#39,.T.);
#46=FACE_BOUND('',#40,.T.);
#47=FACE_BOUND('',#41,.T.);
#48=FACE_BOUND('',#42,.T.);
#49=CONICAL_SURFACE('',#58,14.,0.785398163397448);
#50=ADVANCED_FACE('',(#43,#44),#49,.F.);
#51=ADVANCED_FACE('',(#45,#46),#21,.F.);
#52=ADVANCED_FACE('',(#47,#48),#20,.T.);
#53=CLOSED_SHELL('',(#50,#51,#52));
#54=MANIFOLD_SOLID_BREP('IW-00865-1-2',#53);
#55=SHAPE_DEFINITION_REPRESENTATION(#93,#56);
#56=SHAPE_REPRESENTATION('PUB-IW96-IR3_SOLID_0-1',(#57),#88);
#57=AXIS2_PLACEMENT_3D('',#78,#64,#65);
#58=AXIS2_PLACEMENT_3D('',#79,#66,#67);
#59=AXIS2_PLACEMENT_3D('',#80,#68,#69);
#60=AXIS2_PLACEMENT_3D('',#82,#70,#71);
#61=AXIS2_PLACEMENT_3D('',#84,#72,#73);
#62=AXIS2_PLACEMENT_3D('',#85,#74,#75);
#63=AXIS2_PLACEMENT_3D('',#87,#76,#77);
#64=DIRECTION('',(0.,0.,1.));
#65=DIRECTION('',(1.,0.,0.));
#66=DIRECTION('',(-4.28254470469067E-17,9.83365982781644E-17,1.));
#67=DIRECTION('',(0.707106781186547,0.707106781186548,-4.53576816737339E-16));
#68=DIRECTION('',(1.1303416651906E-15,2.17779389943649E-16,1.));
#69=DIRECTION('',(-1.,-2.71834567430179E-16,3.05512747282931E-16));
#70=DIRECTION('',(4.28254470469067E-17,-9.83365982781644E-17,-1.));
#71=DIRECTION('',(0.707106781186547,0.707106781186548,-4.53576816737339E-16));
#72=DIRECTION('',(0.,0.,1.));
#73=DIRECTION('',(1.,0.,0.));
#74=DIRECTION('',(1.1303416651906E-15,2.17779389943649E-16,1.));
#75=DIRECTION('',(-1.,-2.71834567430179E-16,3.05512747282931E-16));
#76=DIRECTION('',(1.1303416651906E-15,2.17779389943649E-16,1.));
#77=DIRECTION('',(-1.,-2.71834567430179E-16,3.05512747282931E-16));
#78=CARTESIAN_POINT('',(0.,0.,0.));
#79=CARTESIAN_POINT('',(47.8354290456362,115.484941563911,136.));
#80=CARTESIAN_POINT('',(47.8354290456364,115.484941563911,135.146446609406));
#81=CARTESIAN_POINT('',(34.6889824362297,115.484941563911,135.146446609406));
#82=CARTESIAN_POINT('',(47.8354290456362,115.484941563911,136.));
#83=CARTESIAN_POINT('',(57.7349239822479,125.384436500523,136.));
#84=CARTESIAN_POINT('',(3.38377376531022E-15,-6.67865510489716E-15,136.));
#85=CARTESIAN_POINT('',(47.8354290456364,115.484941563911,136.));
#86=CARTESIAN_POINT('',(35.0425358268229,115.484941563911,136.));
#87=CARTESIAN_POINT('',(47.8354290456364,115.484941563911,135.5));
#88=(
GEOMETRIC_REPRESENTATION_CONTEXT(3)
GLOBAL_UNCERTAINTY_ASSIGNED_CONTEXT((#89))
GLOBAL_UNIT_ASSIGNED_CONTEXT((#92,#91,#90))
REPRESENTATION_CONTEXT('PUB-IW96-IR3_SOLID_0-1',
'TOP_LEVEL_ASSEMBLY_PART')
);
#89=UNCERTAINTY_MEASURE_WITH_UNIT(LENGTH_MEASURE(0.005),#92,
'DISTANCE_ACCURACY_VALUE','Maximum Tolerance applied to model');
#90=(
NAMED_UNIT(*)
SI_UNIT($,.STERADIAN.)
SOLID_ANGLE_UNIT()
);
#91=(
NAMED_UNIT(*)
PLANE_ANGLE_UNIT()
SI_UNIT($,.RADIAN.)
);
#92=(
LENGTH_UNIT()
NAMED_UNIT(*)
SI_UNIT(.MILLI.,.METRE.)
);
#93=PRODUCT_DEFINITION_SHAPE('','',#94);
#94=PRODUCT_DEFINITION('','',#96,#95);
#95=PRODUCT_DEFINITION_CONTEXT('',#102,'design');
#96=PRODUCT_DEFINITION_FORMATION_WITH_SPECIFIED_SOURCE('','',#98,
 .NOT_KNOWN.);
#97=PRODUCT_RELATED_PRODUCT_CATEGORY('','',(#98));
#98=PRODUCT('PUB-IW96-IR3_SOLID_0-1','PUB-IW96-IR3_SOLID_0-1',
'PUB-IW96-IR3_SOLID_0-1',(#100));
#99=PRODUCT_CATEGORY('','');
#100=PRODUCT_CONTEXT('',#102,'mechanical');
#101=APPLICATION_PROTOCOL_DEFINITION('international standard',
'automotive_design',2010,#102);
#102=APPLICATION_CONTEXT(
'core data for automotive mechanical design processes');
ENDSEC;
END-ISO-10303-21;
